  0
SECTION
  2
HEADER
  9
$ACADVER
  1
AC1015
  9
$ACADMAINTVER
 70
    18
  9
$DWGCODEPAGE
  3
ANSI_1252
  9
$INSBASE
 10
0.0
 20
0.0
 30
0.0
  9
$EXTMIN
 10
-148.6249974046659
 20
-93.38313108517695
 30
-0.0015258207003583
  9
$EXTMAX
 10
75.52806238519043
 20
75.49443160893201
 30
0.0000000349246037
  9
$LIMMIN
 10
0.0
 20
0.0
  9
$LIMMAX
 10
1189.0
 20
840.9999999999998
  9
$ORTHOMODE
 70
     0
  9
$REGENMODE
 70
     1
  9
$FILLMODE
 70
     1
  9
$QTEXTMODE
 70
     0
  9
$MIRRTEXT
 70
     0
  9
$LTSCALE
 40
1.0
  9
$ATTMODE
 70
     1
  9
$TEXTSIZE
 40
0.2
  9
$TRACEWID
 40
0.05
  9
$TEXTSTYLE
  7
STANDARD
  9
$CLAYER
  8
0
  9
$CELTYPE
  6
ByLayer
  9
$CECOLOR
 62
   256
  9
$CELTSCALE
 40
1.0
  9
$DISPSILH
 70
     0
  9
$DIMSCALE
 40
1.0
  9
$DIMASZ
 40
180.0
  9
$DIMEXO
 40
0.0625
  9
$DIMDLI
 40
0.38
  9
$DIMRND
 40
0.0
  9
$DIMDLE
 40
0.0
  9
$DIMEXE
 40
0.18
  9
$DIMTP
 40
0.0
  9
$DIMTM
 40
0.0
  9
$DIMTXT
 40
34.99999940395355
  9
$DIMCEN
 40
0.09
  9
$DIMTSZ
 40
0.0
  9
$DIMTOL
 70
     0
  9
$DIMLIM
 70
     0
  9
$DIMTIH
 70
     1
  9
$DIMTOH
 70
     1
  9
$DIMSE1
 70
     0
  9
$DIMSE2
 70
     0
  9
$DIMTAD
 70
     0
  9
$DIMZIN
 70
     0
  9
$DIMBLK
  1

  9
$DIMASO
 70
     1
  9
$DIMSHO
 70
     1
  9
$DIMPOST
  1

  9
$DIMAPOST
  1

  9
$DIMALT
 70
     0
  9
$DIMALTD
 70
     2
  9
$DIMALTF
 40
25.4
  9
$DIMLFAC
 40
1.0
  9
$DIMTOFL
 70
     0
  9
$DIMTVP
 40
0.0
  9
$DIMTIX
 70
     0
  9
$DIMSOXD
 70
     0
  9
$DIMSAH
 70
     0
  9
$DIMBLK1
  1

  9
$DIMBLK2
  1

  9
$DIMSTYLE
  2
STANDARD
  9
$DIMCLRD
 70
     0
  9
$DIMCLRE
 70
     0
  9
$DIMCLRT
 70
     0
  9
$DIMTFAC
 40
1.0
  9
$DIMGAP
 40
0.09
  9
$DIMJUST
 70
     0
  9
$DIMSD1
 70
     0
  9
$DIMSD2
 70
     0
  9
$DIMTOLJ
 70
     1
  9
$DIMTZIN
 70
     0
  9
$DIMALTZ
 70
     0
  9
$DIMALTTZ
 70
     0
  9
$DIMUPT
 70
     0
  9
$DIMDEC
 70
     4
  9
$DIMTDEC
 70
     4
  9
$DIMALTU
 70
     2
  9
$DIMALTTD
 70
     2
  9
$DIMTXSTY
  7
STANDARD
  9
$DIMAUNIT
 70
     0
  9
$DIMADEC
 70
     0
  9
$DIMALTRND
 40
0.0
  9
$DIMAZIN
 70
     0
  9
$DIMDSEP
 70
    46
  9
$DIMATFIT
 70
     3
  9
$DIMFRAC
 70
     0
  9
$DIMLDRBLK
  1

  9
$DIMLUNIT
 70
     2
  9
$DIMLWD
 70
    -2
  9
$DIMLWE
 70
    -2
  9
$DIMTMOVE
 70
     0
  9
$LUNITS
 70
     2
  9
$LUPREC
 70
     4
  9
$SKETCHINC
 40
0.1
  9
$FILLETRAD
 40
0.0
  9
$AUNITS
 70
     0
  9
$AUPREC
 70
     0
  9
$MENU
  1
.
  9
$ELEVATION
 40
0.0
  9
$PELEVATION
 40
0.0
  9
$THICKNESS
 40
0.0
  9
$LIMCHECK
 70
     0
  9
$CHAMFERA
 40
0.0
  9
$CHAMFERB
 40
0.0
  9
$CHAMFERC
 40
0.0
  9
$CHAMFERD
 40
0.0
  9
$SKPOLY
 70
     0
  9
$TDCREATE
 40
2454871.497639329
  9
$TDUCREATE
 40
2454871.455972662
  9
$TDUPDATE
 40
2455943.982194908
  9
$TDUUPDATE
 40
2455943.940528241
  9
$TDINDWG
 40
0.0121082523
  9
$TDUSRTIMER
 40
0.0121082523
  9
$USRTIMER
 70
     1
  9
$ANGBASE
 50
0.0
  9
$ANGDIR
 70
     0
  9
$PDMODE
 70
     0
  9
$PDSIZE
 40
0.0
  9
$PLINEWID
 40
0.0
  9
$SPLFRAME
 70
     0
  9
$SPLINETYPE
 70
     6
  9
$SPLINESEGS
 70
     8
  9
$HANDSEED
  5
1B6
  9
$SURFTAB1
 70
     6
  9
$SURFTAB2
 70
     6
  9
$SURFTYPE
 70
     6
  9
$SURFU
 70
     6
  9
$SURFV
 70
     6
  9
$UCSBASE
  2

  9
$UCSNAME
  2

  9
$UCSORG
 10
0.0
 20
0.0
 30
0.0
  9
$UCSXDIR
 10
1.0
 20
0.0
 30
0.0
  9
$UCSYDIR
 10
0.0
 20
1.0
 30
0.0
  9
$UCSORTHOREF
  2

  9
$UCSORTHOVIEW
 70
     0
  9
$UCSORGTOP
 10
0.0
 20
0.0
 30
0.0
  9
$UCSORGBOTTOM
 10
0.0
 20
0.0
 30
0.0
  9
$UCSORGLEFT
 10
0.0
 20
0.0
 30
0.0
  9
$UCSORGRIGHT
 10
0.0
 20
0.0
 30
0.0
  9
$UCSORGFRONT
 10
0.0
 20
0.0
 30
0.0
  9
$UCSORGBACK
 10
0.0
 20
0.0
 30
0.0
  9
$PUCSBASE
  2

  9
$PUCSNAME
  2

  9
$PUCSORG
 10
0.0
 20
0.0
 30
0.0
  9
$PUCSXDIR
 10
1.0
 20
0.0
 30
0.0
  9
$PUCSYDIR
 10
0.0
 20
1.0
 30
0.0
  9
$PUCSORTHOREF
  2

  9
$PUCSORTHOVIEW
 70
     0
  9
$PUCSORGTOP
 10
0.0
 20
0.0
 30
0.0
  9
$PUCSORGBOTTOM
 10
0.0
 20
0.0
 30
0.0
  9
$PUCSORGLEFT
 10
0.0
 20
0.0
 30
0.0
  9
$PUCSORGRIGHT
 10
0.0
 20
0.0
 30
0.0
  9
$PUCSORGFRONT
 10
0.0
 20
0.0
 30
0.0
  9
$PUCSORGBACK
 10
0.0
 20
0.0
 30
0.0
  9
$USERI1
 70
     0
  9
$USERI2
 70
     0
  9
$USERI3
 70
     0
  9
$USERI4
 70
     0
  9
$USERI5
 70
     0
  9
$USERR1
 40
0.0
  9
$USERR2
 40
0.0
  9
$USERR3
 40
0.0
  9
$USERR4
 40
0.0
  9
$USERR5
 40
0.0
  9
$WORLDVIEW
 70
     1
  9
$SHADEDGE
 70
     3
  9
$SHADEDIF
 70
    70
  9
$TILEMODE
 70
     1
  9
$MAXACTVP
 70
    64
  9
$PINSBASE
 10
0.0
 20
0.0
 30
0.0
  9
$PLIMCHECK
 70
     0
  9
$PEXTMIN
 10
0.0
 20
0.0
 30
0.0
  9
$PEXTMAX
 10
1189.0
 20
840.9999999999998
 30
0.0
  9
$PLIMMIN
 10
0.0
 20
0.0
  9
$PLIMMAX
 10
1189.0
 20
840.9999999999998
  9
$UNITMODE
 70
     0
  9
$VISRETAIN
 70
     1
  9
$PLINEGEN
 70
     0
  9
$PSLTSCALE
 70
     1
  9
$TREEDEPTH
 70
  3020
  9
$CMLSTYLE
  2
Standard
  9
$CMLJUST
 70
     0
  9
$CMLSCALE
 40
1.0
  9
$PROXYGRAPHICS
 70
     1
  9
$MEASUREMENT
 70
     1
  9
$CELWEIGHT
370
    -1
  9
$ENDCAPS
280
     0
  9
$JOINSTYLE
280
     0
  9
$LWDISPLAY
290
     0
  9
$INSUNITS
 70
     4
  9
$HYPERLINKBASE
  1

  9
$STYLESHEET
  1

  9
$XEDIT
290
     1
  9
$CEPSNTYPE
380
     0
  9
$PSTYLEMODE
290
     1
  9
$FINGERPRINTGUID
  2
{16B38710-3F98-4DE1-8671-FE148795584D}
  9
$VERSIONGUID
  2
{AAF4067E-1A37-4504-AFCE-BFD08FBB4A9B}
  9
$EXTNAMES
290
     1
  9
$PSVPSCALE
 40
0.0
  9
$OLESTARTUP
290
     0
  0
ENDSEC
  0
SECTION
  2
CLASSES
  0
CLASS
  1
ACDBDICTIONARYWDFLT
  2
AcDbDictionaryWithDefault
  3
ObjectDBX Classes
 90
        0
280
     0
281
     0
  0
CLASS
  1
MATERIAL
  2
AcDbMaterial
  3
ObjectDBX Classes
 90
     1153
280
     0
281
     0
  0
CLASS
  1
VISUALSTYLE
  2
AcDbVisualStyle
  3
ObjectDBX Classes
 90
     4095
280
     0
281
     0
  0
CLASS
  1
SCALE
  2
AcDbScale
  3
ObjectDBX Classes
 90
     1153
280
     0
281
     0
  0
CLASS
  1
TABLESTYLE
  2
AcDbTableStyle
  3
ObjectDBX Classes
 90
     4095
280
     0
281
     0
  0
CLASS
  1
MLEADERSTYLE
  2
AcDbMLeaderStyle
  3
ACDB_MLEADERSTYLE_CLASS
 90
     4095
280
     0
281
     0
  0
CLASS
  1
SORTENTSTABLE
  2
AcDbSortentsTable
  3
ObjectDBX Classes
 90
        0
280
     0
281
     0
  0
CLASS
  1
CELLSTYLEMAP
  2
AcDbCellStyleMap
  3
ObjectDBX Classes
 90
     1152
280
     0
281
     0
  0
CLASS
  1
DICTIONARYVAR
  2
AcDbDictionaryVar
  3
ObjectDBX Classes
 90
        0
280
     0
281
     0
  0
CLASS
  1
ACME_DOCUMENT
  2
AcMeDbDoc
  3
AcMeServices
 90
    33792
280
     1
281
     0
  0
CLASS
  1
AMGSETTINGSOBJ
  2
AmgSettingsObj
  3
"AcadM|Product Description: AutoCAD Mechanical|Company: Autodesk, Inc."
 90
    33792
280
     1
281
     0
  0
CLASS
  1
ACMESCOPE
  2
AcMeScope
  3
AcMeServices
 90
    33792
280
     1
281
     0
  0
CLASS
  1
ACMECOMMANDHISTORY
  2
AcMeCommandHistory
  3
AcMeServices
 90
    33792
280
     1
281
     0
  0
CLASS
  1
ACIMSYSVARMAN
  2
AcImSysVarManager
  3
AcMeServices
 90
    33792
280
     1
281
     0
  0
CLASS
  1
ACIMINTSYSVAR
  2
AcImIntSysVar
  3
AcMeServices
 90
    33792
280
     1
281
     0
  0
CLASS
  1
ACMEDRAWINGMAN
  2
AcMeDrawingMan
  3
AcMeServices
 90
    33792
280
     1
281
     0
  0
CLASS
  1
ACMEVIEW
  2
AcMeView
  3
AcMeServices
 90
    33792
280
     1
281
     0
  0
CLASS
  1
ACDBENTITYCACHE
  2
AcMeEntityCache
  3
AcMeServices
 90
    33792
280
     1
281
     0
  0
CLASS
  1
GSMANAGER
  2
AcMeGSManager
  3
AcMeServices
 90
    33792
280
     1
281
     0
  0
CLASS
  1
AMDTINTERNALREACTOR
  2
AmdtInternalReactor
  3
AcMeServices
 90
    33792
280
     1
281
     0
  0
CLASS
  1
ACMESTATEMGR
  2
AcMeStateMgr
  3
AcMeServices
 90
    33792
280
     1
281
     0
  0
CLASS
  1
ACGREFMASTER
  2
AcGrefMaster
  3
AcAttribServices
 90
    33792
280
     1
281
     0
  0
CLASS
  1
AM_DRAWING_MGR
  2
AcDmDwgMgr
  3
AcMechDwgViewMgmt
 90
    33792
280
     1
281
     0
  0
CLASS
  1
AM_DWG_DOCUMENT
  2
AcDmDwgDocument
  3
AcMechDwgViewMgmt
 90
    33792
280
     1
281
     0
  0
CLASS
  1
AM_DWG_SHEET
  2
AcDmSheet
  3
AcMechDwgViewMgmt
 90
    33792
280
     1
281
     0
  0
CLASS
  1
AM_VIEWDIMPARMAP
  2
AcDmViewDimParMap
  3
AcMechDwgViewMgmt
 90
    33792
280
     1
281
     0
  0
CLASS
  1
ACIMREALSYSVAR
  2
AcImRealSysVar
  3
AcMeServices
 90
    33792
280
     1
281
     0
  0
CLASS
  1
AM_DWGMGR_NAME
  2
AcDmDwgMgrName
  3
AcMechDwgViewMgmt
 90
    33792
280
     1
281
     0
  0
CLASS
  1
ACME_DATABASE
  2
AcMeDbDatabase
  3
AcMeServices
 90
    33792
280
     1
281
     0
  0
CLASS
  1
ACRFINSADJUSTERMGR
  2
AcRfInsAdjusterMgr
  3
AcMeServices
 90
    33792
280
     1
281
     0
  0
CLASS
  1
ACGREFACADMASTER
  2
AcGrefacadMaster
  3
AcGrefServices
 90
    33792
280
     1
281
     0
  0
CLASS
  1
AMDTMENUSTATEMGR
  2
AmdtMenuStateMgr
  3
McadcomServices
 90
    33792
280
     1
281
     0
  0
CLASS
  1
AMDTMCOMMENUSTATE
  2
AmdtMcomMenuState
  3
McadcomServices
 90
    33792
280
     1
281
     0
  0
CLASS
  1
AMIMASTER
  2
AmiMaster
  3
AmiServices
 90
    33792
280
     1
281
     0
  0
CLASS
  1
MAPIAMMOUDLE
  2
MApiAmModule
  3
MApiAmServices
 90
    33792
280
     1
281
     0
  0
CLASS
  1
ACIMSTRSYSVAR
  2
AcImStrSysVar
  3
AcMeServices
 90
    33792
280
     1
281
     0
  0
CLASS
  1
AMDTADMENUSTATE
  2
AmdtAdMenuState
  3
DesignerServices
 90
    33792
280
     1
281
     0
  0
CLASS
  1
ADAPPL
  2
AcAdAppl
  3
DesignerServices
 90
    33792
280
     1
281
     0
  0
CLASS
  1
DEPMGR
  2
AcAdDepMgr
  3
DesignerServices
 90
    33792
280
     1
281
     0
  0
CLASS
  1
PARAMMGR
  2
AcAdParamMgr
  3
DesignerServices
 90
    33792
280
     1
281
     0
  0
CLASS
  1
PARAMSCOPE
  2
AcAdParamScope
  3
DesignerServices
 90
    33792
280
     1
281
     0
  0
CLASS
  1
NAMEDAPPL
  2
AcAdNamedAppl
  3
DesignerServices
 90
    33792
280
     1
281
     0
  0
CLASS
  1
AMDTDMMENUSTATE
  2
AmdtDmMenuState
  3
AcMechDwgViewMgmt
 90
    33792
280
     1
281
     0
  0
CLASS
  1
AMDTAMMENUSTATE
  2
AmdtAmMenuState
  3
DesignerAssemblies
 90
    33792
280
     1
281
     0
  0
CLASS
  1
ACAMPROJECT
  2
AcAmProject
  3
DesignerAssemblies
 90
    33792
280
     1
281
     0
  0
CLASS
  1
ACAMGRCOMPDEF
  2
AcAmGrCompDef
  3
DesignerAssemblies
 90
    33792
280
     1
281
     0
  0
CLASS
  1
ACCMCONTEXT
  2
AcCmContext
  3
DesignerAssemblies
 90
    33792
280
     1
281
     0
  0
CLASS
  1
ACAMCOMPDEF
  2
AcAmCompDef
  3
DesignerAssemblies
 90
    33792
280
     1
281
     0
  0
CLASS
  1
ACAMCOMPDEFMGR
  2
AcAmCompDefMgr
  3
DesignerAssemblies
 90
    33792
280
     1
281
     0
  0
CLASS
  1
AMCONTEXTMGR
  2
AcAmContextMgr
  3
DesignerAssemblies
 90
    33792
280
     1
281
     0
  0
CLASS
  1
ACAMCONTEXTMODELER
  2
AcAmContextModeler
  3
DesignerAssemblies
 90
    33792
280
     1
281
     0
  0
CLASS
  1
ACMDATADICTIONARY
  2
AcmDataDictionary
  3
"AcmSymBB|Product Description: AutoCAD Mechanical|Company: Autodesk, Inc."
 90
    33792
280
     1
281
     0
  0
CLASS
  1
CATALOGSTATE
  2
AcAmCatalogState
  3
DesignerAssemblies
 90
    33792
280
     1
281
     0
  0
CLASS
  1
ACAMGRCOMPDEFSET
  2
AcAmGrCompDefSet
  3
DesignerAssemblies
 90
    33792
280
     1
281
     0
  0
CLASS
  1
AMDTBROWSERDBTAB
  2
AmdtBrowserDbTab
  3
McadcomServices
 90
    33792
280
     1
281
     0
  0
CLASS
  1
CBROWSERAPPOBJECT
  2
CBrowserAppObject
  3
McadcomServices
 90
    33792
280
     1
281
     0
  0
CLASS
  1
DM_PLACEHOLDER
  2
AcDmSelsetPlaceholder
  3
AcMechDwgViewMgmt
 90
    33792
280
     1
281
     0
  0
CLASS
  1
EXACXREFPANELOBJECT
  2
ExAcXREFPanelObject
  3
EXAC_ESW
 90
     1025
280
     0
281
     0
  0
CLASS
  1
NPOCOLLECTION
  2
AcDbImpNonPersistentObjectsCollection
  3
ObjectDBX Classes
 90
     1153
280
     0
281
     0
  0
CLASS
  1
ACMSTANDARDANSI
  2
AcmStandardANSI
  3
"Amdt_StdImp|Product Description: AutoCAD Mechanical|Company: Autodesk, Inc."
 90
    33792
280
     1
281
     0
  0
CLASS
  1
ACMSURFSTANDARDANSI
  2
AcmSurfTextStdANSI
  3
"Amdt_StdImp|Product Description: AutoCAD Mechanical|Company: Autodesk, Inc."
 90
    33792
280
     1
281
     0
  0
CLASS
  1
ACMFCFSTANDARDANSI
  2
AcmFCFStdANSI
  3
"Amdt_StdImp|Product Description: AutoCAD Mechanical|Company: Autodesk, Inc."
 90
    33792
280
     1
281
     0
  0
CLASS
  1
ACMWELDSTANDARDANSI
  2
AcmWeldingStdANSI
  3
"Amdt_StdImp|Product Description: AutoCAD Mechanical|Company: Autodesk, Inc."
 90
    33792
280
     1
281
     0
  0
CLASS
  1
ACMIDSTANDARDANSI
  2
AcmIdStdANSI
  3
"Amdt_StdImp|Product Description: AutoCAD Mechanical|Company: Autodesk, Inc."
 90
    33792
280
     1
281
     0
  0
CLASS
  1
ACMDATUMSTANDARDANSI
  2
AcmDatumStdANSI
  3
"Amdt_StdImp|Product Description: AutoCAD Mechanical|Company: Autodesk, Inc."
 90
    33792
280
     1
281
     0
  0
CLASS
  1
ACMBOMSTANDARDANSI
  2
AcmBOMStdANSI
  3
"Amdt_StdImp|Product Description: AutoCAD Mechanical|Company: Autodesk, Inc."
 90
    33792
280
     1
281
     0
  0
CLASS
  1
ACMDETAILSTANDARDANSI
  2
AmdtDetailSymStdANSI
  3
"Amdt_StdImp|Product Description: AutoCAD Mechanical|Company: Autodesk, Inc."
 90
    33792
280
     1
281
     0
  0
CLASS
  1
ACMSECTIONSTANDARDANSI
  2
AmdtSectionSymStdANSI
  3
"Amdt_StdImp|Product Description: AutoCAD Mechanical|Company: Autodesk, Inc."
 90
    33792
280
     1
281
     0
  0
CLASS
  1
ACMCENTERLINESTANDARDANSI
  2
AmdtCenterLineStdANSI
  3
"Amdt_StdImp|Product Description: AutoCAD Mechanical|Company: Autodesk, Inc."
 90
    33792
280
     1
281
     0
  0
CLASS
  1
ACMTHREADLINESTANDARDANSI
  2
AmdtThreadLineStdANSI
  3
"Amdt_StdImp|Product Description: AutoCAD Mechanical|Company: Autodesk, Inc."
 90
    33792
280
     1
281
     0
  0
CLASS
  1
ACMNOTESTANDARDANSI
  2
AmdtNoteStdANSI
  3
"Amdt_StdImp|Product Description: AutoCAD Mechanical|Company: Autodesk, Inc."
 90
    33792
280
     1
281
     0
  0
CLASS
  1
ACMTAPERSTANDARDANSI
  2
AcmTaperStdANSI
  3
"Amdt_StdImp|Product Description: AutoCAD Mechanical|Company: Autodesk, Inc."
 90
    33792
280
     1
281
     0
  0
CLASS
  1
ACMANOOTATIONVIEWSTANDARDANSI
  2
AmdtAnViewStdANSI
  3
"Amdt_StdImp|Product Description: AutoCAD Mechanical|Company: Autodesk, Inc."
 90
    33792
280
     1
281
     0
  0
CLASS
  1
ACAMGLAYSTD
  2
AcAmgLayStd
  3
"AmgLay|Product Description: AutoCAD Mechanical|Company: Autodesk, Inc."
 90
    33792
280
     1
281
     0
  0
CLASS
  1
ACAMGDIMSTD
  2
AcAmgDimStd
  3
"AmgDim|Product Description: AutoCAD Mechanical|Company: Autodesk, Inc."
 90
    33792
280
     1
281
     0
  0
CLASS
  1
AMGOBJPROPCFG
  2
AmgObjPropCfg
  3
"AmgLay|Product Description: AutoCAD Mechanical|Company: Autodesk, Inc."
 90
    33793
280
     1
281
     0
  0
CLASS
  1
ACAMGHOLECHARTSTDANSI
  2
AcAmgHoleChartStdANSI
  3
AmgDim|Product Description: AutoCAD Mechanical|Company: Autodesk, Inc.
 90
    33792
280
     1
281
     0
  0
CLASS
  1
ACAMGTITLESTD
  2
AcAmgTitleStd
  3
"AmgTitle|Product Description: AutoCAD Mechanical|Company: Autodesk, Inc."
 90
    36863
280
     1
281
     0
  0
CLASS
  1
AMDTNOTETEMPLATEDB
  2
AmdtNoteTemplateDB
  3
AcmSymBB|Product Description: AutoCAD Mechanical|Company: Autodesk, Inc.
 90
    33792
280
     1
281
     0
  0
CLASS
  1
ACAMGFILTERDAT
  2
AcAmgFilterDat
  3
"AcadM|Product Description: AutoCAD Mechanical|Company: Autodesk, Inc."
 90
    33792
280
     1
281
     0
  0
CLASS
  1
CAMSSTRUCTBTNSTATE
  2
StructBtnState
  3
DesignerAssemblies
 90
    33792
280
     1
281
     0
  0
CLASS
  1
ACDBPLACEHOLDER
  2
AcDbPlaceHolder
  3
ObjectDBX Classes
 90
        0
280
     0
281
     0
  0
CLASS
  1
LAYOUT
  2
AcDbLayout
  3
ObjectDBX Classes
 90
        0
280
     0
281
     0
  0
ENDSEC
  0
SECTION
  2
TABLES
  0
TABLE
  2
VPORT
  5
28
102
{ACAD_XDICTIONARY
360
2C
102
}
330
0
100
AcDbSymbolTable
 70
     1
  0
VPORT
  5
29
330
28
100
AcDbSymbolTableRecord
100
AcDbViewportTableRecord
  2
*ACTIVE
 70
     0
 10
0.0
 20
0.0
 11
1.0
 21
1.0
 12
-36.54846750973775
 22
-8.944349738122468
 13
0.0
 23
0.0
 14
1.0
 24
1.0
 15
0.0
 25
0.0
 16
0.0
 26
0.0
 36
1.0
 17
0.0
 27
0.0
 37
0.0
 40
219.5976574726226
 41
1.141762452107279
 42
50.0
 43
0.0
 44
0.0
 50
0.0
 51
0.0
 71
     0
 72
   100
 73
     1
 74
     1
 75
     0
 76
     0
 77
     0
 78
     0
281
     0
 65
     1
110
0.0
120
0.0
130
0.0
111
1.0
121
0.0
131
0.0
112
0.0
122
1.0
132
0.0
 79
     0
146
0.0
  0
ENDTAB
  0
TABLE
  2
LTYPE
  5
23
330
0
100
AcDbSymbolTable
 70
     3
  0
LTYPE
  5
24
330
23
100
AcDbSymbolTableRecord
100
AcDbLinetypeTableRecord
  2
ByBlock
 70
     0
  3

 72
    65
 73
     0
 40
0.0
  0
LTYPE
  5
25
330
23
100
AcDbSymbolTableRecord
100
AcDbLinetypeTableRecord
  2
ByLayer
 70
     0
  3

 72
    65
 73
     0
 40
0.0
  0
LTYPE
  5
13
330
23
100
AcDbSymbolTableRecord
100
AcDbLinetypeTableRecord
  2
CONTINUOUS
 70
     0
  3
Solid line
 72
    65
 73
     0
 40
0.0
  0
LTYPE
  5
77
330
23
100
AcDbSymbolTableRecord
100
AcDbLinetypeTableRecord
  2
DASHDOT
 70
     0
  3
Dash dot __ . __ . __ . __ . __ . __ . __ . __
 72
    65
 73
     4
 40
1.0
 49
0.5
 74
     0
 49
-0.25
 74
     0
 49
0.0
 74
     0
 49
-0.25
 74
     0
  0
LTYPE
  5
83
330
23
100
AcDbSymbolTableRecord
100
AcDbLinetypeTableRecord
  2
DASHED
 70
     0
  3
Dashed __ __ __ __ __ __ __ __ __ __ __ __ __ _
 72
    65
 73
     2
 40
0.75
 49
0.5
 74
     0
 49
-0.25
 74
     0
  0
ENDTAB
  0
TABLE
  2
LAYER
  5
1B
102
{ACAD_XDICTIONARY
360
1C
102
}
330
0
100
AcDbSymbolTable
 70
     7
  0
LAYER
  5
6
330
1B
100
AcDbSymbolTableRecord
100
AcDbLayerTableRecord
  2
0
 70
     0
 62
     7
  6
CONTINUOUS
370
    -3
390
7
  0
LAYER
  5
7E
330
1B
100
AcDbSymbolTableRecord
100
AcDbLayerTableRecord
  2
GEB-KONTUR-A
 70
     0
 62
     5
  6
CONTINUOUS
370
    -3
390
7
  0
LAYER
  5
76
330
1B
100
AcDbSymbolTableRecord
100
AcDbLayerTableRecord
  2
GEB-SYMMETRIE
 70
     0
 62
     3
  6
DASHDOT
370
    -3
390
7
1001
AcAecLayerStandard
1000

1000

  0
LAYER
  5
82
330
1B
100
AcDbSymbolTableRecord
100
AcDbLayerTableRecord
  2
GEB-VERDECKT
 70
     0
 62
     2
  6
DASHED
370
    -3
390
7
1001
AcAecLayerStandard
1000

1000

  0
LAYER
  5
14A
330
1B
100
AcDbSymbolTableRecord
100
AcDbLayerTableRecord
  2
GEB-ART-NR
 70
     0
 62
     1
  6
CONTINUOUS
370
    18
390
7
  0
LAYER
  5
72
330
1B
100
AcDbSymbolTableRecord
100
AcDbLayerTableRecord
  2
GEB-BEZUG
 70
     0
 62
     2
  6
CONTINUOUS
370
    25
390
7
  0
LAYER
  5
147
330
1B
100
AcDbSymbolTableRecord
100
AcDbLayerTableRecord
  2
GEB-TEXT
 70
     0
 62
     5
  6
CONTINUOUS
370
    18
390
7
  0
ENDTAB
  0
TABLE
  2
STYLE
  5
20
330
0
100
AcDbSymbolTable
 70
     1
  0
STYLE
  5
21
330
20
100
AcDbSymbolTableRecord
100
AcDbTextStyleTableRecord
  2
STANDARD
 70
     0
 40
0.0
 41
1.0
 50
0.0
 71
     0
 42
0.2
  3
ARIAL.TTF
  4

1001
ACAD
1000
Arial
1071
       34
  0
ENDTAB
  0
TABLE
  2
VIEW
  5
26
330
0
100
AcDbSymbolTable
 70
     0
  0
ENDTAB
  0
TABLE
  2
UCS
  5
27
330
0
100
AcDbSymbolTable
 70
     0
  0
ENDTAB
  0
TABLE
  2
APPID
  5
2D
330
0
100
AcDbSymbolTable
 70
     3
  0
APPID
  5
1F
330
2D
100
AcDbSymbolTableRecord
100
AcDbRegAppTableRecord
  2
ACAD
 70
     0
  0
APPID
  5
78
330
2D
100
AcDbSymbolTableRecord
100
AcDbRegAppTableRecord
  2
AcAecLayerStandard
 70
     0
  0
APPID
  5
1B5
330
2D
100
AcDbSymbolTableRecord
100
AcDbRegAppTableRecord
  2
ACAD_MLEADERVER
 70
     0
  0
ENDTAB
  0
TABLE
  2
DIMSTYLE
  5
2E
330
0
100
AcDbSymbolTable
 70
     1
100
AcDbDimStyleTable
 71
     1
340
2F
  0
DIMSTYLE
105
2F
330
2E
100
AcDbSymbolTableRecord
100
AcDbDimStyleTableRecord
  2
STANDARD
 70
     0
279
     2
340
21
  0
ENDTAB
  0
TABLE
  2
BLOCK_RECORD
  5
1
330
0
100
AcDbSymbolTable
 70
     1
  0
BLOCK_RECORD
  5
2
102
{ACAD_XDICTIONARY
360
3
102
}
330
1
100
AcDbSymbolTableRecord
100
AcDbBlockTableRecord
  2
*Model_Space
340
15
  0
BLOCK_RECORD
  5
17
330
1
100
AcDbSymbolTableRecord
100
AcDbBlockTableRecord
  2
*Paper_Space
340
1A
  0
BLOCK_RECORD
  5
6F
330
1
100
AcDbSymbolTableRecord
100
AcDbBlockTableRecord
  2
Einfügepunkt
340
0
102
{BLKREFS
331
6E
102
}
  0
ENDTAB
  0
ENDSEC
  0
SECTION
  2
BLOCKS
  0
BLOCK
  5
5
330
2
100
AcDbEntity
  8
0
100
AcDbBlockBegin
  2
*Model_Space
 70
     0
 10
0.0
 20
0.0
 30
0.0
  3
*Model_Space
  1

  0
ENDBLK
  5
14
330
2
100
AcDbEntity
  8
0
100
AcDbBlockEnd
  0
BLOCK
  5
18
330
17
100
AcDbEntity
 67
     1
  8
0
100
AcDbBlockBegin
  2
*Paper_Space
 70
     0
 10
0.0
 20
0.0
 30
0.0
  3
*Paper_Space
  1

  0
ENDBLK
  5
19
330
17
100
AcDbEntity
 67
     1
  8
0
100
AcDbBlockEnd
  0
BLOCK
  5
70
330
6F
100
AcDbEntity
  8
0
100
AcDbBlockBegin
  2
Einfügepunkt
 70
     0
 10
0.0
 20
0.0
 30
0.0
  3
Einfügepunkt
  1

  0
LINE
  5
71
330
6F
100
AcDbEntity
  8
GEB-BEZUG
100
AcDbLine
 10
-0.7071067811865817
 20
-0.7071067811865106
 30
0.0
 11
0.7071067811864751
 21
0.7071067811865817
 31
0.0
  0
LINE
  5
73
330
6F
100
AcDbEntity
  8
GEB-BEZUG
100
AcDbLine
 10
-0.7071067811865106
 20
0.7071067811865817
 30
0.0
 11
0.7071067811865462
 21
-0.7071067811865106
 31
0.0
  0
ENDBLK
  5
74
330
6F
100
AcDbEntity
  8
0
100
AcDbBlockEnd
  0
ENDSEC
  0
SECTION
  2
ENTITIES
  0
INSERT
  5
6E
330
2
100
AcDbEntity
  8
0
 48
25.0
100
AcDbBlockReference
  2
Einfügepunkt
 10
0.0
 20
0.0
 30
0.0
  0
LINE
  5
75
330
2
100
AcDbEntity
  8
GEB-SYMMETRIE
 48
25.0
100
AcDbLine
 10
0.0000000000000284
 20
75.45000000000022
 30
0.0
 11
0.0000000000000284
 21
-75.4500000000001
 31
0.0
  0
LINE
  5
79
330
2
100
AcDbEntity
  8
GEB-SYMMETRIE
 48
25.0
100
AcDbLine
 10
75.45000000000015
 20
0.0000000000000568
 30
0.0
 11
-75.4500000000001
 21
0.0000000000000568
 31
0.0
  0
LINE
  5
7A
330
2
100
AcDbEntity
  8
GEB-SYMMETRIE
 48
25.0
100
AcDbLine
 10
-51.53389553557918
 20
-0.0000000000410409
 30
0.0
 11
-74.35691580859952
 21
-0.0000000000407567
 31
0.0
  0
LINE
  5
7B
330
2
100
AcDbEntity
  8
GEB-SYMMETRIE
 48
25.0
100
AcDbLine
 10
-126.5024740830817
 20
-0.000000000040103
 30
0.0
 11
-141.7926707653748
 21
-0.0000000000399041
 31
0.0
  0
LINE
  5
7C
330
2
100
AcDbEntity
  8
GEB-SYMMETRIE
 48
25.0
100
AcDbLine
 10
-136.7926707653748
 20
-0.0000000000399609
 30
0.0
 11
-148.4862938499734
 21
-0.0000000000398188
 31
0.0
  0
CIRCLE
  5
7D
330
2
100
AcDbEntity
  8
GEB-KONTUR-A
 48
25.0
100
AcDbCircle
 10
0.0000000000007958
 20
-0.0000000000213731
 30
0.0
 40
58.50000000000012
  0
CIRCLE
  5
7F
330
2
100
AcDbEntity
  8
GEB-KONTUR-A
 48
25.0
100
AcDbCircle
 10
-0.0000000000000568
 20
0.0000000000016769
 30
0.0
 40
67.30000000000011
  0
CIRCLE
  5
80
330
2
100
AcDbEntity
  8
GEB-KONTUR-A
 48
25.0
100
AcDbCircle
 10
0.0
 20
0.0000000000000568
 30
0.0
 40
72.95000000000015
  0
ARC
  5
81
330
2
100
AcDbEntity
  8
GEB-VERDECKT
 48
25.0
100
AcDbCircle
 10
-5.743749999999721
 20
-0.0000000000082707
 30
0.0
 40
64.80625000000012
100
AcDbArc
 50
113.4660866458154
 51
246.5339133541831
  0
ARC
  5
84
330
2
100
AcDbEntity
  8
GEB-VERDECKT
 48
25.0
100
AcDbCircle
 10
5.743750000000346
 20
-0.0000000000082707
 30
0.0
 40
64.80625000000012
100
AcDbArc
 50
293.4660866458154
 51
66.5339133541831
  0
CIRCLE
  5
85
330
2
100
AcDbEntity
  8
GEB-VERDECKT
 48
25.0
100
AcDbCircle
 10
0.0000000000000568
 20
-0.0000000000011369
 30
0.0
 40
68.85000000000013
  0
ARC
  5
86
330
2
100
AcDbEntity
  8
GEB-VERDECKT
 48
25.0
100
AcDbCircle
 10
0.000000000000739
 20
-0.0000000000203215
 30
0.0
 40
65.25000000000007
100
AcDbArc
 50
103.2903046969617
 51
256.7096953030398
  0
LINE
  5
87
330
2
100
AcDbEntity
  8
GEB-VERDECKT
 48
25.0
100
AcDbLine
 10
-14.99999999999929
 20
65.60708803168549
 30
0.0
 11
-14.99999999999929
 21
63.50246058222793
 31
0.0
  0
LINE
  5
88
330
2
100
AcDbEntity
  8
GEB-VERDECKT
 48
25.0
100
AcDbLine
 10
-14.9999999999992
 20
63.50246058222618
 30
0.0
 11
-14.9999999999992
 21
61.39413652782554
 31
0.0
  0
LINE
  5
89
330
2
100
AcDbEntity
  8
GEB-VERDECKT
 48
25.0
100
AcDbLine
 10
15.00000000000084
 20
61.3941365278255
 30
0.0
 11
15.00000000000084
 21
63.50246058222615
 31
0.0
  0
LINE
  5
8A
330
2
100
AcDbEntity
  8
GEB-VERDECKT
 48
25.0
100
AcDbLine
 10
15.00000000000077
 20
63.50246058222791
 30
0.0
 11
15.00000000000077
 21
65.60708803168546
 31
0.0
  0
ARC
  5
8B
330
2
100
AcDbEntity
  8
GEB-VERDECKT
 48
25.0
100
AcDbCircle
 10
0.000000000000739
 20
-0.0000000000203215
 30
0.0
 40
65.25000000000007
100
AcDbArc
 50
283.2903046969618
 51
76.70969530303979
  0
LINE
  5
8C
330
2
100
AcDbEntity
  8
GEB-VERDECKT
 48
25.0
100
AcDbLine
 10
-14.9999999999998
 20
67.29999999999424
 30
0.0
 11
-14.9999999999998
 21
65.60708803170007
 31
0.0
  0
LINE
  5
8D
330
2
100
AcDbEntity
  8
GEB-VERDECKT
 48
25.0
100
AcDbLine
 10
15.00000000000025
 20
67.29999999999418
 30
0.0
 11
-14.9999999999998
 21
67.29999999999424
 31
0.0
  0
LINE
  5
8E
330
2
100
AcDbEntity
  8
GEB-VERDECKT
 48
25.0
100
AcDbLine
 10
15.00000000000025
 20
65.60708803170005
 30
0.0
 11
15.00000000000025
 21
67.29999999999418
 31
0.0
  0
LINE
  5
8F
330
2
100
AcDbEntity
  8
GEB-VERDECKT
 48
25.0
100
AcDbLine
 10
-14.99999999999983
 20
-67.30000000000564
 30
0.0
 11
15.00000000000023
 21
-67.30000000000564
 31
0.0
  0
LINE
  5
90
330
2
100
AcDbEntity
  8
GEB-VERDECKT
 48
25.0
100
AcDbLine
 10
15.00000000000077
 20
-65.60708803172611
 30
0.0
 11
15.00000000000077
 21
-63.50246058226855
 31
0.0
  0
LINE
  5
91
330
2
100
AcDbEntity
  8
GEB-VERDECKT
 48
25.0
100
AcDbLine
 10
15.00000000000084
 20
-63.50246058227037
 30
0.0
 11
15.00000000000084
 21
-61.3941365278697
 31
0.0
  0
LINE
  5
92
330
2
100
AcDbEntity
  8
GEB-VERDECKT
 48
25.0
100
AcDbLine
 10
15.00000000000023
 20
-67.30000000000564
 30
0.0
 11
15.00000000000023
 21
-65.60708803171156
 31
0.0
  0
LINE
  5
93
330
2
100
AcDbEntity
  8
GEB-VERDECKT
 48
25.0
100
AcDbLine
 10
-14.99999999999983
 20
-65.60708803171144
 30
0.0
 11
-14.99999999999983
 21
-67.30000000000564
 31
0.0
  0
LINE
  5
94
330
2
100
AcDbEntity
  8
GEB-VERDECKT
 48
25.0
100
AcDbLine
 10
-14.9999999999992
 20
-61.3941365278697
 30
0.0
 11
-14.9999999999992
 21
-63.50246058227032
 31
0.0
  0
LINE
  5
95
330
2
100
AcDbEntity
  8
GEB-VERDECKT
 48
25.0
100
AcDbLine
 10
-14.99999999999929
 20
-63.5024605822685
 30
0.0
 11
-14.99999999999929
 21
-65.60708803172611
 31
0.0
  0
CIRCLE
  5
96
330
2
100
AcDbEntity
  8
GEB-KONTUR-A
 48
25.0
100
AcDbCircle
 10
0.0000000000003979
 20
0.0000000000018474
 30
0.0
 40
63.29999999999948
  0
CIRCLE
  5
97
330
2
100
AcDbEntity
  8
GEB-KONTUR-A
 48
25.0
100
AcDbCircle
 10
-0.0000000000000568
 20
0.0000000000016485
 30
0.0
 40
63.20000000000011
  0
LINE
  5
98
330
2
100
AcDbEntity
  8
GEB-VERDECKT
 48
25.0
100
AcDbLine
 10
-68.85977114385383
 20
51.59999999995907
 30
0.0
 11
-72.8091520490384
 21
51.5999999999591
 31
0.0
  0
LINE
  5
99
330
2
100
AcDbEntity
  8
GEB-VERDECKT
 48
25.0
100
AcDbLine
 10
-68.85977114385389
 20
-51.60000000004067
 30
0.0
 11
-72.80915204903843
 21
-51.60000000004064
 31
0.0
  0
LINE
  5
9A
330
2
100
AcDbEntity
  8
GEB-VERDECKT
 48
25.0
100
AcDbLine
 10
-72.75241565286916
 20
51.58360340459324
 30
0.0
 11
-81.48539447183924
 21
56.63199869903917
 31
0.0
  0
LINE
  5
9B
330
2
100
AcDbEntity
  8
GEB-VERDECKT
 48
25.0
100
AcDbLine
 10
-72.75241565286922
 20
-51.583603404674
 30
0.0
 11
-81.48539447183924
 21
-56.63199869911966
 31
0.0
  0
LINE
  5
9C
330
2
100
AcDbEntity
  8
GEB-VERDECKT
 48
25.0
100
AcDbLine
 10
-81.54768355794363
 20
56.64999999995925
 30
0.0
 11
-129.0024740830824
 21
56.64999999995981
 31
0.0
  0
LINE
  5
9D
330
2
100
AcDbEntity
  8
GEB-VERDECKT
 48
25.0
100
AcDbLine
 10
-81.54768355794363
 20
-56.65000000004051
 30
0.0
 11
-129.0024740830825
 21
-56.65000000003994
 31
0.0
  0
LINE
  5
9E
330
2
100
AcDbEntity
  8
GEB-VERDECKT
 48
25.0
100
AcDbLine
 10
-129.0024740830824
 20
60.54999999995977
 30
0.0
 11
-139.2926707653757
 21
60.54999999995994
 31
0.0
  0
LINE
  5
9F
330
2
100
AcDbEntity
  8
GEB-VERDECKT
 48
25.0
100
AcDbLine
 10
-129.0024740830824
 20
-60.55000000003992
 30
0.0
 11
-139.2926707653757
 21
-60.5500000000398
 31
0.0
  0
LINE
  5
A0
330
2
100
AcDbEntity
  8
GEB-VERDECKT
 48
25.0
100
AcDbLine
 10
-139.2926707653757
 20
56.64999999995996
 30
0.0
 11
-145.9862938499742
 21
56.64999999996002
 31
0.0
  0
LINE
  5
A1
330
2
100
AcDbEntity
  8
GEB-VERDECKT
 48
25.0
100
AcDbLine
 10
-139.2926707653757
 20
-56.65000000003977
 30
0.0
 11
-145.9862938499742
 21
-56.65000000003971
 31
0.0
  0
SPLINE
  5
A2
330
2
100
AcDbEntity
  8
GEB-VERDECKT
 48
25.0
100
AcDbSpline
210
0.0
220
0.0
230
1.0
 70
     8
 71
     3
 72
    16
 73
    12
 74
     0
 42
0.0000000001
 43
0.0000000001
 40
2.82655000902192
 40
2.82655000902192
 40
2.82655000902192
 40
2.82655000902192
 40
2.952567066849069
 40
2.952567066849069
 40
3.078584124676218
 40
3.078584124676218
 40
3.204601182503366
 40
3.204601182503366
 40
3.330618240330515
 40
3.330618240330515
 40
3.456635298157664
 40
3.456635298157664
 40
3.456635298157664
 40
3.456635298157664
 10
-120.723510940662
 20
-17.03038075292139
 30
0.0
 10
-120.7547297337872
 20
-14.83425757223011
 30
0.0
 10
-120.7798957259994
 20
-12.59364626224195
 30
0.0
 10
-120.8177416004062
 20
-8.058385314141787
 30
0.0
 10
-120.8304212132598
 20
-5.763756394229886
 30
0.0
 10
-120.8431009108717
 20
-1.156368947977284
 30
0.0
 10
-120.8431009108717
 20
1.156368947860897
 30
0.0
 10
-120.8304212132598
 20
5.76375639411367
 30
0.0
 10
-120.8177416004063
 20
8.058385314025741
 30
0.0
 10
-120.7798957259994
 20
12.59364626212635
 30
0.0
 10
-120.7547297337872
 20
14.83425757211492
 30
0.0
 10
-120.723510940662
 20
17.03038075280662
 30
0.0
  0
SPLINE
  5
A3
330
2
100
AcDbEntity
  8
GEB-VERDECKT
 48
25.0
100
AcDbSpline
210
0.0
220
0.0
230
1.0
 70
     8
 71
     3
 72
    16
 73
    12
 74
     0
 42
0.0000000001
 43
0.0000000001
 40
2.826550009021928
 40
2.826550009021928
 40
2.826550009021928
 40
2.826550009021928
 40
2.952567066849071
 40
2.952567066849071
 40
3.078584124676215
 40
3.078584124676215
 40
3.204601182503358
 40
3.204601182503358
 40
3.330618240330502
 40
3.330618240330502
 40
3.456635298157645
 40
3.456635298157645
 40
3.456635298157645
 40
3.456635298157645
 10
-112.4813631126116
 20
-17.03038075292107
 30
0.0
 10
-112.5125819057368
 20
-14.83425757222988
 30
0.0
 10
-112.5377478979489
 20
-12.5936462622418
 30
0.0
 10
-112.5755937723559
 20
-8.058385314141844
 30
0.0
 10
-112.5882733852094
 20
-5.763756394230057
 30
0.0
 10
-112.6009530828213
 20
-1.156368947977625
 30
0.0
 10
-112.6009530828213
 20
1.156368947860414
 30
0.0
 10
-112.5882733852094
 20
5.763756394113045
 30
0.0
 10
-112.5755937723558
 20
8.058385314025002
 30
0.0
 10
-112.5377478979489
 20
12.59364626212544
 30
0.0
 10
-112.5125819057368
 20
14.8342575721139
 30
0.0
 10
-112.4813631126116
 20
17.03038075280548
 30
0.0
  0
SPLINE
  5
A4
330
2
100
AcDbEntity
  8
GEB-VERDECKT
 48
25.0
100
AcDbSpline
210
0.0
220
0.0
230
1.0
 70
     8
 71
     3
 72
    16
 73
    12
 74
     0
 42
0.0000000001
 43
0.0000000001
 40
2.826550009021948
 40
2.826550009021948
 40
2.826550009021948
 40
2.826550009021948
 40
2.952567066849084
 40
2.952567066849084
 40
3.07858412467622
 40
3.07858412467622
 40
3.204601182503356
 40
3.204601182503356
 40
3.330618240330492
 40
3.330618240330492
 40
3.456635298157627
 40
3.456635298157627
 40
3.456635298157627
 40
3.456635298157627
 10
-104.2392152845611
 20
-17.03038075292013
 30
0.0
 10
-104.2704340776864
 20
-14.83425757222903
 30
0.0
 10
-104.2956000698985
 20
-12.59364626224109
 30
0.0
 10
-104.3334459443054
 20
-8.058385314141418
 30
0.0
 10
-104.346125557159
 20
-5.763756394229744
 30
0.0
 10
-104.3588052547708
 20
-1.156368947977597
 30
0.0
 10
-104.3588052547708
 20
1.156368947860329
 30
0.0
 10
-104.346125557159
 20
5.763756394112647
 30
0.0
 10
-104.3334459443054
 20
8.058385314024519
 30
0.0
 10
-104.2956000698985
 20
12.59364626212471
 30
0.0
 10
-104.2704340776864
 20
14.83425757211296
 30
0.0
 10
-104.2392152845611
 20
17.03038075280449
 30
0.0
  0
SPLINE
  5
A5
330
2
100
AcDbEntity
  8
GEB-VERDECKT
 48
25.0
100
AcDbSpline
210
0.0
220
0.0
230
1.0
 70
     8
 71
     3
 72
    16
 73
    12
 74
     0
 42
0.0000000001
 43
0.0000000001
 40
2.826550009021916
 40
2.826550009021916
 40
2.826550009021916
 40
2.826550009021916
 40
2.952567066849061
 40
2.952567066849061
 40
3.078584124676206
 40
3.078584124676206
 40
3.204601182503352
 40
3.204601182503352
 40
3.330618240330497
 40
3.330618240330497
 40
3.456635298157643
 40
3.456635298157643
 40
3.456635298157643
 40
3.456635298157643
 10
-95.9970674565107
 20
-17.03038075292193
 30
0.0
 10
-96.02828624963592
 20
-14.83425757223071
 30
0.0
 10
-96.05345224184809
 20
-12.59364626224257
 30
0.0
 10
-96.09129811625502
 20
-8.058385314142583
 30
0.0
 10
-96.10397772910857
 20
-5.763756394230739
 30
0.0
 10
-96.11665742672045
 20
-1.156368947978279
 30
0.0
 10
-96.11665742672043
 20
1.156368947859817
 30
0.0
 10
-96.10397772910857
 20
5.763756394112505
 30
0.0
 10
-96.091298116255
 20
8.058385314024519
 30
0.0
 10
-96.0534522418481
 20
12.59364626212505
 30
0.0
 10
-96.02828624963592
 20
14.83425757211353
 30
0.0
 10
-95.99706745651074
 20
17.0303807528052
 30
0.0
  0
LINE
  5
A6
330
2
100
AcDbEntity
  8
GEB-VERDECKT
 48
25.0
100
AcDbLine
 10
-54.03389553557895
 20
-56.65000000004084
 30
0.0
 11
-71.85691580859952
 21
-56.65000000004062
 31
0.0
  0
LINE
  5
A7
330
2
100
AcDbEntity
  8
GEB-VERDECKT
 48
25.0
100
AcDbLine
 10
-54.03389553557895
 20
56.64999999995888
 30
0.0
 11
-71.85691580859952
 21
56.6499999999591
 31
0.0
  0
ELLIPSE
  5
A8
330
2
100
AcDbEntity
  8
GEB-VERDECKT
 48
25.0
100
AcDbEllipse
 10
-72.80915204903843
 20
-0.0000000000407567
 30
0.0
 11
-0.0000000000000003
 21
51.5999999999999
 31
0.0
210
0.0
220
0.0
230
1.0
 40
0.0436193873653364
 41
0.0
 42
6.28318530717958
  0
ELLIPSE
  5
A9
330
2
100
AcDbEntity
  8
GEB-VERDECKT
 48
25.0
100
AcDbEllipse
 10
-81.54768355794363
 20
-0.000000000040643
 30
0.0
 11
-0.0000000000000003
 21
56.64999999999987
 31
0.0
210
0.0
220
0.0
230
1.0
 40
0.0436193873653364
 41
0.0
 42
6.28318530717958
  0
ELLIPSE
  5
AA
330
2
100
AcDbEntity
  8
GEB-VERDECKT
 48
25.0
100
AcDbEllipse
 10
-129.0024740830824
 20
-0.0000000000400462
 30
0.0
 11
-0.0000000000000003
 21
56.64999999999987
 31
0.0
210
0.0
220
0.0
230
1.0
 40
0.0436193873653364
 41
0.0
 42
6.28318530717958
  0
ELLIPSE
  5
AB
330
2
100
AcDbEntity
  8
GEB-VERDECKT
 48
25.0
100
AcDbEllipse
 10
-129.0024740830824
 20
-0.0000000000400462
 30
0.0
 11
-0.0000000000000003
 21
60.54999999999987
 31
0.0
210
0.0
220
0.0
230
1.0
 40
0.0436193873653364
 41
0.0
 42
6.28318530717958
  0
ELLIPSE
  5
AC
330
2
100
AcDbEntity
  8
GEB-VERDECKT
 48
25.0
100
AcDbEllipse
 10
-139.2926707653757
 20
-0.0000000000399325
 30
0.0
 11
-0.0000000000000003
 21
60.54999999999987
 31
0.0
210
0.0
220
0.0
230
1.0
 40
0.0436193873653364
 41
0.0
 42
6.28318530717958
  0
ELLIPSE
  5
AD
330
2
100
AcDbEntity
  8
GEB-VERDECKT
 48
25.0
100
AcDbEllipse
 10
-139.2926707653757
 20
-0.0000000000399325
 30
0.0
 11
-0.0000000000000003
 21
56.64999999999987
 31
0.0
210
0.0
220
0.0
230
1.0
 40
0.0436193873653364
 41
0.0
 42
6.28318530717958
  0
ELLIPSE
  5
AE
330
2
100
AcDbEntity
  8
GEB-VERDECKT
 48
25.0
100
AcDbEllipse
 10
-142.7893395409122
 20
-0.0000000000398472
 30
0.0
 11
0.0000000000000077
 21
60.14999999999986
 31
0.0
210
0.0
220
0.0
230
1.0
 40
0.0436193873653364
 41
0.0
 42
3.141592653276918
  0
ELLIPSE
  5
AF
330
2
100
AcDbEntity
  8
GEB-VERDECKT
 48
25.0
100
AcDbEllipse
 10
-142.7893395409122
 20
-0.0000000000398472
 30
0.0
 11
0.0000000000008318
 21
64.04999999999986
 31
0.0
210
0.0
220
0.0
230
1.0
 40
0.0436193873653364
 41
0.3507651481902048
 42
2.790827505400277
  0
ELLIPSE
  5
B0
330
2
100
AcDbEntity
  8
GEB-VERDECKT
 48
25.0
100
AcDbEllipse
 10
-77.35168102729978
 20
-0.0000000000406999
 30
0.0
 11
-0.0000000000007581
 21
-58.39999999999989
 31
0.0
210
0.0
220
0.0
230
1.0
 40
0.0436193873653364
 41
0.2157100698002077
 42
2.925882583790252
  0
ELLIPSE
  5
B1
330
2
100
AcDbEntity
  8
GEB-VERDECKT
 48
25.0
100
AcDbEllipse
 10
-71.85691580859947
 20
-0.0000000000407852
 30
0.0
 11
0.0000000000007591
 21
58.39999999999992
 31
0.0
210
0.0
220
0.0
230
1.0
 40
0.0436193873653364
 41
4.323035222554718
 42
5.101742738215265
  0
LINE
  5
B2
330
2
100
AcDbEntity
  8
GEB-VERDECKT
 48
25.0
100
AcDbLine
 10
-76.80643868523304
 20
-58.83682945234506
 30
0.0
 11
-76.80643868523304
 21
-57.04655993137714
 31
0.0
  0
LINE
  5
B3
330
2
100
AcDbEntity
  8
GEB-VERDECKT
 48
25.0
100
AcDbLine
 10
-76.80643868523304
 20
-57.04655993137714
 30
0.0
 11
-76.51980487356468
 21
-57.04655993137714
 31
0.0
  0
LINE
  5
B4
330
2
100
AcDbEntity
  8
GEB-VERDECKT
 48
25.0
100
AcDbLine
 10
-71.31167346653277
 20
-57.04655993137726
 30
0.0
 11
-71.31167346653277
 21
-55.25371028269581
 31
0.0
  0
LINE
  5
B5
330
2
100
AcDbEntity
  8
GEB-VERDECKT
 48
25.0
100
AcDbLine
 10
-124.9605629654791
 20
-60.15000000003624
 30
0.0
 11
-124.5458021465302
 21
-60.1500000000363
 31
0.0
  0
ELLIPSE
  5
B6
330
2
100
AcDbEntity
  8
GEB-VERDECKT
 48
25.0
100
AcDbEllipse
 10
-54.03389553557892
 20
-0.0000000000410694
 30
0.0
 11
-0.0000000000007359
 21
-56.64999999999978
 31
0.0
210
0.0
220
0.0
230
1.0
 40
0.0436193873653363
 41
6.060701249058951
 42
6.505669365300782
  0
LINE
  5
B7
330
2
100
AcDbEntity
  8
GEB-VERDECKT
 48
25.0
100
AcDbLine
 10
-71.03207388552636
 20
-55.25371028269581
 30
0.0
 11
-71.31167346653277
 21
-55.25371028269581
 31
0.0
  0
ELLIPSE
  5
B8
330
2
100
AcDbEntity
  8
GEB-VERDECKT
 48
25.0
100
AcDbEllipse
 10
-71.85691580859947
 20
-0.0000000000408704
 30
0.0
 11
-0.000000000000736
 21
-56.64999999999978
 31
0.0
210
0.0
220
0.0
230
1.0
 40
0.0436193873653364
 41
6.060701249058987
 42
6.505669365300831
  0
LINE
  5
B9
330
2
100
AcDbEntity
  8
GEB-VERDECKT
 48
25.0
100
AcDbLine
 10
-54.57913787764562
 20
-60.1500000000446
 30
0.0
 11
-54.57913787764562
 21
-55.25371028270348
 31
0.0
  0
LINE
  5
BA
330
2
100
AcDbEntity
  8
GEB-VERDECKT
 48
25.0
100
AcDbLine
 10
-72.40215815066616
 20
-55.2537102827032
 30
0.0
 11
-71.31167346653277
 21
-55.25371028270325
 31
0.0
  0
LINE
  5
BB
330
2
100
AcDbEntity
  8
GEB-VERDECKT
 48
25.0
100
AcDbLine
 10
-72.40215815066616
 20
-55.2537102827032
 30
0.0
 11
-72.40215815066616
 21
-57.04655993138465
 31
0.0
  0
LINE
  5
BC
330
2
100
AcDbEntity
  8
GEB-VERDECKT
 48
25.0
100
AcDbLine
 10
-76.80643868523304
 20
-57.04655993138459
 30
0.0
 11
-77.89692336936645
 21
-57.04655993138459
 31
0.0
  0
ELLIPSE
  5
BD
330
2
100
AcDbEntity
  8
GEB-VERDECKT
 48
25.0
100
AcDbEllipse
 10
-71.85691580859947
 20
-0.0000000000407852
 30
0.0
 11
0.0000000000007584
 21
58.39999999999989
 31
0.0
210
0.0
220
0.0
230
1.0
 40
0.0436193873653364
 41
0.2157100698002549
 42
2.925882583790299
  0
LINE
  5
BE
330
2
100
AcDbEntity
  8
GEB-VERDECKT
 48
25.0
100
AcDbLine
 10
-77.89692336936645
 20
-57.04655993138459
 30
0.0
 11
-77.89692336936645
 21
-58.8368294523525
 31
0.0
  0
ELLIPSE
  5
BF
330
2
100
AcDbEntity
  8
GEB-VERDECKT
 48
25.0
100
AcDbEllipse
 10
-77.35168102729978
 20
-0.0000000000406999
 30
0.0
 11
0.0000000000007581
 21
58.39999999999989
 31
0.0
210
0.0
220
0.0
230
1.0
 40
0.0436193873653363
 41
0.2157100698002549
 42
2.925882583790299
  0
SPLINE
  5
C0
330
2
100
AcDbEntity
  8
GEB-VERDECKT
 48
25.0
100
AcDbSpline
210
0.0
220
0.0
230
1.0
 70
     8
 71
     3
 72
    28
 73
    24
 74
     0
 42
0.0000000001
 43
0.0000000001
 40
0.0003135965776807
 40
0.0003135965776807
 40
0.0003135965776807
 40
0.0003135965776807
 40
0.2718281047685484
 40
0.2718281047685484
 40
0.3877372981810514
 40
0.3877372981810514
 40
0.4023246078222999
 40
0.4023246078222999
 40
0.4094618536811402
 40
0.4094618536811402
 40
0.4141700486462444
 40
0.4141700486462444
 40
0.4184552481618232
 40
0.4184552481618232
 40
0.4238538387117052
 40
0.4238538387117052
 40
0.4337033556307786
 40
0.4337033556307786
 40
0.4587932382629688
 40
0.4587932382629688
 40
0.5538885019029778
 40
0.5538885019029778
 40
0.8728530398577539
 40
0.8728530398577539
 40
0.8728530398577539
 40
0.8728530398577539
 10
-118.8212872233749
 20
-51.1505576886843
 30
0.0
 10
-118.7436875592615
 20
-51.62600203785192
 30
0.0
 10
-118.6536444742749
 20
-52.00017346006752
 30
0.0
 10
-118.5178910844532
 20
-52.36776230099872
 30
0.0
 10
-118.446475877722
 20
-52.53648523820189
 30
0.0
 10
-118.351224179513
 20
-52.61712202243015
 30
0.0
 10
-118.3388299774611
 20
-52.62592339281667
 30
0.0
 10
-118.3183936594639
 20
-52.6354853836531
 30
0.0
 10
-118.3106731465039
 20
-52.63837763603624
 30
0.0
 10
-118.296594435724
 20
-52.64144321667891
 30
0.0
 10
-118.2907529566239
 20
-52.64218896209303
 30
0.0
 10
-118.2791917158288
 20
-52.6423900636899
 30
0.0
 10
-118.273877048491
 20
-52.64194894556346
 30
0.0
 10
-118.262309276237
 20
-52.63993827024046
 30
0.0
 10
-118.2564269341922
 20
-52.6381492685482
 30
0.0
 10
-118.2415513136424
 20
-52.63225620156084
 30
0.0
 10
-118.2332266833842
 20
-52.6271513748253
 30
0.0
 10
-118.2089816359571
 20
-52.6093672500844
 30
0.0
 10
-118.1943843490143
 20
-52.59217590641483
 30
0.0
 10
-118.138217832969
 20
-52.51217595042755
 30
0.0
 10
-118.1070536117444
 20
-52.41556800100159
 30
0.0
 10
-118.019546341325
 20
-52.08135499708442
 30
0.0
 10
-117.9792225239645
 20
-51.67806708116211
 30
0.0
 10
-117.967501206118
 20
-51.1505576886843
 30
0.0
  0
SPLINE
  5
C1
330
2
100
AcDbEntity
  8
GEB-VERDECKT
 48
25.0
100
AcDbSpline
210
0.0
220
0.0
230
1.0
 70
     8
 71
     3
 72
    18
 73
    14
 74
     0
 42
0.0000000001
 43
0.0000000001
 40
6.130712173490198
 40
6.130712173490198
 40
6.130712173490198
 40
6.130712173490198
 40
6.358283137277772
 40
6.358283137277772
 40
6.861022006813966
 40
6.861022006813966
 40
7.812083211287662
 40
7.812083211287662
 40
9.010772298241615
 40
9.010772298241615
 40
10.87123066565453
 40
10.87123066565453
 40
12.25035599329303
 40
12.25035599329303
 40
12.25035599329303
 40
12.25035599329303
 10
-120.8364594400232
 20
-0.000000000058094
 30
0.0
 10
-120.8364594400232
 20
-0.758988125265546
 30
0.0
 10
-120.8358333919463
 20
-1.517963102872926
 30
0.0
 10
-120.8318043956915
 20
-3.952277875424556
 30
0.0
 10
-120.8259719205363
 20
-5.624651578039561
 30
0.0
 10
-120.7998561181222
 20
-10.43828255693367
 30
0.0
 10
-120.7714757886351
 20
-13.55196233563799
 30
0.0
 10
-120.6766291030128
 20
-20.44422148841082
 30
0.0
 10
-120.602484371321
 20
-24.16768890722253
 30
0.0
 10
-120.3390629047771
 20
-33.22377669233475
 30
0.0
 10
-120.111448764803
 20
-38.25509050183374
 30
0.0
 10
-119.523900426378
 20
-45.87546450376339
 30
0.0
 10
-119.2157472669846
 20
-48.73374569794808
 30
0.0
 10
-118.8212872233749
 20
-51.1505576886843
 30
0.0
  0
SPLINE
  5
C2
330
2
100
AcDbEntity
  8
GEB-VERDECKT
 48
25.0
100
AcDbSpline
210
0.0
220
0.0
230
1.0
 70
     8
 71
     3
 72
    16
 73
    12
 74
     0
 42
0.0000000001
 43
0.0000000001
 40
0.0026009342830052
 40
0.0026009342830052
 40
0.0026009342830052
 40
0.0026009342830052
 40
2.288447646738548
 40
2.288447646738548
 40
4.621313960225682
 40
4.621313960225682
 40
5.46277531789885
 40
5.46277531789885
 40
5.947182010080226
 40
5.947182010080226
 40
6.130712173490198
 40
6.130712173490198
 40
6.130712173490198
 40
6.130712173490198
 10
-118.8212872233749
 20
51.1505576885851
 30
0.0
 10
-119.4748399758327
 20
47.14631402865333
 30
0.0
 10
-119.8952114433615
 20
41.94489604402628
 30
0.0
 10
-120.4949353920522
 20
29.57067199800855
 30
0.0
 10
-120.6598937210187
 20
22.47978695306847
 30
0.0
 10
-120.7837721538768
 20
12.22327506078247
 30
0.0
 10
-120.8063648214163
 20
9.458964691364769
 30
0.0
 10
-120.8280916289782
 20
5.06360113970615
 30
0.0
 10
-120.8330819722126
 20
3.451184829914609
 30
0.0
 10
-120.8360521274744
 20
1.224217583160537
 30
0.0
 10
-120.8364594400232
 20
0.6121045159450489
 30
0.0
 10
-120.8364594400232
 20
-0.000000000058094
 30
0.0
  0
SPLINE
  5
C3
330
2
100
AcDbEntity
  8
GEB-VERDECKT
 48
25.0
100
AcDbSpline
210
0.0
220
0.0
230
1.0
 70
     8
 71
     3
 72
    28
 73
    24
 74
     0
 42
0.0000000001
 43
0.0000000001
 40
0.0003135965776966
 40
0.0003135965776966
 40
0.0003135965776966
 40
0.0003135965776966
 40
0.2718281047685813
 40
0.2718281047685813
 40
0.3877372981802412
 40
0.3877372981802412
 40
0.4023246078334032
 40
0.4023246078334032
 40
0.4094618537022258
 40
0.4094618537022258
 40
0.4141700486735726
 40
0.4141700486735726
 40
0.4184552481946902
 40
0.4184552481946902
 40
0.4238538387516468
 40
0.4238538387516468
 40
0.4337033556841512
 40
0.4337033556841512
 40
0.4587932383512742
 40
0.4587932383512742
 40
0.5538885021223808
 40
0.5538885021223808
 40
0.872853040524146
 40
0.872853040524146
 40
0.872853040524146
 40
0.872853040524146
 10
-117.967501206118
 20
51.15055768858508
 30
0.0
 10
-117.9780656328645
 20
51.62600203775316
 30
0.0
 10
-118.0119836836967
 20
52.00017345996915
 30
0.0
 10
-118.0914737603885
 20
52.36776230089978
 30
0.0
 10
-118.1366249717566
 20
52.53648523810395
 30
0.0
 10
-118.219186091985
 20
52.61712202233988
 30
0.0
 10
-118.2301933800934
 20
52.62592339272234
 30
0.0
 10
-118.2491218804862
 20
52.63548538355568
 30
0.0
 10
-118.2563861070515
 20
52.63837763593858
 30
0.0
 10
-118.269981101404
 20
52.64144321658111
 30
0.0
 10
-118.2757048850794
 20
52.6421889619954
 30
0.0
 10
-118.2872343888254
 20
52.64239006359225
 30
0.0
 10
-118.2926186759666
 20
52.6419489454658
 30
0.0
 10
-118.3045037331517
 20
52.63993827014278
 30
0.0
 10
-118.3106683536321
 20
52.63814926845043
 30
0.0
 10
-118.3264735243499
 20
52.63225620146315
 30
0.0
 10
-118.3356030234256
 20
52.62715137472736
 30
0.0
 10
-118.362650107493
 20
52.60936724998683
 30
0.0
 10
-118.3799520824161
 20
52.59217590631741
 30
0.0
 10
-118.4486758263262
 20
52.51217595032909
 30
0.0
 10
-118.4948798500545
 20
52.41556800090191
 30
0.0
 10
-118.6338677098492
 20
52.08135499698551
 30
0.0
 10
-118.7351897616119
 20
51.67806708106235
 30
0.0
 10
-118.8212872233749
 20
51.1505576885851
 30
0.0
  0
SPLINE
  5
C4
330
2
100
AcDbEntity
  8
GEB-VERDECKT
 48
25.0
100
AcDbSpline
210
0.0
220
0.0
230
1.0
 70
     8
 71
     3
 72
    18
 73
    14
 74
     0
 42
0.0000000001
 43
0.0000000001
 40
6.130712173490306
 40
6.130712173490306
 40
6.130712173490306
 40
6.130712173490306
 40
6.358283137277893
 40
6.358283137277893
 40
6.861022006813983
 40
6.861022006813983
 40
7.812083211287353
 40
7.812083211287353
 40
9.010772298240878
 40
9.010772298240878
 40
10.8712306656534
 40
10.8712306656534
 40
12.25035599329195
 40
12.25035599329195
 40
12.25035599329195
 40
12.25035599329195
 10
-118.4387437082267
 20
-0.000000000058094
 30
0.0
 10
-118.4387437082267
 20
0.7589881251492443
 30
0.0
 10
-118.4381165136825
 20
1.517963102756539
 30
0.0
 10
-118.4341022366658
 20
3.952277875307572
 30
0.0
 10
-118.4282865649704
 20
5.624651577922719
 30
0.0
 10
-118.4031348339632
 20
10.43828255681691
 30
0.0
 10
-118.3762954174154
 20
13.55196233552124
 30
0.0
 10
-118.2984875164576
 20
20.44422148829432
 30
0.0
 10
-118.2431711893206
 20
24.16768890710654
 30
0.0
 10
-118.096412991798
 20
33.22377669222146
 30
0.0
 10
-118.0017384247534
 20
38.25509050172275
 30
0.0
 10
-117.9213916406251
 20
45.87546450365812
 30
0.0
 10
-117.9137993727049
 20
48.73374569784587
 30
0.0
 10
-117.967501206118
 20
51.15055768858508
 30
0.0
  0
SPLINE
  5
C5
330
2
100
AcDbEntity
  8
GEB-VERDECKT
 48
25.0
100
AcDbSpline
210
0.0
220
0.0
230
1.0
 70
     8
 71
     3
 72
    16
 73
    12
 74
     0
 42
0.0000000001
 43
0.0000000001
 40
0.0026009342830063
 40
0.0026009342830063
 40
0.0026009342830063
 40
0.0026009342830063
 40
2.288447646738543
 40
2.288447646738543
 40
4.621313960225665
 40
4.621313960225665
 40
5.462775317898823
 40
5.462775317898823
 40
5.94718201008025
 40
5.94718201008025
 40
6.130712173490306
 40
6.130712173490306
 40
6.130712173490306
 40
6.130712173490306
 10
-117.967501206118
 20
-51.1505576886843
 30
0.0
 10
-117.8785264630287
 20
-47.14631402875641
 30
0.0
 10
-117.9519680006511
 20
-41.94489604413269
 30
0.0
 10
-118.1524997652483
 20
-29.57067199812059
 30
0.0
 10
-118.2821859587987
 20
-22.47978695318264
 30
0.0
 10
-118.3877726882618
 20
-12.22327506089817
 30
0.0
 10
-118.4093310042261
 20
-9.458964691480815
 30
0.0
 10
-118.4303846114679
 20
-5.063601139822253
 30
0.0
 10
-118.4353728179805
 20
-3.45118483003057
 30
0.0
 10
-118.4383359105366
 20
-1.224217583276981
 30
0.0
 10
-118.4387437082267
 20
-0.612104516061379
 30
0.0
 10
-118.4387437082267
 20
-0.000000000058094
 30
0.0
  0
SPLINE
  5
C6
330
2
100
AcDbEntity
  8
GEB-VERDECKT
 48
25.0
100
AcDbSpline
210
0.0
220
0.0
230
1.0
 70
     8
 71
     3
 72
    28
 73
    24
 74
     0
 42
0.0000000001
 43
0.0000000001
 40
0.0003135965776805
 40
0.0003135965776805
 40
0.0003135965776805
 40
0.0003135965776805
 40
0.2718281047685725
 40
0.2718281047685725
 40
0.3877372981818239
 40
0.3877372981818239
 40
0.4023246078212745
 40
0.4023246078212745
 40
0.4094618536788143
 40
0.4094618536788143
 40
0.4141700486430022
 40
0.4141700486430022
 40
0.4184552481577143
 40
0.4184552481577143
 40
0.4238538387064911
 40
0.4238538387064911
 40
0.4337033556235263
 40
0.4337033556235263
 40
0.4587932382526708
 40
0.4587932382526708
 40
0.5538885018951829
 40
0.5538885018951829
 40
0.8728530398507752
 40
0.8728530398507752
 40
0.8728530398507752
 40
0.8728530398507752
 10
-110.5791393953245
 20
-51.15055768868441
 30
0.0
 10
-110.501539731211
 20
-51.62600203785206
 30
0.0
 10
-110.4114966462245
 20
-52.00017346006768
 30
0.0
 10
-110.2757432564025
 20
-52.36776230099948
 30
0.0
 10
-110.2043280496714
 20
-52.53648523820217
 30
0.0
 10
-110.109076351464
 20
-52.61712202242907
 30
0.0
 10
-110.0966821494118
 20
-52.62592339281624
 30
0.0
 10
-110.0762458314133
 20
-52.63548538365327
 30
0.0
 10
-110.0685253184534
 20
-52.63837763603635
 30
0.0
 10
-110.0544466076737
 20
-52.64144321667899
 30
0.0
 10
-110.0486051285735
 20
-52.64218896209314
 30
0.0
 10
-110.0370438877784
 20
-52.64239006368999
 30
0.0
 10
-110.0317292204405
 20
-52.64194894556357
 30
0.0
 10
-110.0201614481866
 20
-52.63993827024055
 30
0.0
 10
-110.0142791061417
 20
-52.63814926854831
 30
0.0
 10
-109.999403485592
 20
-52.63225620156095
 30
0.0
 10
-109.9910788553338
 20
-52.62715137482544
 30
0.0
 10
-109.9668338079051
 20
-52.60936725008335
 30
0.0
 10
-109.9522365209621
 20
-52.59217590641236
 30
0.0
 10
-109.896070004919
 20
-52.51217595042828
 30
0.0
 10
-109.8649057836945
 20
-52.4155680010034
 30
0.0
 10
-109.7773985132746
 20
-52.08135499708433
 30
0.0
 10
-109.7370746959141
 20
-51.67806708116206
 30
0.0
 10
-109.7253533780676
 20
-51.15055768868444
 30
0.0
  0
SPLINE
  5
C7
330
2
100
AcDbEntity
  8
GEB-VERDECKT
 48
25.0
100
AcDbSpline
210
0.0
220
0.0
230
1.0
 70
     8
 71
     3
 72
    18
 73
    14
 74
     0
 42
0.0000000001
 43
0.0000000001
 40
6.130712173490197
 40
6.130712173490197
 40
6.130712173490197
 40
6.130712173490197
 40
6.358283137277771
 40
6.358283137277771
 40
6.861022006813965
 40
6.861022006813965
 40
7.812083211287662
 40
7.812083211287662
 40
9.010772298241615
 40
9.010772298241615
 40
10.87123066565453
 40
10.87123066565453
 40
12.25035599329303
 40
12.25035599329303
 40
12.25035599329303
 40
12.25035599329303
 10
-112.5943116119728
 20
-0.0000000000582077
 30
0.0
 10
-112.5943116119728
 20
-0.7589881252656312
 30
0.0
 10
-112.5936855638959
 20
-1.517963102873011
 30
0.0
 10
-112.5896565676411
 20
-3.95227787542467
 30
0.0
 10
-112.5838240924858
 20
-5.624651578039674
 30
0.0
 10
-112.5577082900718
 20
-10.43828255693376
 30
0.0
 10
-112.5293279605846
 20
-13.55196233563811
 30
0.0
 10
-112.4344812749624
 20
-20.44422148841093
 30
0.0
 10
-112.3603365432705
 20
-24.16768890722264
 30
0.0
 10
-112.0969150767268
 20
-33.22377669233487
 30
0.0
 10
-111.8693009367525
 20
-38.25509050183385
 30
0.0
 10
-111.2817525983276
 20
-45.87546450376351
 30
0.0
 10
-110.9735994389341
 20
-48.73374569794819
 30
0.0
 10
-110.5791393953245
 20
-51.15055768868441
 30
0.0
  0
SPLINE
  5
C8
330
2
100
AcDbEntity
  8
GEB-VERDECKT
 48
25.0
100
AcDbSpline
210
0.0
220
0.0
230
1.0
 70
     8
 71
     3
 72
    16
 73
    12
 74
     0
 42
0.0000000001
 43
0.0000000001
 40
0.0026009342830055
 40
0.0026009342830055
 40
0.0026009342830055
 40
0.0026009342830055
 40
2.288447646738548
 40
2.288447646738548
 40
4.621313960225681
 40
4.621313960225681
 40
5.462775317898849
 40
5.462775317898849
 40
5.947182010080225
 40
5.947182010080225
 40
6.130712173490197
 40
6.130712173490197
 40
6.130712173490197
 40
6.130712173490197
 10
-110.5791393953245
 20
51.150557688585
 30
0.0
 10
-111.2326921477824
 20
47.14631402865322
 30
0.0
 10
-111.6530636153111
 20
41.94489604402614
 30
0.0
 10
-112.2527875640018
 20
29.57067199800844
 30
0.0
 10
-112.4177458929683
 20
22.47978695306839
 30
0.0
 10
-112.5416243258264
 20
12.22327506078238
 30
0.0
 10
-112.5642169933658
 20
9.458964691364684
 30
0.0
 10
-112.5859438009278
 20
5.063601139706037
 30
0.0
 10
-112.5909341441621
 20
3.451184829914495
 30
0.0
 10
-112.593904299424
 20
1.224217583160452
 30
0.0
 10
-112.5943116119728
 20
0.6121045159449352
 30
0.0
 10
-112.5943116119728
 20
-0.0000000000582077
 30
0.0
  0
SPLINE
  5
C9
330
2
100
AcDbEntity
  8
GEB-VERDECKT
 48
25.0
100
AcDbSpline
210
0.0
220
0.0
230
1.0
 70
     8
 71
     3
 72
    28
 73
    24
 74
     0
 42
0.0000000001
 43
0.0000000001
 40
0.0003135965776972
 40
0.0003135965776972
 40
0.0003135965776972
 40
0.0003135965776972
 40
0.2718281047683244
 40
0.2718281047683244
 40
0.3877372981776429
 40
0.3877372981776429
 40
0.4023246078302649
 40
0.4023246078302649
 40
0.4094618536987931
 40
0.4094618536987931
 40
0.4141700486699519
 40
0.4141700486699519
 40
0.4184552481908977
 40
0.4184552481908977
 40
0.423853838747831
 40
0.423853838747831
 40
0.4337033556810461
 40
0.4337033556810461
 40
0.4587932383474159
 40
0.4587932383474159
 40
0.553888502114328
 40
0.553888502114328
 40
0.8728530404944914
 40
0.8728530404944914
 40
0.8728530404944914
 40
0.8728530404944914
 10
-109.7253533780677
 20
51.150557688585
 30
0.0
 10
-109.7359178048141
 20
51.62600203775261
 30
0.0
 10
-109.7698358556462
 20
52.00017345996883
 30
0.0
 10
-109.8493259323377
 20
52.36776230089782
 30
0.0
 10
-109.8944771437058
 20
52.53648523810344
 30
0.0
 10
-109.9770382639344
 20
52.61712202233969
 30
0.0
 10
-109.9880455520429
 20
52.62592339272217
 30
0.0
 10
-110.0069740524358
 20
52.63548538355559
 30
0.0
 10
-110.0142382790011
 20
52.63837763593847
 30
0.0
 10
-110.0278332733535
 20
52.64144321658102
 30
0.0
 10
-110.033557057029
 20
52.64218896199531
 30
0.0
 10
-110.045086560775
 20
52.64239006359216
 30
0.0
 10
-110.0504708479161
 20
52.64194894546571
 30
0.0
 10
-110.0623559051015
 20
52.63993827014264
 30
0.0
 10
-110.0685205255822
 20
52.63814926845009
 30
0.0
 10
-110.0843256962993
 20
52.63225620146307
 30
0.0
 10
-110.0934551953744
 20
52.62715137472781
 30
0.0
 10
-110.1205022794425
 20
52.6093672499868
 30
0.0
 10
-110.1378042543657
 20
52.59217590631743
 30
0.0
 10
-110.2065279982753
 20
52.51217595032966
 30
0.0
 10
-110.2527320220033
 20
52.41556800090368
 30
0.0
 10
-110.3917198817986
 20
52.0813549969856
 30
0.0
 10
-110.4930419335614
 20
51.67806708106249
 30
0.0
 10
-110.5791393953245
 20
51.150557688585
 30
0.0
  0
SPLINE
  5
CA
330
2
100
AcDbEntity
  8
GEB-VERDECKT
 48
25.0
100
AcDbSpline
210
0.0
220
0.0
230
1.0
 70
     8
 71
     3
 72
    18
 73
    14
 74
     0
 42
0.0000000001
 43
0.0000000001
 40
6.130712173490306
 40
6.130712173490306
 40
6.130712173490306
 40
6.130712173490306
 40
6.358283137277893
 40
6.358283137277893
 40
6.861022006813983
 40
6.861022006813983
 40
7.812083211287353
 40
7.812083211287353
 40
9.010772298240878
 40
9.010772298240878
 40
10.8712306656534
 40
10.8712306656534
 40
12.25035599329195
 40
12.25035599329195
 40
12.25035599329195
 40
12.25035599329195
 10
-110.1965958801763
 20
-0.0000000000582077
 30
0.0
 10
-110.1965958801763
 20
0.7589881251491306
 30
0.0
 10
-110.195968685632
 20
1.517963102756425
 30
0.0
 10
-110.1919544086154
 20
3.952277875307458
 30
0.0
 10
-110.18613873692
 20
5.624651577922605
 30
0.0
 10
-110.1609870059127
 20
10.43828255681683
 30
0.0
 10
-110.134147589365
 20
13.55196233552112
 30
0.0
 10
-110.0563396884072
 20
20.44422148829423
 30
0.0
 10
-110.0010233612702
 20
24.16768890710642
 30
0.0
 10
-109.8542651637476
 20
33.22377669222135
 30
0.0
 10
-109.759590596703
 20
38.25509050172263
 30
0.0
 10
-109.6792438125747
 20
45.87546450365803
 30
0.0
 10
-109.6716515446545
 20
48.73374569784579
 30
0.0
 10
-109.7253533780677
 20
51.150557688585
 30
0.0
  0
SPLINE
  5
CB
330
2
100
AcDbEntity
  8
GEB-VERDECKT
 48
25.0
100
AcDbSpline
210
0.0
220
0.0
230
1.0
 70
     8
 71
     3
 72
    16
 73
    12
 74
     0
 42
0.0000000001
 43
0.0000000001
 40
0.0026009342830061
 40
0.0026009342830061
 40
0.0026009342830061
 40
0.0026009342830061
 40
2.288447646738543
 40
2.288447646738543
 40
4.621313960225665
 40
4.621313960225665
 40
5.462775317898823
 40
5.462775317898823
 40
5.94718201008025
 40
5.94718201008025
 40
6.130712173490306
 40
6.130712173490306
 40
6.130712173490306
 40
6.130712173490306
 10
-109.7253533780676
 20
-51.15055768868444
 30
0.0
 10
-109.6363786349783
 20
-47.14631402875653
 30
0.0
 10
-109.7098201726007
 20
-41.9448960441328
 30
0.0
 10
-109.9103519371979
 20
-29.5706719981207
 30
0.0
 10
-110.0400381307483
 20
-22.47978695318272
 30
0.0
 10
-110.1456248602114
 20
-12.22327506089829
 30
0.0
 10
-110.1671831761757
 20
-9.458964691480929
 30
0.0
 10
-110.1882367834175
 20
-5.06360113982231
 30
0.0
 10
-110.19322498993
 20
-3.451184830030655
 30
0.0
 10
-110.1961880824861
 20
-1.224217583277066
 30
0.0
 10
-110.1965958801763
 20
-0.6121045160614642
 30
0.0
 10
-110.1965958801763
 20
-0.0000000000582077
 30
0.0
  0
SPLINE
  5
CC
330
2
100
AcDbEntity
  8
GEB-VERDECKT
 48
25.0
100
AcDbSpline
210
0.0
220
0.0
230
1.0
 70
     8
 71
     3
 72
    28
 73
    24
 74
     0
 42
0.0000000001
 43
0.0000000001
 40
0.0003135965776806
 40
0.0003135965776806
 40
0.0003135965776806
 40
0.0003135965776806
 40
0.2718281047685783
 40
0.2718281047685783
 40
0.3877372981810988
 40
0.3877372981810988
 40
0.4023246078226141
 40
0.4023246078226141
 40
0.4094618536817348
 40
0.4094618536817348
 40
0.4141700486469477
 40
0.4141700486469477
 40
0.4184552481625926
 40
0.4184552481625926
 40
0.4238538387125447
 40
0.4238538387125447
 40
0.433703355631724
 40
0.433703355631724
 40
0.4587932382663304
 40
0.4587932382663304
 40
0.5538885019295441
 40
0.5538885019295441
 40
0.8728530399546361
 40
0.8728530399546361
 40
0.8728530399546361
 40
0.8728530399546361
 10
-102.3369915672741
 20
-51.1505576886845
 30
0.0
 10
-102.2593919031606
 20
-51.62600203785217
 30
0.0
 10
-102.169348818174
 20
-52.00017346006774
 30
0.0
 10
-102.0335954283524
 20
-52.36776230099889
 30
0.0
 10
-101.9621802216212
 20
-52.53648523820209
 30
0.0
 10
-101.8669285234119
 20
-52.6171220224305
 30
0.0
 10
-101.8545343213601
 20
-52.62592339281695
 30
0.0
 10
-101.834098003363
 20
-52.63548538365336
 30
0.0
 10
-101.826377490403
 20
-52.63837763603646
 30
0.0
 10
-101.8122987796233
 20
-52.64144321667908
 30
0.0
 10
-101.8064573005231
 20
-52.64218896209325
 30
0.0
 10
-101.794896059728
 20
-52.6423900636901
 30
0.0
 10
-101.7895813923902
 20
-52.64194894556368
 30
0.0
 10
-101.7780136201362
 20
-52.63993827024066
 30
0.0
 10
-101.7721312780913
 20
-52.63814926854843
 30
0.0
 10
-101.7572556575416
 20
-52.63225620156106
 30
0.0
 10
-101.7489310272833
 20
-52.62715137482553
 30
0.0
 10
-101.7246859798547
 20
-52.60936725008346
 30
0.0
 10
-101.7100886929116
 20
-52.59217590641242
 30
0.0
 10
-101.6539221768685
 20
-52.5121759504284
 30
0.0
 10
-101.622757955644
 20
-52.41556800100352
 30
0.0
 10
-101.5352506852241
 20
-52.08135499708436
 30
0.0
 10
-101.4949268678637
 20
-51.67806708116206
 30
0.0
 10
-101.4832055500172
 20
-51.1505576886845
 30
0.0
  0
SPLINE
  5
CD
330
2
100
AcDbEntity
  8
GEB-VERDECKT
 48
25.0
100
AcDbSpline
210
0.0
220
0.0
230
1.0
 70
     8
 71
     3
 72
    18
 73
    14
 74
     0
 42
0.0000000001
 43
0.0000000001
 40
6.130712173490197
 40
6.130712173490197
 40
6.130712173490197
 40
6.130712173490197
 40
6.358283137277771
 40
6.358283137277771
 40
6.861022006813965
 40
6.861022006813965
 40
7.812083211287662
 40
7.812083211287662
 40
9.010772298241615
 40
9.010772298241615
 40
10.87123066565453
 40
10.87123066565453
 40
12.25035599329303
 40
12.25035599329303
 40
12.25035599329303
 40
12.25035599329303
 10
-104.3521637839223
 20
-0.0000000000582645
 30
0.0
 10
-104.3521637839223
 20
-0.7589881252657449
 30
0.0
 10
-104.3515377358454
 20
-1.517963102873125
 30
0.0
 10
-104.3475087395907
 20
-3.952277875424783
 30
0.0
 10
-104.3416762644354
 20
-5.624651578039788
 30
0.0
 10
-104.3155604620213
 20
-10.43828255693387
 30
0.0
 10
-104.2871801325342
 20
-13.55196233563819
 30
0.0
 10
-104.192333446912
 20
-20.44422148841105
 30
0.0
 10
-104.1181887152201
 20
-24.16768890722273
 30
0.0
 10
-103.8547672486763
 20
-33.22377669233498
 30
0.0
 10
-103.6271531087021
 20
-38.25509050183396
 30
0.0
 10
-103.0396047702772
 20
-45.87546450376362
 30
0.0
 10
-102.7314516108837
 20
-48.7337456979483
 30
0.0
 10
-102.3369915672741
 20
-51.1505576886845
 30
0.0
  0
SPLINE
  5
CE
330
2
100
AcDbEntity
  8
GEB-VERDECKT
 48
25.0
100
AcDbSpline
210
0.0
220
0.0
230
1.0
 70
     8
 71
     3
 72
    16
 73
    12
 74
     0
 42
0.0000000001
 43
0.0000000001
 40
0.0026009342830053
 40
0.0026009342830053
 40
0.0026009342830053
 40
0.0026009342830053
 40
2.288447646738548
 40
2.288447646738548
 40
4.621313960225681
 40
4.621313960225681
 40
5.462775317898849
 40
5.462775317898849
 40
5.947182010080225
 40
5.947182010080225
 40
6.130712173490197
 40
6.130712173490197
 40
6.130712173490197
 40
6.130712173490197
 10
-102.3369915672741
 20
51.15055768858491
 30
0.0
 10
-102.9905443197319
 20
47.1463140286531
 30
0.0
 10
-103.4109157872607
 20
41.94489604402605
 30
0.0
 10
-104.0106397359513
 20
29.57067199800832
 30
0.0
 10
-104.1755980649178
 20
22.47978695306827
 30
0.0
 10
-104.299476497776
 20
12.22327506078227
 30
0.0
 10
-104.3220691653155
 20
9.45896469136457
 30
0.0
 10
-104.3437959728774
 20
5.063601139705951
 30
0.0
 10
-104.3487863161117
 20
3.451184829914382
 30
0.0
 10
-104.3517564713736
 20
1.224217583160339
 30
0.0
 10
-104.3521637839223
 20
0.61210451594485
 30
0.0
 10
-104.3521637839223
 20
-0.0000000000582645
 30
0.0
  0
SPLINE
  5
CF
330
2
100
AcDbEntity
  8
GEB-VERDECKT
 48
25.0
100
AcDbSpline
210
0.0
220
0.0
230
1.0
 70
     8
 71
     3
 72
    28
 73
    24
 74
     0
 42
0.0000000001
 43
0.0000000001
 40
0.0003135965776966
 40
0.0003135965776966
 40
0.0003135965776966
 40
0.0003135965776966
 40
0.27182810476832
 40
0.27182810476832
 40
0.3877372981811838
 40
0.3877372981811838
 40
0.4023246078318479
 40
0.4023246078318479
 40
0.4094618536992356
 40
0.4094618536992356
 40
0.4141700486694376
 40
0.4141700486694376
 40
0.4184552481893958
 40
0.4184552481893958
 40
0.4238538387450838
 40
0.4238538387450838
 40
0.4337033556760258
 40
0.4337033556760258
 40
0.4587932383366095
 40
0.4587932383366095
 40
0.5538885020816426
 40
0.5538885020816426
 40
0.8728530403884468
 40
0.8728530403884468
 40
0.8728530403884468
 40
0.8728530403884468
 10
-101.4832055500172
 20
51.15055768858488
 30
0.0
 10
-101.4937699767636
 20
51.6260020377525
 30
0.0
 10
-101.5276880275959
 20
52.00017345996869
 30
0.0
 10
-101.607178104288
 20
52.367762300901
 30
0.0
 10
-101.652329315656
 20
52.53648523810404
 30
0.0
 10
-101.7348904358824
 20
52.61712202233804
 30
0.0
 10
-101.7458977239911
 20
52.62592339272143
 30
0.0
 10
-101.7648262243859
 20
52.63548538355576
 30
0.0
 10
-101.7720904509509
 20
52.63837763593841
 30
0.0
 10
-101.7856854453027
 20
52.64144321658079
 30
0.0
 10
-101.7914092289784
 20
52.6421889619952
 30
0.0
 10
-101.8029387327246
 20
52.64239006359204
 30
0.0
 10
-101.8083230198657
 20
52.6419489454656
 30
0.0
 10
-101.820208077051
 20
52.63993827014252
 30
0.0
 10
-101.8263726975318
 20
52.63814926844998
 30
0.0
 10
-101.8421778682488
 20
52.63225620146298
 30
0.0
 10
-101.851307367324
 20
52.6271513747277
 30
0.0
 10
-101.8783544513921
 20
52.60936724998669
 30
0.0
 10
-101.8956564263152
 20
52.59217590631732
 30
0.0
 10
-101.9643801702249
 20
52.51217595032954
 30
0.0
 10
-102.0105841939529
 20
52.41556800090359
 30
0.0
 10
-102.1495720537482
 20
52.08135499698551
 30
0.0
 10
-102.250894105511
 20
51.67806708106238
 30
0.0
 10
-102.3369915672741
 20
51.15055768858491
 30
0.0
  0
SPLINE
  5
D0
330
2
100
AcDbEntity
  8
GEB-VERDECKT
 48
25.0
100
AcDbSpline
210
0.0
220
0.0
230
1.0
 70
     8
 71
     3
 72
    18
 73
    14
 74
     0
 42
0.0000000001
 43
0.0000000001
 40
6.130712173490306
 40
6.130712173490306
 40
6.130712173490306
 40
6.130712173490306
 40
6.358283137277893
 40
6.358283137277893
 40
6.861022006813983
 40
6.861022006813983
 40
7.812083211287353
 40
7.812083211287353
 40
9.010772298240878
 40
9.010772298240878
 40
10.8712306656534
 40
10.8712306656534
 40
12.25035599329195
 40
12.25035599329195
 40
12.25035599329195
 40
12.25035599329195
 10
-101.9544480521259
 20
-0.0000000000582929
 30
0.0
 10
-101.9544480521259
 20
0.7589881251490454
 30
0.0
 10
-101.9538208575816
 20
1.517963102756311
 30
0.0
 10
-101.949806580565
 20
3.952277875307345
 30
0.0
 10
-101.9439909088696
 20
5.624651577922492
 30
0.0
 10
-101.9188391778623
 20
10.43828255681674
 30
0.0
 10
-101.8919997613146
 20
13.55196233552104
 30
0.0
 10
-101.8141918603568
 20
20.44422148829415
 30
0.0
 10
-101.7588755332198
 20
24.16768890710631
 30
0.0
 10
-101.6121173356972
 20
33.22377669222124
 30
0.0
 10
-101.5174427686526
 20
38.25509050172258
 30
0.0
 10
-101.4370959845242
 20
45.87546450365792
 30
0.0
 10
-101.4295037166041
 20
48.73374569784568
 30
0.0
 10
-101.4832055500172
 20
51.15055768858488
 30
0.0
  0
SPLINE
  5
D1
330
2
100
AcDbEntity
  8
GEB-VERDECKT
 48
25.0
100
AcDbSpline
210
0.0
220
0.0
230
1.0
 70
     8
 71
     3
 72
    16
 73
    12
 74
     0
 42
0.0000000001
 43
0.0000000001
 40
0.0026009342830062
 40
0.0026009342830062
 40
0.0026009342830062
 40
0.0026009342830062
 40
2.288447646738543
 40
2.288447646738543
 40
4.621313960225665
 40
4.621313960225665
 40
5.462775317898823
 40
5.462775317898823
 40
5.94718201008025
 40
5.94718201008025
 40
6.130712173490306
 40
6.130712173490306
 40
6.130712173490306
 40
6.130712173490306
 10
-101.4832055500172
 20
-51.1505576886845
 30
0.0
 10
-101.3942308069279
 20
-47.14631402875659
 30
0.0
 10
-101.4676723445502
 20
-41.94489604413291
 30
0.0
 10
-101.6682041091475
 20
-29.57067199812082
 30
0.0
 10
-101.7978903026979
 20
-22.47978695318284
 30
0.0
 10
-101.903477032161
 20
-12.2232750608984
 30
0.0
 10
-101.9250353481252
 20
-9.458964691481014
 30
0.0
 10
-101.9460889553671
 20
-5.063601139822424
 30
0.0
 10
-101.9510771618796
 20
-3.451184830030769
 30
0.0
 10
-101.9540402544357
 20
-1.22421758327718
 30
0.0
 10
-101.9544480521259
 20
-0.6121045160615779
 30
0.0
 10
-101.9544480521259
 20
-0.0000000000582929
 30
0.0
  0
SPLINE
  5
D2
330
2
100
AcDbEntity
  8
GEB-VERDECKT
 48
25.0
100
AcDbSpline
210
0.0
220
0.0
230
1.0
 70
     8
 71
     3
 72
    28
 73
    24
 74
     0
 42
0.0000000001
 43
0.0000000001
 40
0.0003135965776806
 40
0.0003135965776806
 40
0.0003135965776806
 40
0.0003135965776806
 40
0.2718281047685708
 40
0.2718281047685708
 40
0.3877372981814107
 40
0.3877372981814107
 40
0.4023246078280381
 40
0.4023246078280381
 40
0.4094618536916007
 40
0.4094618536916007
 40
0.4141700486598125
 40
0.4141700486598125
 40
0.4184552481781835
 40
0.4184552481781835
 40
0.4238538387315718
 40
0.4238538387315718
 40
0.4337033556570193
 40
0.4337033556570193
 40
0.4587932383075966
 40
0.4587932383075966
 40
0.5538885020313815
 40
0.5538885020313815
 40
0.8728530402595895
 40
0.8728530402595895
 40
0.8728530402595895
 40
0.8728530402595895
 10
-94.09484373922367
 20
-51.15055768868462
 30
0.0
 10
-94.0172440751102
 20
-51.62600203785223
 30
0.0
 10
-93.92720099012365
 20
-52.00017346006785
 30
0.0
 10
-93.79144760030186
 20
-52.36776230099931
 30
0.0
 10
-93.7200323935707
 20
-52.53648523820229
 30
0.0
 10
-93.62478069535786
 20
-52.61712202243373
 30
0.0
 10
-93.61238649330676
 20
-52.62592339281849
 30
0.0
 10
-93.59195017531218
 20
-52.63548538365367
 30
0.0
 10
-93.58422966235243
 20
-52.6383776360366
 30
0.0
 10
-93.57015095157285
 20
-52.64144321667919
 30
0.0
 10
-93.5643094724727
 20
-52.64218896209337
 30
0.0
 10
-93.55274823167755
 20
-52.64239006369021
 30
0.0
 10
-93.54743356433976
 20
-52.64194894556379
 30
0.0
 10
-93.53586579208579
 20
-52.63993827024075
 30
0.0
 10
-93.52998345004086
 20
-52.63814926854848
 30
0.0
 10
-93.51510782949123
 20
-52.63225620156117
 30
0.0
 10
-93.50678319923295
 20
-52.62715137482564
 30
0.0
 10
-93.48253815180431
 20
-52.60936725008355
 30
0.0
 10
-93.46794086486122
 20
-52.59217590641253
 30
0.0
 10
-93.41177434881814
 20
-52.51217595042849
 30
0.0
 10
-93.38061012759363
 20
-52.41556800100363
 30
0.0
 10
-93.29310285717372
 20
-52.08135499708453
 30
0.0
 10
-93.25277903981328
 20
-51.67806708116223
 30
0.0
 10
-93.24105772196679
 20
-51.15055768868462
 30
0.0
  0
SPLINE
  5
D3
330
2
100
AcDbEntity
  8
GEB-VERDECKT
 48
25.0
100
AcDbSpline
210
0.0
220
0.0
230
1.0
 70
     8
 71
     3
 72
    18
 73
    14
 74
     0
 42
0.0000000001
 43
0.0000000001
 40
6.130712173490197
 40
6.130712173490197
 40
6.130712173490197
 40
6.130712173490197
 40
6.358283137277771
 40
6.358283137277771
 40
6.861022006813965
 40
6.861022006813965
 40
7.812083211287662
 40
7.812083211287662
 40
9.010772298241615
 40
9.010772298241615
 40
10.87123066565453
 40
10.87123066565453
 40
12.25035599329303
 40
12.25035599329303
 40
12.25035599329303
 40
12.25035599329303
 10
-96.11001595587191
 20
-0.0000000000583782
 30
0.0
 10
-96.11001595587191
 20
-0.7589881252658586
 30
0.0
 10
-96.10938990779505
 20
-1.517963102873238
 30
0.0
 10
-96.10536091154029
 20
-3.952277875424897
 30
0.0
 10
-96.09952843638502
 20
-5.624651578039845
 30
0.0
 10
-96.07341263397096
 20
-10.43828255693398
 30
0.0
 10
-96.04503230448379
 20
-13.55196233563831
 30
0.0
 10
-95.95018561886158
 20
-20.44422148841113
 30
0.0
 10
-95.8760408871697
 20
-24.16768890722281
 30
0.0
 10
-95.61261942062591
 20
-33.22377669233504
 30
0.0
 10
-95.38500528065174
 20
-38.25509050183405
 30
0.0
 10
-94.79745694222676
 20
-45.87546450376374
 30
0.0
 10
-94.4893037828333
 20
-48.73374569794839
 30
0.0
 10
-94.09484373922367
 20
-51.15055768868462
 30
0.0
  0
SPLINE
  5
D4
330
2
100
AcDbEntity
  8
GEB-VERDECKT
 48
25.0
100
AcDbSpline
210
0.0
220
0.0
230
1.0
 70
     8
 71
     3
 72
    16
 73
    12
 74
     0
 42
0.0000000001
 43
0.0000000001
 40
0.0026009342830054
 40
0.0026009342830054
 40
0.0026009342830054
 40
0.0026009342830054
 40
2.288447646738548
 40
2.288447646738548
 40
4.621313960225681
 40
4.621313960225681
 40
5.462775317898849
 40
5.462775317898849
 40
5.947182010080225
 40
5.947182010080225
 40
6.130712173490197
 40
6.130712173490197
 40
6.130712173490197
 40
6.130712173490197
 10
-94.09484373922367
 20
51.15055768858479
 30
0.0
 10
-94.74839649168155
 20
47.14631402865302
 30
0.0
 10
-95.16876795921026
 20
41.94489604402593
 30
0.0
 10
-95.76849190790097
 20
29.57067199800821
 30
0.0
 10
-95.93345023686746
 20
22.47978695306816
 30
0.0
 10
-96.05732866972557
 20
12.22327506078215
 30
0.0
 10
-96.07992133726497
 20
9.458964691364457
 30
0.0
 10
-96.10164814482699
 20
5.063601139705838
 30
0.0
 10
-96.10663848806126
 20
3.451184829914268
 30
0.0
 10
-96.10960864332319
 20
1.224217583160225
 30
0.0
 10
-96.11001595587191
 20
0.6121045159447363
 30
0.0
 10
-96.11001595587191
 20
-0.0000000000583782
 30
0.0
  0
SPLINE
  5
D5
330
2
100
AcDbEntity
  8
GEB-VERDECKT
 48
25.0
100
AcDbSpline
210
0.0
220
0.0
230
1.0
 70
     8
 71
     3
 72
    28
 73
    24
 74
     0
 42
0.0000000001
 43
0.0000000001
 40
0.0003135965776971
 40
0.0003135965776971
 40
0.0003135965776971
 40
0.0003135965776971
 40
0.2718281047684877
 40
0.2718281047684877
 40
0.3877372981793499
 40
0.3877372981793499
 40
0.4023246078319258
 40
0.4023246078319258
 40
0.4094618537003204
 40
0.4094618537003204
 40
0.4141700486713876
 40
0.4141700486713876
 40
0.4184552481922495
 40
0.4184552481922495
 40
0.4238538387490756
 40
0.4238538387490756
 40
0.4337033556820933
 40
0.4337033556820933
 40
0.4587932383479674
 40
0.4587932383479674
 40
0.5538885021130751
 40
0.5538885021130751
 40
0.8728530404872195
 40
0.8728530404872195
 40
0.8728530404872195
 40
0.8728530404872195
 10
-93.24105772196679
 20
51.15055768858479
 30
0.0
 10
-93.2516221487133
 20
51.62600203775269
 30
0.0
 10
-93.2855401995455
 20
52.00017345996878
 30
0.0
 10
-93.36503027623715
 20
52.36776230089884
 30
0.0
 10
-93.4101814876052
 20
52.53648523810347
 30
0.0
 10
-93.49274260783341
 20
52.61712202233929
 30
0.0
 10
-93.5037498959419
 20
52.62592339272188
 30
0.0
 10
-93.52267839633492
 20
52.63548538355536
 30
0.0
 10
-93.52994262290025
 20
52.6383776359383
 30
0.0
 10
-93.54353761725269
 20
52.64144321658079
 30
0.0
 10
-93.54926140092823
 20
52.64218896199508
 30
0.0
 10
-93.56079090467416
 20
52.64239006359193
 30
0.0
 10
-93.56617519181531
 20
52.64194894546552
 30
0.0
 10
-93.57806024900062
 20
52.63993827014243
 30
0.0
 10
-93.58422486948134
 20
52.63814926844986
 30
0.0
 10
-93.60003004019842
 20
52.6322562014629
 30
0.0
 10
-93.60915953927355
 20
52.62715137472759
 30
0.0
 10
-93.63620662334168
 20
52.60936724998657
 30
0.0
 10
-93.65350859826481
 20
52.5921759063172
 30
0.0
 10
-93.72223234217448
 20
52.51217595032946
 30
0.0
 10
-93.76843636590251
 20
52.41556800090347
 30
0.0
 10
-93.90742422569784
 20
52.08135499698539
 30
0.0
 10
-94.00874627746061
 20
51.6780670810623
 30
0.0
 10
-94.09484373922367
 20
51.15055768858479
 30
0.0
  0
SPLINE
  5
D6
330
2
100
AcDbEntity
  8
GEB-VERDECKT
 48
25.0
100
AcDbSpline
210
0.0
220
0.0
230
1.0
 70
     8
 71
     3
 72
    18
 73
    14
 74
     0
 42
0.0000000001
 43
0.0000000001
 40
6.130712173490305
 40
6.130712173490305
 40
6.130712173490305
 40
6.130712173490305
 40
6.358283137277892
 40
6.358283137277892
 40
6.861022006813982
 40
6.861022006813982
 40
7.812083211287352
 40
7.812083211287352
 40
9.010772298240876
 40
9.010772298240876
 40
10.87123066565339
 40
10.87123066565339
 40
12.25035599329195
 40
12.25035599329195
 40
12.25035599329195
 40
12.25035599329195
 10
-93.71230022407548
 20
-0.0000000000584066
 30
0.0
 10
-93.71230022407548
 20
0.7589881251489317
 30
0.0
 10
-93.71167302953123
 20
1.517963102756198
 30
0.0
 10
-93.70765875251455
 20
3.95227787530726
 30
0.0
 10
-93.70184308081917
 20
5.624651577922406
 30
0.0
 10
-93.67669134981184
 20
10.43828255681663
 30
0.0
 10
-93.64985193326416
 20
13.55196233552092
 30
0.0
 10
-93.57204403230634
 20
20.44422148829401
 30
0.0
 10
-93.51672770516936
 20
24.1676889071062
 30
0.0
 10
-93.36996950764676
 20
33.22377669222118
 30
0.0
 10
-93.2752949406022
 20
38.25509050172247
 30
0.0
 10
-93.19494815647383
 20
45.87546450365784
 30
0.0
 10
-93.1873558885537
 20
48.73374569784556
 30
0.0
 10
-93.24105772196679
 20
51.15055768858479
 30
0.0
  0
SPLINE
  5
D7
330
2
100
AcDbEntity
  8
GEB-VERDECKT
 48
25.0
100
AcDbSpline
210
0.0
220
0.0
230
1.0
 70
     8
 71
     3
 72
    16
 73
    12
 74
     0
 42
0.0000000001
 43
0.0000000001
 40
0.0026009342830062
 40
0.0026009342830062
 40
0.0026009342830062
 40
0.0026009342830062
 40
2.288447646738542
 40
2.288447646738542
 40
4.621313960225664
 40
4.621313960225664
 40
5.462775317898822
 40
5.462775317898822
 40
5.947182010080249
 40
5.947182010080249
 40
6.130712173490305
 40
6.130712173490305
 40
6.130712173490305
 40
6.130712173490305
 10
-93.24105772196679
 20
-51.15055768868462
 30
0.0
 10
-93.1520829788775
 20
-47.14631402875676
 30
0.0
 10
-93.22552451649983
 20
-41.94489604413303
 30
0.0
 10
-93.42605628109708
 20
-29.57067199812087
 30
0.0
 10
-93.55574247464744
 20
-22.47978695318295
 30
0.0
 10
-93.66132920411056
 20
-12.22327506089851
 30
0.0
 10
-93.68288752007485
 20
-9.458964691481128
 30
0.0
 10
-93.70394112731668
 20
-5.063601139822537
 30
0.0
 10
-93.70892933382924
 20
-3.451184830030882
 30
0.0
 10
-93.7118924263853
 20
-1.224217583277294
 30
0.0
 10
-93.71230022407548
 20
-0.6121045160616916
 30
0.0
 10
-93.71230022407548
 20
-0.0000000000584066
 30
0.0
  0
LINE
  5
D8
330
2
100
AcDbEntity
  8
GEB-VERDECKT
 48
25.0
100
AcDbLine
 10
-124.9605629654791
 20
-58.83682945235188
 30
0.0
 11
-126.0510476496125
 21
-58.83682945235188
 31
0.0
  0
ELLIPSE
  5
D9
330
2
100
AcDbEntity
  8
GEB-VERDECKT
 48
25.0
100
AcDbEllipse
 10
-77.35168102729978
 20
-0.0000000000406999
 30
0.0
 11
0.0000000000007813
 21
60.14999999999988
 31
0.0
210
0.0
220
0.0
230
1.0
 40
0.0436193873653364
 41
0.2093394323573656
 42
2.932253221233205
  0
LINE
  5
DA
330
2
100
AcDbEntity
  8
GEB-VERDECKT
 48
25.0
100
AcDbLine
 10
-124.9605629654791
 20
-58.83682945234443
 30
0.0
 11
-124.4017694019964
 21
-58.83682945234443
 31
0.0
  0
SPLINE
  5
DB
330
2
100
AcDbEntity
  8
GEB-VERDECKT
 48
25.0
100
AcDbSpline
210
0.0
220
0.0
230
1.0
 70
     8
 71
     3
 72
    14
 73
    10
 74
     0
 42
0.0000000001
 43
0.0000000001
 40
6.130712173490147
 40
6.130712173490147
 40
6.130712173490147
 40
6.130712173490147
 40
6.358283137277687
 40
6.358283137277687
 40
6.861022006813815
 40
6.861022006813815
 40
7.812083211287264
 40
7.812083211287264
 40
7.856763709227258
 40
7.856763709227258
 40
7.856763709227258
 40
7.856763709227258
 10
-88.46488792402547
 20
-0.0000000000226237
 30
0.0
 10
-88.46488792402547
 20
-0.758988125229962
 30
0.0
 10
-88.46551397210237
 20
-1.517963102837285
 30
0.0
 10
-88.46954296835709
 20
-3.952277875388745
 30
0.0
 10
-88.47537544351238
 20
-5.624651578003749
 30
0.0
 10
-88.50149124592645
 20
-10.43828255689757
 30
0.0
 10
-88.52987157541358
 20
-13.55196233560201
 30
0.0
 10
-88.57380356164771
 20
-16.74438421344777
 30
0.0
 10
-88.57580439562687
 20
-16.88746701268471
 30
0.0
 10
-88.57783517092071
 20
-17.03038074956902
 30
0.0
  0
SPLINE
  5
DC
330
2
100
AcDbEntity
  8
GEB-VERDECKT
 48
25.0
100
AcDbSpline
210
0.0
220
0.0
230
1.0
 70
     8
 71
     3
 72
    14
 73
    10
 74
     0
 42
0.0000000001
 43
0.0000000001
 40
4.40465256019813
 40
4.40465256019813
 40
4.40465256019813
 40
4.40465256019813
 40
4.62131396022564
 40
4.62131396022564
 40
5.462775317898763
 40
5.462775317898763
 40
5.947182010080127
 40
5.947182010080127
 40
6.130712173490147
 40
6.130712173490147
 40
6.130712173490147
 40
6.130712173490147
 10
-88.57774304690565
 20
17.03038031298589
 30
0.0
 10
-88.56796135902568
 20
16.338352926494
 30
0.0
 10
-88.5588685492894
 20
15.64215608764198
 30
0.0
 10
-88.51757521017185
 20
12.22327506081768
 30
0.0
 10
-88.49498254263238
 20
9.45896469140041
 30
0.0
 10
-88.4732557350704
 20
5.063601139741535
 30
0.0
 10
-88.46826539183609
 20
3.451184829949852
 30
0.0
 10
-88.46529523657421
 20
1.224217583196178
 30
0.0
 10
-88.46488792402547
 20
0.6121045159806045
 30
0.0
 10
-88.46488792402547
 20
-0.0000000000226237
 30
0.0
  0
SPLINE
  5
DD
330
2
100
AcDbEntity
  8
GEB-VERDECKT
 48
25.0
100
AcDbSpline
210
0.0
220
0.0
230
1.0
 70
     8
 71
     3
 72
    14
 73
    10
 74
     0
 42
0.0000000001
 43
0.0000000001
 40
6.130712173490252
 40
6.130712173490252
 40
6.130712173490252
 40
6.130712173490252
 40
6.358283137277815
 40
6.358283137277815
 40
6.861022006813891
 40
6.861022006813891
 40
7.812083211287187
 40
7.812083211287187
 40
7.856763709227105
 40
7.856763709227105
 40
7.856763709227105
 40
7.856763709227105
 10
-96.70703575207591
 20
-0.00000000002251
 30
0.0
 10
-96.70703575207591
 20
-0.7589881252299051
 30
0.0
 10
-96.70766180015284
 20
-1.517963102837171
 30
0.0
 10
-96.71169079640755
 20
-3.952277875388347
 30
0.0
 10
-96.71752327156282
 20
-5.624651578003522
 30
0.0
 10
-96.74363907397685
 20
-10.43828255689763
 30
0.0
 10
-96.77201940346401
 20
-13.55196233560204
 30
0.0
 10
-96.81595138969811
 20
-16.7443842134476
 30
0.0
 10
-96.81795222367725
 20
-16.88746701268428
 30
0.0
 10
-96.81998299897115
 20
-17.03038074956836
 30
0.0
  0
SPLINE
  5
DE
330
2
100
AcDbEntity
  8
GEB-VERDECKT
 48
25.0
100
AcDbSpline
210
0.0
220
0.0
230
1.0
 70
     8
 71
     3
 72
    14
 73
    10
 74
     0
 42
0.0000000001
 43
0.0000000001
 40
4.404652560198124
 40
4.404652560198124
 40
4.404652560198124
 40
4.404652560198124
 40
4.621313960225682
 40
4.621313960225682
 40
5.462775317898788
 40
5.462775317898788
 40
5.947182010080212
 40
5.947182010080212
 40
6.130712173490252
 40
6.130712173490252
 40
6.130712173490252
 40
6.130712173490252
 10
-96.81989087495612
 20
17.03038031298607
 30
0.0
 10
-96.81010918707611
 20
16.338352926494
 30
0.0
 10
-96.80101637733987
 20
15.64215608764184
 30
0.0
 10
-96.75972303822229
 20
12.2232750608174
 30
0.0
 10
-96.7371303706828
 20
9.458964691400126
 30
0.0
 10
-96.71540356312085
 20
5.063601139741763
 30
0.0
 10
-96.71041321988656
 20
3.451184829950051
 30
0.0
 10
-96.70744306462465
 20
1.22421758319632
 30
0.0
 10
-96.70703575207591
 20
0.6121045159807182
 30
0.0
 10
-96.70703575207591
 20
-0.00000000002251
 30
0.0
  0
SPLINE
  5
DF
330
2
100
AcDbEntity
  8
GEB-VERDECKT
 48
25.0
100
AcDbSpline
210
0.0
220
0.0
230
1.0
 70
     8
 71
     3
 72
    14
 73
    10
 74
     0
 42
0.0000000001
 43
0.0000000001
 40
6.130712173490252
 40
6.130712173490252
 40
6.130712173490252
 40
6.130712173490252
 40
6.358283137277815
 40
6.358283137277815
 40
6.861022006813891
 40
6.861022006813891
 40
7.812083211287187
 40
7.812083211287187
 40
7.856763709227179
 40
7.856763709227179
 40
7.856763709227179
 40
7.856763709227179
 10
-104.9491835801263
 20
-0.0000000000224532
 30
0.0
 10
-104.9491835801263
 20
-0.7589881252297915
 30
0.0
 10
-104.9498096282032
 20
-1.517963102837086
 30
0.0
 10
-104.9538386244579
 20
-3.952277875388261
 30
0.0
 10
-104.9596710996132
 20
-5.624651578003437
 30
0.0
 10
-104.9857869020273
 20
-10.43828255689755
 30
0.0
 10
-105.0141672315144
 20
-13.55196233560193
 30
0.0
 10
-105.0580992177486
 20
-16.74438421344772
 30
0.0
 10
-105.0601000517277
 20
-16.88746701268462
 30
0.0
 10
-105.0621308270216
 20
-17.03038074956896
 30
0.0
  0
SPLINE
  5
E0
330
2
100
AcDbEntity
  8
GEB-VERDECKT
 48
25.0
100
AcDbSpline
210
0.0
220
0.0
230
1.0
 70
     8
 71
     3
 72
    14
 73
    10
 74
     0
 42
0.0000000001
 43
0.0000000001
 40
4.404652560198168
 40
4.404652560198168
 40
4.404652560198168
 40
4.404652560198168
 40
4.621313960225682
 40
4.621313960225682
 40
5.462775317898788
 40
5.462775317898788
 40
5.947182010080212
 40
5.947182010080212
 40
6.130712173490252
 40
6.130712173490252
 40
6.130712173490252
 40
6.130712173490252
 10
-105.0620387030065
 20
17.03038031298575
 30
0.0
 10
-105.0522570151265
 20
16.33835292649382
 30
0.0
 10
-105.0431642053902
 20
15.64215608764181
 30
0.0
 10
-105.0018708662727
 20
12.22327506081751
 30
0.0
 10
-104.9792781987332
 20
9.45896469140024
 30
0.0
 10
-104.9575513911713
 20
5.06360113974182
 30
0.0
 10
-104.9525610479369
 20
3.451184829950165
 30
0.0
 10
-104.9495908926751
 20
1.224217583196434
 30
0.0
 10
-104.9491835801263
 20
0.6121045159808319
 30
0.0
 10
-104.9491835801263
 20
-0.0000000000224532
 30
0.0
  0
SPLINE
  5
E1
330
2
100
AcDbEntity
  8
GEB-VERDECKT
 48
25.0
100
AcDbSpline
210
0.0
220
0.0
230
1.0
 70
     8
 71
     3
 72
    14
 73
    10
 74
     0
 42
0.0000000001
 43
0.0000000001
 40
6.130712173490252
 40
6.130712173490252
 40
6.130712173490252
 40
6.130712173490252
 40
6.358283137277815
 40
6.358283137277815
 40
6.861022006813891
 40
6.861022006813891
 40
7.812083211287187
 40
7.812083211287187
 40
7.856763709227261
 40
7.856763709227261
 40
7.856763709227261
 40
7.856763709227261
 10
-113.1913314081768
 20
-0.0000000000223395
 30
0.0
 10
-113.1913314081768
 20
-0.7589881252296778
 30
0.0
 10
-113.1919574562536
 20
-1.517963102836972
 30
0.0
 10
-113.1959864525083
 20
-3.952277875388148
 30
0.0
 10
-113.2018189276636
 20
-5.624651578003323
 30
0.0
 10
-113.2279347300777
 20
-10.43828255689743
 30
0.0
 10
-113.2563150595648
 20
-13.55196233560181
 30
0.0
 10
-113.3002470457989
 20
-16.74438421344788
 30
0.0
 10
-113.3022478797781
 20
-16.88746701268508
 30
0.0
 10
-113.3042786550719
 20
-17.03038074956964
 30
0.0
  0
SPLINE
  5
E2
330
2
100
AcDbEntity
  8
GEB-VERDECKT
 48
25.0
100
AcDbSpline
210
0.0
220
0.0
230
1.0
 70
     8
 71
     3
 72
    14
 73
    10
 74
     0
 42
0.0000000001
 43
0.0000000001
 40
4.404652560198086
 40
4.404652560198086
 40
4.404652560198086
 40
4.404652560198086
 40
4.621313960225682
 40
4.621313960225682
 40
5.462775317898788
 40
5.462775317898788
 40
5.947182010080212
 40
5.947182010080212
 40
6.130712173490252
 40
6.130712173490252
 40
6.130712173490252
 40
6.130712173490252
 10
-113.304186531057
 20
17.03038031298663
 30
0.0
 10
-113.2944048431769
 20
16.33835292649448
 30
0.0
 10
-113.2853120334407
 20
15.64215608764218
 30
0.0
 10
-113.2440186943231
 20
12.22327506081757
 30
0.0
 10
-113.2214260267836
 20
9.458964691400353
 30
0.0
 10
-113.1996992192216
 20
5.063601139741933
 30
0.0
 10
-113.1947088759873
 20
3.45118482995025
 30
0.0
 10
-113.1917387207255
 20
1.224217583196548
 30
0.0
 10
-113.1913314081768
 20
0.6121045159809455
 30
0.0
 10
-113.1913314081768
 20
-0.0000000000223395
 30
0.0
  0
ELLIPSE
  5
E3
330
2
100
AcDbEntity
  8
GEB-VERDECKT
 48
25.0
100
AcDbEllipse
 10
-125.5058053075458
 20
-0.000000000040103
 30
0.0
 11
-0.0000000000007856
 21
-60.14999999999986
 31
0.0
210
0.0
220
0.0
230
1.0
 40
0.0436193873653365
 41
0.2093394323572868
 42
2.93225322123314
  0
LINE
  5
E4
330
2
100
AcDbEntity
  8
GEB-VERDECKT
 48
25.0
100
AcDbLine
 10
-124.9605629654791
 20
-60.15000000003624
 30
0.0
 11
-124.9605629654791
 21
-58.83682945234443
 31
0.0
  0
LINE
  5
E5
330
2
100
AcDbEntity
  8
GEB-VERDECKT
 48
25.0
100
AcDbLine
 10
-126.0510476496125
 20
-60.15000000004369
 30
0.0
 11
-124.9605629654792
 21
-60.15000000003624
 31
0.0
  0
LINE
  5
E6
330
2
100
AcDbEntity
  8
GEB-VERDECKT
 48
25.0
100
AcDbLine
 10
-126.0510476496125
 20
-58.83682945235188
 30
0.0
 11
-126.0510476496125
 21
-60.15000000004369
 31
0.0
  0
ELLIPSE
  5
E7
330
2
100
AcDbEntity
  8
GEB-VERDECKT
 48
25.0
100
AcDbEllipse
 10
-125.5058053075458
 20
-0.000000000040103
 30
0.0
 11
0.0000000000007856
 21
60.14999999999988
 31
0.0
210
0.0
220
0.0
230
1.0
 40
0.0436193873653364
 41
0.2093394323573652
 42
2.932253221233205
  0
ELLIPSE
  5
E8
330
2
100
AcDbEntity
  8
GEB-VERDECKT
 48
25.0
100
AcDbEllipse
 10
-125.5058053075458
 20
-0.000000000040103
 30
0.0
 11
0.00000000000001
 21
64.04999999999986
 31
0.0
210
0.0
220
0.0
230
1.0
 40
0.0436193873653364
 41
0.0
 42
3.141592653277786
  0
LINE
  5
E9
330
2
100
AcDbEntity
  8
GEB-VERDECKT
 48
25.0
100
AcDbLine
 10
-124.9605629654792
 20
60.14999999996351
 30
0.0
 11
-126.0510476496126
 21
60.14999999995606
 31
0.0
  0
LINE
  5
EA
330
2
100
AcDbEntity
  8
GEB-VERDECKT
 48
25.0
100
AcDbLine
 10
-77.89692336936645
 20
58.83682945226365
 30
0.0
 11
-77.89692336936645
 21
57.04655993129574
 31
0.0
  0
LINE
  5
EB
330
2
100
AcDbEntity
  8
GEB-VERDECKT
 48
25.0
100
AcDbLine
 10
-77.89692336936645
 20
57.04655993129574
 30
0.0
 11
-76.80643868523304
 21
57.04655993129574
 31
0.0
  0
LINE
  5
EC
330
2
100
AcDbEntity
  8
GEB-VERDECKT
 48
25.0
100
AcDbLine
 10
-72.40215815066616
 20
57.04655993129569
 30
0.0
 11
-72.40215815066616
 21
55.25371028261429
 31
0.0
  0
LINE
  5
ED
330
2
100
AcDbEntity
  8
GEB-VERDECKT
 48
25.0
100
AcDbLine
 10
-126.0510476496125
 20
60.14999999995606
 30
0.0
 11
-126.0510476496125
 21
58.83682945226422
 31
0.0
  0
LINE
  5
EE
330
2
100
AcDbEntity
  8
GEB-VERDECKT
 48
25.0
100
AcDbLine
 10
-126.0510476496125
 20
58.83682945226425
 30
0.0
 11
-124.9605629654792
 21
58.83682945226422
 31
0.0
  0
LINE
  5
EF
330
2
100
AcDbEntity
  8
GEB-VERDECKT
 48
25.0
100
AcDbLine
 10
-54.57913787764562
 20
60.14999999995518
 30
0.0
 11
-54.57913787764562
 21
55.25371028261403
 31
0.0
  0
ELLIPSE
  5
F0
330
2
100
AcDbEntity
  8
GEB-VERDECKT
 48
25.0
100
AcDbEllipse
 10
-54.03389553557892
 20
-0.0000000000408988
 30
0.0
 11
0.0000000000007359
 21
56.64999999999978
 31
0.0
210
0.0
220
0.0
230
1.0
 40
0.0436193873653363
 41
6.060701249058951
 42
6.505669365300782
  0
LINE
  5
F1
330
2
100
AcDbEntity
  8
GEB-VERDECKT
 48
25.0
100
AcDbLine
 10
-71.31167346653279
 20
55.25371028261424
 30
0.0
 11
-72.40215815066616
 21
55.25371028261429
 31
0.0
  0
ELLIPSE
  5
F2
330
2
100
AcDbEntity
  8
GEB-VERDECKT
 48
25.0
100
AcDbEllipse
 10
-71.85691580859947
 20
-0.0000000000406715
 30
0.0
 11
0.000000000000736
 21
56.64999999999978
 31
0.0
210
0.0
220
0.0
230
1.0
 40
0.0436193873653364
 41
6.060701249058987
 42
6.505669365300831
  0
LINE
  5
F3
330
2
100
AcDbEntity
  8
GEB-VERDECKT
 48
25.0
100
AcDbLine
 10
-124.9605629654792
 20
58.83682945227167
 30
0.0
 11
-124.9605629654792
 21
60.14999999996351
 31
0.0
  0
LINE
  5
F4
330
2
100
AcDbEntity
  8
GEB-VERDECKT
 48
25.0
100
AcDbLine
 10
-124.5458021465302
 20
60.14999999996348
 30
0.0
 11
-124.9605629654792
 21
60.14999999996351
 31
0.0
  0
LINE
  5
F5
330
2
100
AcDbEntity
  8
GEB-VERDECKT
 48
25.0
100
AcDbLine
 10
-71.31167346653277
 20
55.25371028262168
 30
0.0
 11
-71.03207388552636
 21
55.25371028262168
 31
0.0
  0
LINE
  5
F6
330
2
100
AcDbEntity
  8
GEB-VERDECKT
 48
25.0
100
AcDbLine
 10
-71.31167346653277
 20
55.25371028262168
 30
0.0
 11
-71.31167346653279
 21
57.04655993130313
 31
0.0
  0
LINE
  5
F7
330
2
100
AcDbEntity
  8
GEB-VERDECKT
 48
25.0
100
AcDbLine
 10
-76.51980487356474
 20
57.0465599313032
 30
0.0
 11
-76.80643868523304
 21
57.0465599313032
 31
0.0
  0
LINE
  5
F8
330
2
100
AcDbEntity
  8
GEB-VERDECKT
 48
25.0
100
AcDbLine
 10
-76.80643868523304
 20
57.0465599313032
 30
0.0
 11
-76.80643868523304
 21
58.83682945227107
 31
0.0
  0
LINE
  5
F9
330
2
100
AcDbEntity
  8
GEB-VERDECKT
 48
25.0
100
AcDbLine
 10
-124.4017694019964
 20
58.83682945227167
 30
0.0
 11
-124.9605629654792
 21
58.83682945227167
 31
0.0
  0
LINE
  5
FA
330
2
100
AcDbEntity
  8
GEB-KONTUR-A
 48
25.0
100
AcDbLine
 10
-142.7893395409122
 20
60.14999999995996
 30
0.0
 11
-145.9862938499742
 21
60.14999999996001
 31
0.0
  0
LINE
  5
FB
330
2
100
AcDbEntity
  8
GEB-KONTUR-A
 48
25.0
100
AcDbLine
 10
-142.7893395409122
 20
-60.15000000003971
 30
0.0
 11
-145.9862938499742
 21
-60.15000000003971
 31
0.0
  0
LINE
  5
FC
330
2
100
AcDbEntity
  8
GEB-KONTUR-A
 48
25.0
100
AcDbLine
 10
-125.5058053075458
 20
64.04999999995974
 30
0.0
 11
-142.7893395409122
 21
64.04999999995997
 31
0.0
  0
LINE
  5
FD
330
2
100
AcDbEntity
  8
GEB-KONTUR-A
 48
25.0
100
AcDbLine
 10
-125.5058053075458
 20
-64.05000000003997
 30
0.0
 11
-142.7893395409122
 21
-64.05000000003974
 31
0.0
  0
SPLINE
  5
FE
330
2
100
AcDbEntity
  8
GEB-KONTUR-A
 48
25.0
100
AcDbSpline
210
0.0
220
0.0
230
1.0
 70
     8
 71
     3
 72
    16
 73
    12
 74
     0
 42
0.0000000001
 43
0.0000000001
 40
5.968142662611739
 40
5.968142662611739
 40
5.968142662611739
 40
5.968142662611739
 40
6.094159720438881
 40
6.094159720438881
 40
6.220176778266022
 40
6.220176778266022
 40
6.346193836093164
 40
6.346193836093164
 40
6.472210893920305
 40
6.472210893920305
 40
6.598227951747448
 40
6.598227951747448
 40
6.598227951747448
 40
6.598227951747448
 10
-113.304279907538
 20
17.03038075283959
 30
0.0
 10
-113.2730611144127
 20
14.83425757214843
 30
0.0
 10
-113.2478951222006
 20
12.59364626216038
 30
0.0
 10
-113.2100492477936
 20
8.058385314060501
 30
0.0
 10
-113.1973696349401
 20
5.763756394148742
 30
0.0
 10
-113.1846899373282
 20
1.156368947896396
 30
0.0
 10
-113.1846899373282
 20
-1.156368947941643
 30
0.0
 10
-113.1973696349401
 20
-5.763756394194132
 30
0.0
 10
-113.2100492477936
 20
-8.058385314106089
 30
0.0
 10
-113.2478951222006
 20
-12.5936462622065
 30
0.0
 10
-113.2730611144127
 20
-14.83425757219493
 30
0.0
 10
-113.304279907538
 20
-17.03038075288651
 30
0.0
  0
SPLINE
  5
FF
330
2
100
AcDbEntity
  8
GEB-KONTUR-A
 48
25.0
100
AcDbSpline
210
0.0
220
0.0
230
1.0
 70
     8
 71
     3
 72
    16
 73
    12
 74
     0
 42
0.0000000001
 43
0.0000000001
 40
5.968142662611755
 40
5.968142662611755
 40
5.968142662611755
 40
5.968142662611755
 40
6.09415972043889
 40
6.09415972043889
 40
6.220176778266025
 40
6.220176778266025
 40
6.34619383609316
 40
6.34619383609316
 40
6.472210893920295
 40
6.472210893920295
 40
6.598227951747432
 40
6.598227951747432
 40
6.598227951747432
 40
6.598227951747432
 10
-105.0621320794874
 20
17.03038075283871
 30
0.0
 10
-105.0309132863622
 20
14.83425757214763
 30
0.0
 10
-105.0057472941501
 20
12.59364626215969
 30
0.0
 10
-104.9679014197432
 20
8.058385314060046
 30
0.0
 10
-104.9552218068896
 20
5.763756394148344
 30
0.0
 10
-104.9425421092777
 20
1.156368947896226
 30
0.0
 10
-104.9425421092777
 20
-1.156368947941672
 30
0.0
 10
-104.9552218068896
 20
-5.763756394193961
 30
0.0
 10
-104.9679014197432
 20
-8.058385314105805
 30
0.0
 10
-105.0057472941501
 20
-12.59364626220593
 30
0.0
 10
-105.0309132863622
 20
-14.8342575721943
 30
0.0
 10
-105.0621320794874
 20
-17.03038075288583
 30
0.0
  0
SPLINE
  5
100
330
2
100
AcDbEntity
  8
GEB-KONTUR-A
 48
25.0
100
AcDbSpline
210
0.0
220
0.0
230
1.0
 70
     8
 71
     3
 72
    16
 73
    12
 74
     0
 42
0.0000000001
 43
0.0000000001
 40
5.968142662611747
 40
5.968142662611747
 40
5.968142662611747
 40
5.968142662611747
 40
6.094159720438881
 40
6.094159720438881
 40
6.220176778266015
 40
6.220176778266015
 40
6.346193836093149
 40
6.346193836093149
 40
6.472210893920284
 40
6.472210893920284
 40
6.598227951747419
 40
6.598227951747419
 40
6.598227951747419
 40
6.598227951747419
 10
-96.8199842514371
 20
17.03038075283902
 30
0.0
 10
-96.7887654583119
 20
14.83425757214797
 30
0.0
 10
-96.76359946609972
 20
12.59364626216006
 30
0.0
 10
-96.72575359169284
 20
8.058385314060416
 30
0.0
 10
-96.71307397883925
 20
5.763756394148771
 30
0.0
 10
-96.70039428122738
 20
1.156368947896709
 30
0.0
 10
-96.70039428122738
 20
-1.156368947941217
 30
0.0
 10
-96.71307397883925
 20
-5.763756394193478
 30
0.0
 10
-96.72575359169284
 20
-8.058385314105265
 30
0.0
 10
-96.76359946609972
 20
-12.59364626220542
 30
0.0
 10
-96.78876545831185
 20
-14.83425757219373
 30
0.0
 10
-96.8199842514371
 20
-17.03038075288521
 30
0.0
  0
SPLINE
  5
101
330
2
100
AcDbEntity
  8
GEB-KONTUR-A
 48
25.0
100
AcDbSpline
210
0.0
220
0.0
230
1.0
 70
     8
 71
     3
 72
    16
 73
    12
 74
     0
 42
0.0000000001
 43
0.0000000001
 40
5.968142662611747
 40
5.968142662611747
 40
5.968142662611747
 40
5.968142662611747
 40
6.094159720438883
 40
6.094159720438883
 40
6.22017677826602
 40
6.22017677826602
 40
6.346193836093156
 40
6.346193836093156
 40
6.472210893920292
 40
6.472210893920292
 40
6.598227951747429
 40
6.598227951747429
 40
6.598227951747429
 40
6.598227951747429
 10
-88.57783642338665
 20
17.03038075283885
 30
0.0
 10
-88.54661763026141
 20
14.83425757214777
 30
0.0
 10
-88.52145163804928
 20
12.59364626215981
 30
0.0
 10
-88.48360576364237
 20
8.058385314060132
 30
0.0
 10
-88.47092615078878
 20
5.763756394148458
 30
0.0
 10
-88.45824645317691
 20
1.156368947896311
 30
0.0
 10
-88.45824645317691
 20
-1.156368947941615
 30
0.0
 10
-88.47092615078878
 20
-5.763756394193933
 30
0.0
 10
-88.48360576364237
 20
-8.058385314105748
 30
0.0
 10
-88.52145163804928
 20
-12.59364626220599
 30
0.0
 10
-88.54661763026143
 20
-14.83425757219433
 30
0.0
 10
-88.57783642338665
 20
-17.03038075288589
 30
0.0
  0
ELLIPSE
  5
102
330
2
100
AcDbEntity
  8
GEB-KONTUR-A
 48
25.0
100
AcDbEllipse
 10
-145.9862938499742
 20
-0.0000000000398188
 30
0.0
 11
-0.0000000000000003
 21
56.64999999999987
 31
0.0
210
0.0
220
0.0
230
1.0
 40
0.0436193873653364
 41
0.0
 42
6.28318530717958
  0
ELLIPSE
  5
103
330
2
100
AcDbEntity
  8
GEB-KONTUR-A
 48
25.0
100
AcDbEllipse
 10
-145.9862938499742
 20
-0.0000000000398188
 30
0.0
 11
-0.0000000000000003
 21
60.14999999999988
 31
0.0
210
0.0
220
0.0
230
1.0
 40
0.0436193873653364
 41
0.0
 42
6.28318530717958
  0
ELLIPSE
  5
104
330
2
100
AcDbEntity
  8
GEB-KONTUR-A
 48
25.0
100
AcDbEllipse
 10
-142.7893395409122
 20
-0.0000000000398472
 30
0.0
 11
-0.0000000000000042
 21
-60.14999999999989
 31
0.0
210
0.0
220
0.0
230
1.0
 40
0.0436193873653364
 41
0.0
 42
3.141592653279063
  0
ELLIPSE
  5
105
330
2
100
AcDbEntity
  8
GEB-KONTUR-A
 48
25.0
100
AcDbEllipse
 10
-142.7893395409122
 20
-0.0000000000399041
 30
0.0
 11
-0.0000000000008323
 21
-64.04999999999986
 31
0.0
210
0.0
220
0.0
230
1.0
 40
0.0436193873653364
 41
5.932420158990071
 42
9.775543108959583
  0
ELLIPSE
  5
106
330
2
100
AcDbEntity
  8
GEB-KONTUR-A
 48
25.0
100
AcDbEllipse
 10
-71.85691580859947
 20
-0.0000000000406999
 30
0.0
 11
0.0000000000007584
 21
58.39999999999982
 31
0.0
210
0.0
220
0.0
230
1.0
 40
0.0436193873653364
 41
5.101742738215261
 42
6.06747523738003
  0
ELLIPSE
  5
107
330
2
100
AcDbEntity
  8
GEB-KONTUR-A
 48
25.0
100
AcDbEllipse
 10
-71.85691580859947
 20
-0.0000000000407852
 30
0.0
 11
-0.000000000000759
 21
-58.39999999999983
 31
0.0
210
0.0
220
0.0
230
1.0
 40
0.0436193873653364
 41
0.215710069800208
 42
1.181442568964941
  0
LINE
  5
108
330
2
100
AcDbEntity
  8
GEB-KONTUR-A
 48
25.0
100
AcDbLine
 10
-76.51980487356474
 20
-57.04655993137714
 30
0.0
 11
-71.31167346653277
 21
-57.04655993137726
 31
0.0
  0
LINE
  5
109
330
2
100
AcDbEntity
  8
GEB-KONTUR-A
 48
25.0
100
AcDbLine
 10
-124.5458021465302
 20
-60.1500000000363
 30
0.0
 11
-53.48865319351222
 21
-60.15000000003715
 31
0.0
  0
LINE
  5
10A
330
2
100
AcDbEntity
  8
GEB-KONTUR-A
 48
25.0
100
AcDbLine
 10
-53.48865319351222
 20
-60.15000000003715
 30
0.0
 11
-53.48865319351222
 21
-55.25371028269603
 31
0.0
  0
LINE
  5
10B
330
2
100
AcDbEntity
  8
GEB-KONTUR-A
 48
25.0
100
AcDbLine
 10
-53.48865319351222
 20
-55.25371028269603
 30
0.0
 11
-71.03207388552636
 21
-55.25371028269581
 31
0.0
  0
ELLIPSE
  5
10C
330
2
100
AcDbEntity
  8
GEB-KONTUR-A
 48
25.0
100
AcDbEllipse
 10
-77.35168102729978
 20
-0.0000000000406999
 30
0.0
 11
-0.0000000000007809
 21
-60.14999999999986
 31
0.0
210
0.0
220
0.0
230
1.0
 40
0.0436193873653364
 41
0.2093394323572872
 42
2.93225322123314
  0
LINE
  5
10D
330
2
100
AcDbEntity
  8
GEB-KONTUR-A
 48
25.0
100
AcDbLine
 10
-124.4017694019964
 20
-58.83682945234443
 30
0.0
 11
-76.80643868523302
 21
-58.83682945234506
 31
0.0
  0
SPLINE
  5
10E
330
2
100
AcDbEntity
  8
GEB-KONTUR-A
 48
25.0
100
AcDbSpline
210
0.0
220
0.0
230
1.0
 70
     8
 71
     3
 72
    28
 73
    24
 74
     0
 42
0.0000000001
 43
0.0000000001
 40
0.0003135965776838
 40
0.0003135965776838
 40
0.0003135965776838
 40
0.0003135965776838
 40
0.27182810476805
 40
0.27182810476805
 40
0.387737298180165
 40
0.387737298180165
 40
0.4023246078165032
 40
0.4023246078165032
 40
0.4094618536715683
 40
0.4094618536715683
 40
0.4141700486340024
 40
0.4141700486340024
 40
0.4184552481471301
 40
0.4184552481471301
 40
0.423853838693815
 40
0.423853838693815
 40
0.4337033556057762
 40
0.4337033556057762
 40
0.4587932382218421
 40
0.4587932382218421
 40
0.5538885018049973
 40
0.5538885018049973
 40
0.8728530395660232
 40
0.8728530395660232
 40
0.8728530395660232
 40
0.8728530395660232
 10
-91.3338461579306
 20
51.15055768860361
 30
0.0
 10
-91.32328173118414
 20
51.62600203777035
 30
0.0
 10
-91.28936368035203
 20
52.00017345998642
 30
0.0
 10
-91.20987360365992
 20
52.36776230091809
 30
0.0
 10
-91.16472239229191
 20
52.53648523812126
 30
0.0
 10
-91.08216127207446
 20
52.61712202234645
 30
0.0
 10
-91.0711539839645
 20
52.62592339273465
 30
0.0
 10
-91.05222548356284
 20
52.63548538357245
 30
0.0
 10
-91.04496125699728
 20
52.63837763595555
 30
0.0
 10
-91.03136626264443
 20
52.64144321659816
 30
0.0
 10
-91.02564247896907
 20
52.64218896201237
 30
0.0
 10
-91.01411297522322
 20
52.64239006360921
 30
0.0
 10
-91.00872868808199
 20
52.64194894548274
 30
0.0
 10
-90.99684363089744
 20
52.6399382701598
 30
0.0
 10
-90.99067901041768
 20
52.63814926846785
 30
0.0
 10
-90.97487383969871
 20
52.63225620148017
 30
0.0
 10
-90.96574434062308
 20
52.62715137474436
 30
0.0
 10
-90.93869725655489
 20
52.60936725000338
 30
0.0
 10
-90.92139528163153
 20
52.59217590633335
 30
0.0
 10
-90.85267153772312
 20
52.51217595034714
 30
0.0
 10
-90.80646751399513
 20
52.41556800092161
 30
0.0
 10
-90.66747965419969
 20
52.08135499700356
 30
0.0
 10
-90.56615760243687
 20
51.67806708108116
 30
0.0
 10
-90.48006014067368
 20
51.15055768860358
 30
0.0
  0
SPLINE
  5
10F
330
2
100
AcDbEntity
  8
GEB-KONTUR-A
 48
25.0
100
AcDbSpline
210
0.0
220
0.0
230
1.0
 70
     8
 71
     3
 72
    18
 73
    14
 74
     0
 42
0.0000000001
 43
0.0000000001
 40
6.130712173490141
 40
6.130712173490141
 40
6.130712173490141
 40
6.130712173490141
 40
6.358283137277722
 40
6.358283137277722
 40
6.861022006813825
 40
6.861022006813825
 40
7.812083211287131
 40
7.812083211287131
 40
9.010772298240615
 40
9.010772298240615
 40
10.87123066565299
 40
10.87123066565299
 40
12.25035599329147
 40
12.25035599329147
 40
12.25035599329147
 40
12.25035599329147
 10
-90.862603655822
 20
-0.0000000000226237
 30
0.0
 10
-90.862603655822
 20
0.7589881251848567
 30
0.0
 10
-90.86323085036619
 20
1.517963102792094
 30
0.0
 10
-90.86724512738284
 20
3.952277875342986
 30
0.0
 10
-90.87306079907824
 20
5.624651577958132
 30
0.0
 10
-90.89821253008551
 20
10.43828255685196
 30
0.0
 10
-90.92505194663329
 20
13.55196233555591
 30
0.0
 10
-91.00285984759105
 20
20.44422148832806
 30
0.0
 10
-91.05817617472808
 20
24.16768890713928
 30
0.0
 10
-91.20493437225063
 20
33.22377669225119
 30
0.0
 10
-91.29960893929519
 20
38.25509050175026
 30
0.0
 10
-91.37995572342356
 20
45.87546450368111
 30
0.0
 10
-91.38754799134369
 20
48.73374569786671
 30
0.0
 10
-91.3338461579306
 20
51.15055768860361
 30
0.0
  0
SPLINE
  5
110
330
2
100
AcDbEntity
  8
GEB-KONTUR-A
 48
25.0
100
AcDbSpline
210
0.0
220
0.0
230
1.0
 70
     8
 71
     3
 72
    16
 73
    12
 74
     0
 42
0.0000000001
 43
0.0000000001
 40
0.0026009342830066
 40
0.0026009342830066
 40
0.0026009342830066
 40
0.0026009342830066
 40
2.288447646738537
 40
2.288447646738537
 40
4.621313960225662
 40
4.621313960225662
 40
5.462775317898775
 40
5.462775317898775
 40
5.947182010080139
 40
5.947182010080139
 40
6.130712173490141
 40
6.130712173490141
 40
6.130712173490141
 40
6.130712173490141
 10
-91.3338461579306
 20
-51.15055768866582
 30
0.0
 10
-91.42282090101986
 20
-47.14631402873405
 30
0.0
 10
-91.34937936339753
 20
-41.94489604410702
 30
0.0
 10
-91.14884759880027
 20
-29.57067199808921
 30
0.0
 10
-91.01916140524991
 20
-22.47978695314913
 30
0.0
 10
-90.91357467578683
 20
-12.2232750608633
 30
0.0
 10
-90.89201635982254
 20
-9.458964691445743
 30
0.0
 10
-90.87096275258074
 20
-5.063601139787522
 30
0.0
 10
-90.86597454606817
 20
-3.451184829996066
 30
0.0
 10
-90.86301145351209
 20
-1.224217583241397
 30
0.0
 10
-90.862603655822
 20
-0.612104516025795
 30
0.0
 10
-90.862603655822
 20
-0.0000000000226237
 30
0.0
  0
SPLINE
  5
111
330
2
100
AcDbEntity
  8
GEB-KONTUR-A
 48
25.0
100
AcDbSpline
210
0.0
220
0.0
230
1.0
 70
     8
 71
     3
 72
    28
 73
    24
 74
     0
 42
0.0000000001
 43
0.0000000001
 40
0.0003135965776946
 40
0.0003135965776946
 40
0.0003135965776946
 40
0.0003135965776946
 40
0.2718281047685646
 40
0.2718281047685646
 40
0.3877372981792213
 40
0.3877372981792213
 40
0.4023246078318028
 40
0.4023246078318028
 40
0.4094618537003959
 40
0.4094618537003959
 40
0.4141700486716501
 40
0.4141700486716501
 40
0.418455248192727
 40
0.418455248192727
 40
0.4238538387497428
 40
0.4238538387497428
 40
0.4337033556822327
 40
0.4337033556822327
 40
0.4587932383512804
 40
0.4587932383512804
 40
0.5538885021516902
 40
0.5538885021516902
 40
0.8728530406378743
 40
0.8728530406378743
 40
0.8728530406378743
 40
0.8728530406378743
 10
-90.48006014067368
 20
-51.15055768866582
 30
0.0
 10
-90.55765980478723
 20
-51.62600203783384
 30
0.0
 10
-90.64770288977376
 20
-52.00017346004987
 30
0.0
 10
-90.78345627959476
 20
-52.36776230097959
 30
0.0
 10
-90.85487148632617
 20
-52.53648523818441
 30
0.0
 10
-90.9501231845442
 20
-52.61712202242029
 30
0.0
 10
-90.96251738659438
 20
-52.62592339280288
 30
0.0
 10
-90.98295370458542
 20
-52.63548538363642
 30
0.0
 10
-90.99067421754503
 20
-52.63837763601927
 30
0.0
 10
-91.00475292832419
 20
-52.64144321666179
 30
0.0
 10
-91.01059440742455
 20
-52.64218896207606
 30
0.0
 10
-91.02215564821989
 20
-52.6423900636729
 30
0.0
 10
-91.02747031555784
 20
-52.64194894554646
 30
0.0
 10
-91.03903808781174
 20
-52.63993827022344
 30
0.0
 10
-91.04492042985677
 20
-52.63814926853109
 30
0.0
 10
-91.05979605040619
 20
-52.63225620154384
 30
0.0
 10
-91.06812068066437
 20
-52.62715137480839
 30
0.0
 10
-91.09236572809379
 20
-52.60936725006573
 30
0.0
 10
-91.10696301503702
 20
-52.592175906394
 30
0.0
 10
-91.16312953107934
 20
-52.51217595041089
 30
0.0
 10
-91.1942937523039
 20
-52.41556800098575
 30
0.0
 10
-91.28180102272375
 20
-52.08135499706642
 30
0.0
 10
-91.32212484008414
 20
-51.67806708114369
 30
0.0
 10
-91.3338461579306
 20
-51.15055768866582
 30
0.0
  0
SPLINE
  5
112
330
2
100
AcDbEntity
  8
GEB-KONTUR-A
 48
25.0
100
AcDbSpline
210
0.0
220
0.0
230
1.0
 70
     8
 71
     3
 72
    12
 73
     8
 74
     0
 42
0.0000000001
 43
0.0000000001
 40
7.856763709227258
 40
7.856763709227258
 40
7.856763709227258
 40
7.856763709227258
 40
9.010772298240867
 40
9.010772298240867
 40
10.87123066565347
 40
10.87123066565347
 40
12.25035599329209
 40
12.25035599329209
 40
12.25035599329209
 40
12.25035599329209
 10
-88.57783517092071
 20
-17.03038074956902
 30
0.0
 10
-88.63028606649065
 20
-20.72155894713541
 30
0.0
 10
-88.70271040527276
 20
-24.29995795196646
 30
0.0
 10
-88.96228445927141
 20
-33.22377669230212
 30
0.0
 10
-89.18989859924556
 20
-38.25509050180344
 30
0.0
 10
-89.77744693767048
 20
-45.87546450373884
 30
0.0
 10
-90.08560009706398
 20
-48.73374569792659
 30
0.0
 10
-90.48006014067368
 20
-51.15055768866582
 30
0.0
  0
SPLINE
  5
113
330
2
100
AcDbEntity
  8
GEB-KONTUR-A
 48
25.0
100
AcDbSpline
210
0.0
220
0.0
230
1.0
 70
     8
 71
     3
 72
    10
 73
     6
 74
     0
 42
0.0000000001
 43
0.0000000001
 40
0.0026009342830057
 40
0.0026009342830057
 40
0.0026009342830057
 40
0.0026009342830057
 40
2.288447646738526
 40
2.288447646738526
 40
4.40465256019813
 40
4.40465256019813
 40
4.40465256019813
 40
4.40465256019813
 10
-90.48006014067368
 20
51.15055768860358
 30
0.0
 10
-89.82650738821588
 20
47.1463140286757
 30
0.0
 10
-89.40613592068713
 20
41.94489604405205
 30
0.0
 10
-88.83454470715955
 20
30.1511403430105
 30
0.0
 10
-88.67328408906132
 20
23.78964502445189
 30
0.0
 10
-88.57774304690565
 20
17.03038031298589
 30
0.0
  0
SPLINE
  5
114
330
2
100
AcDbEntity
  8
GEB-KONTUR-A
 48
25.0
100
AcDbSpline
210
0.0
220
0.0
230
1.0
 70
     8
 71
     3
 72
    28
 73
    24
 74
     0
 42
0.0000000001
 43
0.0000000001
 40
0.0003135965776838
 40
0.0003135965776838
 40
0.0003135965776838
 40
0.0003135965776838
 40
0.2718281047683098
 40
0.2718281047683098
 40
0.3877372981820208
 40
0.3877372981820208
 40
0.4023246078199079
 40
0.4023246078199079
 40
0.4094618536761372
 40
0.4094618536761372
 40
0.4141700486393469
 40
0.4141700486393469
 40
0.4184552481531843
 40
0.4184552481531843
 40
0.4238538387007652
 40
0.4238538387007652
 40
0.4337033556144
 40
0.4337033556144
 40
0.4587932382340488
 40
0.4587932382340488
 40
0.5538885018260409
 40
0.5538885018260409
 40
0.8728530396201261
 40
0.8728530396201261
 40
0.8728530396201261
 40
0.8728530396201261
 10
-99.57599398598109
 20
51.15055768860369
 30
0.0
 10
-99.56542955923453
 20
51.62600203777088
 30
0.0
 10
-99.53151150840236
 20
52.00017345998674
 30
0.0
 10
-99.45202143171002
 20
52.3677623009194
 30
0.0
 10
-99.40687022034206
 20
52.53648523812159
 30
0.0
 10
-99.32430910012408
 20
52.61712202234736
 30
0.0
 10
-99.31330181201417
 20
52.6259233927351
 30
0.0
 10
-99.29437331161324
 20
52.63548538357255
 30
0.0
 10
-99.28710908504768
 20
52.63837763595566
 30
0.0
 10
-99.2735140906949
 20
52.64144321659824
 30
0.0
 10
-99.26779030701954
 20
52.64218896201246
 30
0.0
 10
-99.25626080327361
 20
52.6423900636093
 30
0.0
 10
-99.25087651613239
 20
52.64194894548285
 30
0.0
 10
-99.23899145894786
 20
52.63993827015989
 30
0.0
 10
-99.2328268384681
 20
52.63814926846794
 30
0.0
 10
-99.21702166774915
 20
52.63225620148029
 30
0.0
 10
-99.20789216867346
 20
52.62715137474444
 30
0.0
 10
-99.18084508460594
 20
52.60936725000386
 30
0.0
 10
-99.16354310968273
 20
52.59217590633432
 30
0.0
 10
-99.09481936577334
 20
52.512175950347
 30
0.0
 10
-99.04861534204535
 20
52.41556800092104
 30
0.0
 10
-98.90962748225016
 20
52.08135499700375
 30
0.0
 10
-98.80830543048734
 20
51.67806708108122
 30
0.0
 10
-98.72220796872415
 20
51.15055768860369
 30
0.0
  0
SPLINE
  5
115
330
2
100
AcDbEntity
  8
GEB-KONTUR-A
 48
25.0
100
AcDbSpline
210
0.0
220
0.0
230
1.0
 70
     8
 71
     3
 72
    18
 73
    14
 74
     0
 42
0.0000000001
 43
0.0000000001
 40
6.130712173490141
 40
6.130712173490141
 40
6.130712173490141
 40
6.130712173490141
 40
6.358283137277722
 40
6.358283137277722
 40
6.861022006813825
 40
6.861022006813825
 40
7.812083211287131
 40
7.812083211287131
 40
9.010772298240615
 40
9.010772298240615
 40
10.87123066565299
 40
10.87123066565299
 40
12.25035599329147
 40
12.25035599329147
 40
12.25035599329147
 40
12.25035599329147
 10
-99.10475148387241
 20
-0.00000000002251
 30
0.0
 10
-99.10475148387241
 20
0.758988125184942
 30
0.0
 10
-99.10537867841663
 20
1.517963102792208
 30
0.0
 10
-99.10939295543327
 20
3.952277875343099
 30
0.0
 10
-99.11520862712869
 20
5.624651577958246
 30
0.0
 10
-99.14036035813598
 20
10.43828255685207
 30
0.0
 10
-99.16719977468369
 20
13.55196233555602
 30
0.0
 10
-99.24500767564149
 20
20.44422148832814
 30
0.0
 10
-99.30032400277855
 20
24.16768890713939
 30
0.0
 10
-99.44708220030106
 20
33.22377669225125
 30
0.0
 10
-99.54175676734559
 20
38.25509050175038
 30
0.0
 10
-99.622103551474
 20
45.8754645036812
 30
0.0
 10
-99.62969581939413
 20
48.7337456978668
 30
0.0
 10
-99.57599398598109
 20
51.15055768860369
 30
0.0
  0
SPLINE
  5
116
330
2
100
AcDbEntity
  8
GEB-KONTUR-A
 48
25.0
100
AcDbSpline
210
0.0
220
0.0
230
1.0
 70
     8
 71
     3
 72
    16
 73
    12
 74
     0
 42
0.0000000001
 43
0.0000000001
 40
0.0026009342830066
 40
0.0026009342830066
 40
0.0026009342830066
 40
0.0026009342830066
 40
2.288447646738537
 40
2.288447646738537
 40
4.621313960225662
 40
4.621313960225662
 40
5.462775317898775
 40
5.462775317898775
 40
5.947182010080139
 40
5.947182010080139
 40
6.130712173490141
 40
6.130712173490141
 40
6.130712173490141
 40
6.130712173490141
 10
-99.57599398598103
 20
-51.15055768866568
 30
0.0
 10
-99.66496872907033
 20
-47.14631402873393
 30
0.0
 10
-99.591527191448
 20
-41.94489604410691
 30
0.0
 10
-99.39099542685077
 20
-29.5706719980891
 30
0.0
 10
-99.26130923330038
 20
-22.47978695314902
 30
0.0
 10
-99.15572250383725
 20
-12.22327506086319
 30
0.0
 10
-99.13416418787299
 20
-9.458964691445657
 30
0.0
 10
-99.11311058063114
 20
-5.063601139787408
 30
0.0
 10
-99.10812237411864
 20
-3.451184829995952
 30
0.0
 10
-99.10515928156252
 20
-1.224217583241284
 30
0.0
 10
-99.10475148387241
 20
-0.6121045160256813
 30
0.0
 10
-99.10475148387241
 20
-0.00000000002251
 30
0.0
  0
SPLINE
  5
117
330
2
100
AcDbEntity
  8
GEB-KONTUR-A
 48
25.0
100
AcDbSpline
210
0.0
220
0.0
230
1.0
 70
     8
 71
     3
 72
    28
 73
    24
 74
     0
 42
0.0000000001
 43
0.0000000001
 40
0.0003135965776941
 40
0.0003135965776941
 40
0.0003135965776941
 40
0.0003135965776941
 40
0.2718281047685033
 40
0.2718281047685033
 40
0.3877372981797977
 40
0.3877372981797977
 40
0.4023246078276994
 40
0.4023246078276994
 40
0.4094618536919893
 40
0.4094618536919893
 40
0.4141700486610051
 40
0.4141700486610051
 40
0.4184552481801078
 40
0.4184552481801078
 40
0.4238538387340866
 40
0.4238538387340866
 40
0.4337033556610864
 40
0.4337033556610864
 40
0.4587932383144921
 40
0.4587932383144921
 40
0.5538885020434936
 40
0.5538885020434936
 40
0.8728530403033174
 40
0.8728530403033174
 40
0.8728530403033174
 40
0.8728530403033174
 10
-98.72220796872415
 20
-51.15055768866572
 30
0.0
 10
-98.79980763283763
 20
-51.62600203783367
 30
0.0
 10
-98.88985071782418
 20
-52.00017346004969
 30
0.0
 10
-99.02560410764543
 20
-52.36776230098013
 30
0.0
 10
-99.09701931437675
 20
-52.53648523818444
 30
0.0
 10
-99.1922710125911
 20
-52.61712202241724
 30
0.0
 10
-99.20466521464204
 20
-52.62592339280146
 30
0.0
 10
-99.22510153263528
 20
-52.63548538363605
 30
0.0
 10
-99.23282204559525
 20
-52.63837763601916
 30
0.0
 10
-99.24690075637546
 20
-52.64144321666186
 30
0.0
 10
-99.25274223547535
 20
-52.64218896207592
 30
0.0
 10
-99.26430347627007
 20
-52.64239006367276
 30
0.0
 10
-99.26961814360772
 20
-52.64194894554646
 30
0.0
 10
-99.28118591586212
 20
-52.63993827022332
 30
0.0
 10
-99.28706825790721
 20
-52.63814926853098
 30
0.0
 10
-99.30194387845659
 20
-52.63225620154372
 30
0.0
 10
-99.31026850871489
 20
-52.62715137480822
 30
0.0
 10
-99.33451355614279
 20
-52.60936725006667
 30
0.0
 10
-99.34911084308573
 20
-52.59217590639628
 30
0.0
 10
-99.40527735913045
 20
-52.51217595040976
 30
0.0
 10
-99.4364415803551
 20
-52.41556800098272
 30
0.0
 10
-99.52394885077417
 20
-52.08135499706642
 30
0.0
 10
-99.56427266813456
 20
-51.67806708114355
 30
0.0
 10
-99.57599398598103
 20
-51.15055768866568
 30
0.0
  0
SPLINE
  5
118
330
2
100
AcDbEntity
  8
GEB-KONTUR-A
 48
25.0
100
AcDbSpline
210
0.0
220
0.0
230
1.0
 70
     8
 71
     3
 72
    12
 73
     8
 74
     0
 42
0.0000000001
 43
0.0000000001
 40
7.856763709227105
 40
7.856763709227105
 40
7.856763709227105
 40
7.856763709227105
 40
9.010772298240585
 40
9.010772298240585
 40
10.87123066565289
 40
10.87123066565289
 40
12.25035599329128
 40
12.25035599329128
 40
12.25035599329128
 40
12.25035599329128
 10
-96.81998299897115
 20
-17.03038074956836
 30
0.0
 10
-96.87243389454108
 20
-20.72155894713489
 30
0.0
 10
-96.94485823332314
 20
-24.29995795196618
 30
0.0
 10
-97.20443228732182
 20
-33.22377669230218
 30
0.0
 10
-97.43204642729601
 20
-38.25509050180347
 30
0.0
 10
-98.01959476572088
 20
-45.8754645037388
 30
0.0
 10
-98.32774792511441
 20
-48.73374569792651
 30
0.0
 10
-98.72220796872415
 20
-51.15055768866572
 30
0.0
  0
SPLINE
  5
119
330
2
100
AcDbEntity
  8
GEB-KONTUR-A
 48
25.0
100
AcDbSpline
210
0.0
220
0.0
230
1.0
 70
     8
 71
     3
 72
    10
 73
     6
 74
     0
 42
0.0000000001
 43
0.0000000001
 40
0.0026009342830058
 40
0.0026009342830058
 40
0.0026009342830058
 40
0.0026009342830058
 40
2.288447646738528
 40
2.288447646738528
 40
4.404652560198124
 40
4.404652560198124
 40
4.404652560198124
 40
4.404652560198124
 10
-98.72220796872415
 20
51.15055768860369
 30
0.0
 10
-98.06865521626631
 20
47.14631402867581
 30
0.0
 10
-97.64828374873752
 20
41.94489604405214
 30
0.0
 10
-97.07669253520998
 20
30.15114034301064
 30
0.0
 10
-96.91543191711179
 20
23.78964502445206
 30
0.0
 10
-96.81989087495612
 20
17.03038031298607
 30
0.0
  0
SPLINE
  5
11A
330
2
100
AcDbEntity
  8
GEB-KONTUR-A
 48
25.0
100
AcDbSpline
210
0.0
220
0.0
230
1.0
 70
     8
 71
     3
 72
    28
 73
    24
 74
     0
 42
0.0000000001
 43
0.0000000001
 40
0.0003135965776837
 40
0.0003135965776837
 40
0.0003135965776837
 40
0.0003135965776837
 40
0.2718281047680524
 40
0.2718281047680524
 40
0.3877372981799651
 40
0.3877372981799651
 40
0.4023246078170608
 40
0.4023246078170608
 40
0.4094618536727485
 40
0.4094618536727485
 40
0.414170048635601
 40
0.414170048635601
 40
0.4184552481491135
 40
0.4184552481491135
 40
0.4238538386962853
 40
0.4238538386962853
 40
0.4337033556091737
 40
0.4337033556091737
 40
0.4587932382269192
 40
0.4587932382269192
 40
0.5538885018116801
 40
0.5538885018116801
 40
0.8728530395814338
 40
0.8728530395814338
 40
0.8728530395814338
 40
0.8728530395814338
 10
-107.8181418140315
 20
51.15055768860381
 30
0.0
 10
-107.807577387285
 20
51.62600203777055
 30
0.0
 10
-107.7736593364528
 20
52.00017345998663
 30
0.0
 10
-107.6941692597608
 20
52.36776230091809
 30
0.0
 10
-107.6490180483927
 20
52.53648523812143
 30
0.0
 10
-107.5664569281748
 20
52.61712202234716
 30
0.0
 10
-107.5554496400649
 20
52.62592339273507
 30
0.0
 10
-107.5365211396636
 20
52.63548538357267
 30
0.0
 10
-107.5292569130981
 20
52.63837763595574
 30
0.0
 10
-107.5156619187453
 20
52.64144321659836
 30
0.0
 10
-107.5099381350699
 20
52.64218896201254
 30
0.0
 10
-107.4984086313241
 20
52.64239006360941
 30
0.0
 10
-107.4930243441828
 20
52.64194894548296
 30
0.0
 10
-107.4811392869982
 20
52.63993827016
 30
0.0
 10
-107.4749746665185
 20
52.63814926846805
 30
0.0
 10
-107.4591694957996
 20
52.63225620148038
 30
0.0
 10
-107.4500399967238
 20
52.62715137474455
 30
0.0
 10
-107.4229929126563
 20
52.60936725000397
 30
0.0
 10
-107.4056909377332
 20
52.59217590633443
 30
0.0
 10
-107.3369671938237
 20
52.51217595034711
 30
0.0
 10
-107.2907631700958
 20
52.41556800092116
 30
0.0
 10
-107.1517753103006
 20
52.08135499700389
 30
0.0
 10
-107.0504532585377
 20
51.67806708108145
 30
0.0
 10
-106.9643557967745
 20
51.15055768860378
 30
0.0
  0
SPLINE
  5
11B
330
2
100
AcDbEntity
  8
GEB-KONTUR-A
 48
25.0
100
AcDbSpline
210
0.0
220
0.0
230
1.0
 70
     8
 71
     3
 72
    18
 73
    14
 74
     0
 42
0.0000000001
 43
0.0000000001
 40
6.130712173490141
 40
6.130712173490141
 40
6.130712173490141
 40
6.130712173490141
 40
6.358283137277722
 40
6.358283137277722
 40
6.861022006813825
 40
6.861022006813825
 40
7.812083211287131
 40
7.812083211287131
 40
9.010772298240615
 40
9.010772298240615
 40
10.87123066565299
 40
10.87123066565299
 40
12.25035599329147
 40
12.25035599329147
 40
12.25035599329147
 40
12.25035599329147
 10
-107.3468993119228
 20
-0.0000000000224247
 30
0.0
 10
-107.3468993119228
 20
0.7589881251850273
 30
0.0
 10
-107.347526506467
 20
1.517963102792265
 30
0.0
 10
-107.3515407834837
 20
3.952277875343213
 30
0.0
 10
-107.3573564551791
 20
5.624651577958331
 30
0.0
 10
-107.3825081861864
 20
10.43828255685216
 30
0.0
 10
-107.4093476027341
 20
13.55196233555614
 30
0.0
 10
-107.4871555036919
 20
20.44422148832826
 30
0.0
 10
-107.5424718308289
 20
24.16768890713951
 30
0.0
 10
-107.6892300283515
 20
33.22377669225136
 30
0.0
 10
-107.783904595396
 20
38.25509050175046
 30
0.0
 10
-107.8642513795244
 20
45.87546450368131
 30
0.0
 10
-107.8718436474445
 20
48.7337456978669
 30
0.0
 10
-107.8181418140315
 20
51.15055768860381
 30
0.0
  0
SPLINE
  5
11C
330
2
100
AcDbEntity
  8
GEB-KONTUR-A
 48
25.0
100
AcDbSpline
210
0.0
220
0.0
230
1.0
 70
     8
 71
     3
 72
    16
 73
    12
 74
     0
 42
0.0000000001
 43
0.0000000001
 40
0.0026009342830067
 40
0.0026009342830067
 40
0.0026009342830067
 40
0.0026009342830067
 40
2.288447646738537
 40
2.288447646738537
 40
4.621313960225662
 40
4.621313960225662
 40
5.462775317898775
 40
5.462775317898775
 40
5.947182010080139
 40
5.947182010080139
 40
6.130712173490141
 40
6.130712173490141
 40
6.130712173490141
 40
6.130712173490141
 10
-107.8181418140314
 20
-51.15055768866563
 30
0.0
 10
-107.9071165571208
 20
-47.14631402873382
 30
0.0
 10
-107.8336750194984
 20
-41.94489604410679
 30
0.0
 10
-107.6331432549011
 20
-29.57067199808904
 30
0.0
 10
-107.5034570613508
 20
-22.4797869531489
 30
0.0
 10
-107.3978703318877
 20
-12.2232750608631
 30
0.0
 10
-107.3763120159234
 20
-9.458964691445572
 30
0.0
 10
-107.3552584086816
 20
-5.063601139787294
 30
0.0
 10
-107.350270202169
 20
-3.451184829995838
 30
0.0
 10
-107.3473071096129
 20
-1.224217583241227
 30
0.0
 10
-107.3468993119228
 20
-0.6121045160255961
 30
0.0
 10
-107.3468993119228
 20
-0.0000000000224247
 30
0.0
  0
SPLINE
  5
11D
330
2
100
AcDbEntity
  8
GEB-KONTUR-A
 48
25.0
100
AcDbSpline
210
0.0
220
0.0
230
1.0
 70
     8
 71
     3
 72
    28
 73
    24
 74
     0
 42
0.0000000001
 43
0.0000000001
 40
0.0003135965776947
 40
0.0003135965776947
 40
0.0003135965776947
 40
0.0003135965776947
 40
0.2718281047685369
 40
0.2718281047685369
 40
0.387737298179117
 40
0.387737298179117
 40
0.4023246078316326
 40
0.4023246078316326
 40
0.4094618537001659
 40
0.4094618537001659
 40
0.4141700486713896
 40
0.4141700486713896
 40
0.4184552481924415
 40
0.4184552481924415
 40
0.4238538387494375
 40
0.4238538387494375
 40
0.4337033556819361
 40
0.4337033556819361
 40
0.4587932383515679
 40
0.4587932383515679
 40
0.5538885021561292
 40
0.5538885021561292
 40
0.8728530406591755
 40
0.8728530406591755
 40
0.8728530406591755
 40
0.8728530406591755
 10
-106.9643557967745
 20
-51.15055768866563
 30
0.0
 10
-107.0419554608881
 20
-51.62600203783364
 30
0.0
 10
-107.1319985458746
 20
-52.00017346004961
 30
0.0
 10
-107.2677519356956
 20
-52.36776230097934
 30
0.0
 10
-107.339167142427
 20
-52.53648523818418
 30
0.0
 10
-107.434418840645
 20
-52.61712202242009
 30
0.0
 10
-107.4468130426952
 20
-52.62592339280269
 30
0.0
 10
-107.4672493606862
 20
-52.63548538363622
 30
0.0
 10
-107.4749698736459
 20
-52.63837763601907
 30
0.0
 10
-107.489048584425
 20
-52.64144321666157
 30
0.0
 10
-107.4948900635254
 20
-52.64218896207584
 30
0.0
 10
-107.5064513043207
 20
-52.64239006367268
 30
0.0
 10
-107.5117659716587
 20
-52.64194894554623
 30
0.0
 10
-107.5233337439126
 20
-52.63993827022321
 30
0.0
 10
-107.5292160859576
 20
-52.63814926853086
 30
0.0
 10
-107.544091706507
 20
-52.63225620154361
 30
0.0
 10
-107.5524163367653
 20
-52.6271513748081
 30
0.0
 10
-107.5766613841947
 20
-52.60936725006536
 30
0.0
 10
-107.591258671138
 20
-52.59217590639352
 30
0.0
 10
-107.6474251871803
 20
-52.51217595041049
 30
0.0
 10
-107.6785894084049
 20
-52.41556800098488
 30
0.0
 10
-107.7660966788245
 20
-52.08135499706634
 30
0.0
 10
-107.806420496185
 20
-51.67806708114366
 30
0.0
 10
-107.8181418140314
 20
-51.15055768866563
 30
0.0
  0
SPLINE
  5
11E
330
2
100
AcDbEntity
  8
GEB-KONTUR-A
 48
25.0
100
AcDbSpline
210
0.0
220
0.0
230
1.0
 70
     8
 71
     3
 72
    12
 73
     8
 74
     0
 42
0.0000000001
 43
0.0000000001
 40
7.856763709227179
 40
7.856763709227179
 40
7.856763709227179
 40
7.856763709227179
 40
9.010772298240585
 40
9.010772298240585
 40
10.87123066565289
 40
10.87123066565289
 40
12.25035599329128
 40
12.25035599329128
 40
12.25035599329128
 40
12.25035599329128
 10
-105.0621308270216
 20
-17.03038074956896
 30
0.0
 10
-105.1145817225915
 20
-20.72155894713524
 30
0.0
 10
-105.1870060613736
 20
-24.29995795196632
 30
0.0
 10
-105.4465801153722
 20
-33.22377669230207
 30
0.0
 10
-105.6741942553464
 20
-38.25509050180335
 30
0.0
 10
-106.2617425937713
 20
-45.87546450373872
 30
0.0
 10
-106.5698957531648
 20
-48.73374569792642
 30
0.0
 10
-106.9643557967745
 20
-51.15055768866563
 30
0.0
  0
SPLINE
  5
11F
330
2
100
AcDbEntity
  8
GEB-KONTUR-A
 48
25.0
100
AcDbSpline
210
0.0
220
0.0
230
1.0
 70
     8
 71
     3
 72
    10
 73
     6
 74
     0
 42
0.0000000001
 43
0.0000000001
 40
0.0026009342830056
 40
0.0026009342830056
 40
0.0026009342830056
 40
0.0026009342830056
 40
2.288447646738528
 40
2.288447646738528
 40
4.404652560198168
 40
4.404652560198168
 40
4.404652560198168
 40
4.404652560198168
 10
-106.9643557967745
 20
51.15055768860378
 30
0.0
 10
-106.3108030443167
 20
47.14631402867593
 30
0.0
 10
-105.8904315767879
 20
41.94489604405222
 30
0.0
 10
-105.3188403632604
 20
30.15114034301064
 30
0.0
 10
-105.1575797451621
 20
23.78964502445194
 30
0.0
 10
-105.0620387030065
 20
17.03038031298575
 30
0.0
  0
SPLINE
  5
120
330
2
100
AcDbEntity
  8
GEB-KONTUR-A
 48
25.0
100
AcDbSpline
210
0.0
220
0.0
230
1.0
 70
     8
 71
     3
 72
    28
 73
    24
 74
     0
 42
0.0000000001
 43
0.0000000001
 40
0.0003135965776839
 40
0.0003135965776839
 40
0.0003135965776839
 40
0.0003135965776839
 40
0.2718281047680473
 40
0.2718281047680473
 40
0.3877372981787153
 40
0.3877372981787153
 40
0.4023246078281107
 40
0.4023246078281107
 40
0.4094618536937226
 40
0.4094618536937226
 40
0.4141700486636421
 40
0.4141700486636421
 40
0.4184552481835528
 40
0.4184552481835528
 40
0.4238538387384246
 40
0.4238538387384246
 40
0.4337033556666886
 40
0.4337033556666886
 40
0.4587932383214158
 40
0.4587932383214158
 40
0.5538885020421047
 40
0.5538885020421047
 40
0.8728530402747518
 40
0.8728530402747518
 40
0.8728530402747518
 40
0.8728530402747518
 10
-116.0602896420819
 20
51.15055768860393
 30
0.0
 10
-116.0497252153354
 20
51.62600203777066
 30
0.0
 10
-116.0158071645033
 20
52.00017345998674
 30
0.0
 10
-115.9363170878114
 20
52.36776230091703
 30
0.0
 10
-115.8911658764434
 20
52.53648523812123
 30
0.0
 10
-115.8086047562173
 20
52.61712202235495
 30
0.0
 10
-115.7975974681085
 20
52.62592339273862
 30
0.0
 10
-115.778668967714
 20
52.63548538357287
 30
0.0
 10
-115.7714047411485
 20
52.63837763595589
 30
0.0
 10
-115.7578097467951
 20
52.64144321659864
 30
0.0
 10
-115.7520859631201
 20
52.64218896201265
 30
0.0
 10
-115.7405564593747
 20
52.64239006360949
 30
0.0
 10
-115.7351721722339
 20
52.64194894548319
 30
0.0
 10
-115.7232871150484
 20
52.63993827016006
 30
0.0
 10
-115.7171224945681
 20
52.6381492684678
 30
0.0
 10
-115.7013173238501
 20
52.63225620148048
 30
0.0
 10
-115.6921878247747
 20
52.62715137474495
 30
0.0
 10
-115.6651407407074
 20
52.60936725000448
 30
0.0
 10
-115.6478387657844
 20
52.59217590633543
 30
0.0
 10
-115.5791150218737
 20
52.51217595034671
 30
0.0
 10
-115.5329109981455
 20
52.41556800091979
 30
0.0
 10
-115.3939231383509
 20
52.08135499700407
 30
0.0
 10
-115.2926010865881
 20
51.67806708108148
 30
0.0
 10
-115.206503624825
 20
51.1505576886039
 30
0.0
  0
SPLINE
  5
121
330
2
100
AcDbEntity
  8
GEB-KONTUR-A
 48
25.0
100
AcDbSpline
210
0.0
220
0.0
230
1.0
 70
     8
 71
     3
 72
    18
 73
    14
 74
     0
 42
0.0000000001
 43
0.0000000001
 40
6.130712173490135
 40
6.130712173490135
 40
6.130712173490135
 40
6.130712173490135
 40
6.358283137277716
 40
6.358283137277716
 40
6.861022006813818
 40
6.861022006813818
 40
7.812083211287122
 40
7.812083211287122
 40
9.010772298240604
 40
9.010772298240604
 40
10.87123066565298
 40
10.87123066565298
 40
12.25035599329146
 40
12.25035599329146
 40
12.25035599329146
 40
12.25035599329146
 10
-115.5890471399732
 20
-0.000000000022311
 30
0.0
 10
-115.5890471399732
 20
0.758988125185141
 30
0.0
 10
-115.5896743345175
 20
1.517963102792379
 30
0.0
 10
-115.5936886115341
 20
3.952277875343327
 30
0.0
 10
-115.5995042832295
 20
5.624651577958445
 30
0.0
 10
-115.6246560142368
 20
10.43828255685227
 30
0.0
 10
-115.6514954307845
 20
13.55196233555625
 30
0.0
 10
-115.7293033317423
 20
20.44422148832837
 30
0.0
 10
-115.7846196588793
 20
24.16768890713962
 30
0.0
 10
-115.9313778564019
 20
33.22377669225148
 30
0.0
 10
-116.0260524234464
 20
38.25509050175057
 30
0.0
 10
-116.1063992075748
 20
45.87546450368139
 30
0.0
 10
-116.1139914754949
 20
48.73374569786702
 30
0.0
 10
-116.0602896420819
 20
51.15055768860393
 30
0.0
  0
SPLINE
  5
122
330
2
100
AcDbEntity
  8
GEB-KONTUR-A
 48
25.0
100
AcDbSpline
210
0.0
220
0.0
230
1.0
 70
     8
 71
     3
 72
    16
 73
    12
 74
     0
 42
0.0000000001
 43
0.0000000001
 40
0.0026009342830065
 40
0.0026009342830065
 40
0.0026009342830065
 40
0.0026009342830065
 40
2.288447646738537
 40
2.288447646738537
 40
4.621313960225658
 40
4.621313960225658
 40
5.46277531789877
 40
5.46277531789877
 40
5.947182010080132
 40
5.947182010080132
 40
6.130712173490135
 40
6.130712173490135
 40
6.130712173490135
 40
6.130712173490135
 10
-116.0602896420819
 20
-51.15055768866546
 30
0.0
 10
-116.1492643851712
 20
-47.14631402873374
 30
0.0
 10
-116.0758228475488
 20
-41.94489604410671
 30
0.0
 10
-115.8752910829516
 20
-29.5706719980889
 30
0.0
 10
-115.7456048894012
 20
-22.47978695314882
 30
0.0
 10
-115.640018159938
 20
-12.22327506086299
 30
0.0
 10
-115.6184598439738
 20
-9.458964691445459
 30
0.0
 10
-115.597406236732
 20
-5.063601139787181
 30
0.0
 10
-115.5924180302194
 20
-3.451184829995725
 30
0.0
 10
-115.5894549376633
 20
-1.224217583241113
 30
0.0
 10
-115.5890471399732
 20
-0.6121045160254824
 30
0.0
 10
-115.5890471399732
 20
-0.000000000022311
 30
0.0
  0
SPLINE
  5
123
330
2
100
AcDbEntity
  8
GEB-KONTUR-A
 48
25.0
100
AcDbSpline
210
0.0
220
0.0
230
1.0
 70
     8
 71
     3
 72
    28
 73
    24
 74
     0
 42
0.0000000001
 43
0.0000000001
 40
0.0003135965776942
 40
0.0003135965776942
 40
0.0003135965776942
 40
0.0003135965776942
 40
0.2718281047686017
 40
0.2718281047686017
 40
0.3877372981810163
 40
0.3877372981810163
 40
0.4023246078311834
 40
0.4023246078311834
 40
0.4094618536978117
 40
0.4094618536978117
 40
0.4141700486678527
 40
0.4141700486678527
 40
0.4184552481878479
 40
0.4184552481878479
 40
0.423853838743504
 40
0.423853838743504
 40
0.4337033556735145
 40
0.4337033556735145
 40
0.4587932383359704
 40
0.4587932383359704
 40
0.5538885021105539
 40
0.5538885021105539
 40
0.8728530405182555
 40
0.8728530405182555
 40
0.8728530405182555
 40
0.8728530405182555
 10
-115.206503624825
 20
-51.15055768866551
 30
0.0
 10
-115.2841032889384
 20
-51.62600203783364
 30
0.0
 10
-115.374146373925
 20
-52.00017346004955
 30
0.0
 10
-115.5098997637466
 20
-52.36776230098087
 30
0.0
 10
-115.5813149704778
 20
-52.53648523818447
 30
0.0
 10
-115.6765666686935
 20
-52.61712202241835
 30
0.0
 10
-115.6889608707441
 20
-52.62592339280186
 30
0.0
 10
-115.7093971887368
 20
-52.63548538363614
 30
0.0
 10
-115.7171177016963
 20
-52.63837763601898
 30
0.0
 10
-115.7311964124755
 20
-52.64144321666148
 30
0.0
 10
-115.7370378915758
 20
-52.64218896207575
 30
0.0
 10
-115.7485991323712
 20
-52.64239006367262
 30
0.0
 10
-115.7539137997091
 20
-52.64194894554612
 30
0.0
 10
-115.765481571963
 20
-52.63993827022312
 30
0.0
 10
-115.7713639140081
 20
-52.63814926853076
 30
0.0
 10
-115.7862395345574
 20
-52.6322562015435
 30
0.0
 10
-115.7945641648157
 20
-52.62715137480808
 30
0.0
 10
-115.8188092122449
 20
-52.60936725006556
 30
0.0
 10
-115.833406499188
 20
-52.592175906394
 30
0.0
 10
-115.8895730152311
 20
-52.51217595040995
 30
0.0
 10
-115.9207372364556
 20
-52.41556800098357
 30
0.0
 10
-116.008244506875
 20
-52.08135499706614
 30
0.0
 10
-116.0485683242353
 20
-51.67806708114335
 30
0.0
 10
-116.0602896420819
 20
-51.15055768866546
 30
0.0
  0
SPLINE
  5
124
330
2
100
AcDbEntity
  8
GEB-KONTUR-A
 48
25.0
100
AcDbSpline
210
0.0
220
0.0
230
1.0
 70
     8
 71
     3
 72
    12
 73
     8
 74
     0
 42
0.0000000001
 43
0.0000000001
 40
7.856763709227261
 40
7.856763709227261
 40
7.856763709227261
 40
7.856763709227261
 40
9.010772298240585
 40
9.010772298240585
 40
10.8712306656529
 40
10.8712306656529
 40
12.25035599329129
 40
12.25035599329129
 40
12.25035599329129
 40
12.25035599329129
 10
-113.3042786550719
 20
-17.03038074956964
 30
0.0
 10
-113.3567295506419
 20
-20.72155894713569
 30
0.0
 10
-113.429153889424
 20
-24.29995795196646
 30
0.0
 10
-113.6887279434227
 20
-33.22377669230201
 30
0.0
 10
-113.9163420833968
 20
-38.25509050180329
 30
0.0
 10
-114.5038904218217
 20
-45.87546450373856
 30
0.0
 10
-114.8120435812152
 20
-48.7337456979263
 30
0.0
 10
-115.206503624825
 20
-51.15055768866551
 30
0.0
  0
SPLINE
  5
125
330
2
100
AcDbEntity
  8
GEB-KONTUR-A
 48
25.0
100
AcDbSpline
210
0.0
220
0.0
230
1.0
 70
     8
 71
     3
 72
    10
 73
     6
 74
     0
 42
0.0000000001
 43
0.0000000001
 40
0.0026009342830058
 40
0.0026009342830058
 40
0.0026009342830058
 40
0.0026009342830058
 40
2.288447646738528
 40
2.288447646738528
 40
4.404652560198086
 40
4.404652560198086
 40
4.404652560198086
 40
4.404652560198086
 10
-115.206503624825
 20
51.1505576886039
 30
0.0
 10
-114.5529508723671
 20
47.14631402867602
 30
0.0
 10
-114.1325794048384
 20
41.94489604405234
 30
0.0
 10
-113.5609881913108
 20
30.15114034301095
 30
0.0
 10
-113.3997275732126
 20
23.78964502445254
 30
0.0
 10
-113.304186531057
 20
17.03038031298663
 30
0.0
  0
ELLIPSE
  5
126
330
2
100
AcDbEntity
  8
GEB-KONTUR-A
 48
25.0
100
AcDbEllipse
 10
-125.5058053075458
 20
-0.000000000040103
 30
0.0
 11
-0.0000000000000044
 21
-64.0499999999999
 31
0.0
210
0.0
220
0.0
230
1.0
 40
0.0436193873653364
 41
0.0
 42
3.141592653279008
  0
LINE
  5
127
330
2
100
AcDbEntity
  8
GEB-KONTUR-A
 48
25.0
100
AcDbLine
 10
-53.48865319351222
 20
60.1499999999626
 30
0.0
 11
-124.5458021465302
 21
60.14999999996348
 31
0.0
  0
LINE
  5
128
330
2
100
AcDbEntity
  8
GEB-KONTUR-A
 48
25.0
100
AcDbLine
 10
-53.48865319351222
 20
60.1499999999626
 30
0.0
 11
-53.48865319351222
 21
55.25371028262146
 31
0.0
  0
LINE
  5
129
330
2
100
AcDbEntity
  8
GEB-KONTUR-A
 48
25.0
100
AcDbLine
 10
-71.03207388552636
 20
55.25371028262168
 30
0.0
 11
-53.48865319351222
 21
55.25371028262146
 31
0.0
  0
LINE
  5
12A
330
2
100
AcDbEntity
  8
GEB-KONTUR-A
 48
25.0
100
AcDbLine
 10
-71.31167346653277
 20
57.04655993130313
 30
0.0
 11
-76.51980487356468
 21
57.0465599313032
 31
0.0
  0
LINE
  5
12B
330
2
100
AcDbEntity
  8
GEB-KONTUR-A
 48
25.0
100
AcDbLine
 10
-76.80643868523304
 20
58.83682945227107
 30
0.0
 11
-124.4017694019964
 21
58.83682945227167
 31
0.0
  0
LINE
  5
12C
330
2
100
AcDbEntity
  8
GEB-KONTUR-A
 48
25.0
100
AcDbLine
 10
-71.01273696802812
 20
-55.10000000004066
 30
0.0
 11
-68.85977114385383
 21
-55.10000000004072
 31
0.0
  0
LINE
  5
12D
330
2
100
AcDbEntity
  8
GEB-KONTUR-A
 48
25.0
100
AcDbLine
 10
-71.01273696802812
 20
55.09999999995909
 30
0.0
 11
-68.85977114385383
 21
55.09999999995907
 31
0.0
  0
ELLIPSE
  5
12E
330
2
100
AcDbEntity
  8
GEB-KONTUR-A
 48
25.0
100
AcDbEllipse
 10
-68.85977114385389
 20
-0.0000000000408136
 30
0.0
 11
0.0000000000007164
 21
55.09999999999988
 31
0.0
210
0.0
220
0.0
230
1.0
 40
0.0436193873653364
 41
5.272282748620494
 42
6.283185307179882
  0
ELLIPSE
  5
12F
330
2
100
AcDbEntity
  8
GEB-KONTUR-A
 48
25.0
100
AcDbEllipse
 10
-68.85977114385389
 20
-0.0000000000406999
 30
0.0
 11
-0.0000000000000029
 21
-55.09999999999998
 31
0.0
210
0.0
220
0.0
230
1.0
 40
0.0436193873653364
 41
0.0
 42
1.01090255836038
  0
LINE
  5
130
330
2
100
AcDbEntity
  8
GEB-VERDECKT
 48
25.0
100
AcDbLine
 10
-71.85691580859947
 20
-55.10000000004066
 30
0.0
 11
-71.01273696802815
 21
-55.10000000004066
 31
0.0
  0
LINE
  5
131
330
2
100
AcDbEntity
  8
GEB-VERDECKT
 48
25.0
100
AcDbLine
 10
-71.85691580859947
 20
55.09999999995909
 30
0.0
 11
-71.01273696802812
 21
55.09999999995909
 31
0.0
  0
ELLIPSE
  5
132
330
2
100
AcDbEntity
  8
GEB-VERDECKT
 48
25.0
100
AcDbEllipse
 10
-68.85977114385389
 20
-0.0000000000408136
 30
0.0
 11
-0.0000000000000003
 21
51.59999999999989
 31
0.0
210
0.0
220
0.0
230
1.0
 40
0.0436193873653364
 41
0.0
 42
6.28318530717958
  0
ELLIPSE
  5
133
330
2
100
AcDbEntity
  8
GEB-VERDECKT
 48
25.0
100
AcDbEllipse
 10
-71.85691580859947
 20
-0.0000000000407852
 30
0.0
 11
-0.0000000000000003
 21
55.09999999999988
 31
0.0
210
0.0
220
0.0
230
1.0
 40
0.0436193873653364
 41
0.0
 42
6.28318530717958
  0
ELLIPSE
  5
134
330
2
100
AcDbEntity
  8
GEB-VERDECKT
 48
25.0
100
AcDbEllipse
 10
-68.85977114385389
 20
-0.0000000000408136
 30
0.0
 11
0.0000000000004674
 21
55.0999999999999
 31
0.0
210
0.0
220
0.0
230
1.0
 40
0.0436193873653364
 41
4.152495212118969
 42
5.27228274858999
  0
ELLIPSE
  5
135
330
2
100
AcDbEntity
  8
GEB-VERDECKT
 48
25.0
100
AcDbEllipse
 10
-68.85977114385389
 20
-0.0000000000408136
 30
0.0
 11
-0.0000000000000001
 21
55.0999999999999
 31
0.0
210
0.0
220
0.0
230
1.0
 40
0.0436193873653364
 41
0.0
 42
3.141592653277339
  0
CIRCLE
  5
136
330
2
100
AcDbEntity
  8
GEB-VERDECKT
 48
25.0
100
AcDbCircle
 10
0.0000000000019327
 20
-0.0000000000218563
 30
0.0
 40
62.60000000000001
  0
LINE
  5
137
330
2
100
AcDbEntity
  8
GEB-KONTUR-A
 48
25.0
100
AcDbLine
 10
-71.01273696802812
 20
-55.10000000004078
 30
0.0
 11
-47.80891653237932
 21
-55.10000000004112
 31
0.0
  0
LINE
  5
138
330
2
100
AcDbEntity
  8
GEB-KONTUR-A
 48
25.0
100
AcDbLine
 10
-71.01273696802815
 20
55.09999999995923
 30
0.0
 11
-47.80891653237904
 21
55.09999999995892
 31
0.0
  0
LINE
  5
139
330
2
100
AcDbEntity
  8
GEB-VERDECKT
 48
25.0
100
AcDbLine
 10
-47.80891653237932
 20
-55.10000000004112
 30
0.0
 11
-29.71110903348924
 21
-55.10000000004135
 31
0.0
  0
LINE
  5
13A
330
2
100
AcDbEntity
  8
GEB-VERDECKT
 48
25.0
100
AcDbLine
 10
-75.52804555158653
 20
-55.10000000004072
 30
0.0
 11
-71.01273696802812
 21
-55.10000000004078
 31
0.0
  0
LINE
  5
13B
330
2
100
AcDbEntity
  8
GEB-VERDECKT
 48
25.0
100
AcDbLine
 10
-47.80891653237904
 20
55.09999999995892
 30
0.0
 11
-29.71110903348924
 21
55.09999999995869
 31
0.0
  0
LINE
  5
13C
330
2
100
AcDbEntity
  8
GEB-VERDECKT
 48
25.0
100
AcDbLine
 10
-75.52804555158653
 20
55.0999999999593
 30
0.0
 11
-71.01273696802815
 21
55.09999999995923
 31
0.0
  0
LINE
  5
13D
330
2
100
AcDbEntity
  8
GEB-VERDECKT
 48
25.0
100
AcDbLine
 10
-27.68075321843961
 20
51.49999999995867
 30
0.0
 11
-75.52804555158653
 21
51.49999999995927
 31
0.0
  0
LINE
  5
13E
330
2
100
AcDbEntity
  8
GEB-VERDECKT
 48
25.0
100
AcDbLine
 10
-27.68075321843949
 20
-51.50000000004133
 30
0.0
 11
-75.52804555158653
 21
-51.50000000004073
 31
0.0
  0
CIRCLE
  5
13F
330
2
100
AcDbEntity
  8
GEB-VERDECKT
 48
25.0
100
AcDbCircle
 10
0.0000000000019327
 20
-0.0000000000605382
 30
0.0
 40
65.60000000000001
  0
ELLIPSE
  5
140
330
2
100
AcDbEntity
  8
GEB-VERDECKT
 48
25.0
100
AcDbEllipse
 10
-75.52804555158653
 20
-0.0000000000406999
 30
0.0
 11
0.0
 21
55.10000000000001
 31
0.0
210
0.0
220
0.0
230
1.0
 40
0.0436193873653362
 41
0.0
 42
6.28318530717958
  0
ELLIPSE
  5
141
330
2
100
AcDbEntity
  8
GEB-VERDECKT
 48
25.0
100
AcDbEllipse
 10
-75.52804555158653
 20
-0.0000000000406999
 30
0.0
 11
0.0
 21
51.49999999999999
 31
0.0
210
0.0
220
0.0
230
1.0
 40
0.0436193873653361
 41
0.0
 42
6.28318530717958
  0
CIRCLE
  5
142
330
2
100
AcDbEntity
  8
GEB-VERDECKT
 48
25.0
100
AcDbCircle
 10
0.0000000000019327
 20
-0.0000000000832756
 30
0.0
 40
61.98853863708269
  0
CIRCLE
  5
143
330
2
100
AcDbEntity
  8
GEB-KONTUR-A
 48
25.0
100
AcDbCircle
 10
0.0000000000019327
 20
-0.0000000000832756
 30
0.0
 40
58.4
  0
SPLINE
  5
144
330
2
100
AcDbEntity
  8
GEB-KONTUR-A
 48
25.0
100
AcDbSpline
210
0.0
220
0.0
230
1.0
 70
    11
 71
     3
 72
    70
 73
    66
 74
     0
 42
0.0000000001
 43
0.0000000001
 40
0.0
 40
0.0
 40
0.0
 40
0.0
 40
1.119628728127653
 40
1.119628728127653
 40
2.239257456255307
 40
2.239257456255307
 40
3.35888618438296
 40
3.35888618438296
 40
4.478514912510614
 40
4.478514912510614
 40
5.523846665467374
 40
5.523846665467374
 40
6.569178418424135
 40
6.569178418424135
 40
7.614510171380896
 40
7.614510171380896
 40
8.659841924337657
 40
8.659841924337657
 40
9.705173677294418
 40
9.705173677294418
 40
10.75050543025118
 40
10.75050543025118
 40
11.79583718320794
 40
11.79583718320794
 40
12.8411689361647
 40
12.8411689361647
 40
13.96079766429235
 40
13.96079766429235
 40
15.08042639242001
 40
15.08042639242001
 40
16.20005512054766
 40
16.20005512054766
 40
17.31968384867531
 40
17.31968384867531
 40
18.40390714865109
 40
18.40390714865109
 40
19.48813044862687
 40
19.48813044862687
 40
20.57235374860265
 40
20.57235374860265
 40
21.65657704857843
 40
21.65657704857843
 40
22.69427157176894
 40
22.69427157176894
 40
23.73196609495945
 40
23.73196609495945
 40
24.76966061814996
 40
24.76966061814996
 40
25.80735514134047
 40
25.80735514134047
 40
26.84504966453097
 40
26.84504966453097
 40
27.88274418772149
 40
27.88274418772149
 40
28.920438710912
 40
28.920438710912
 40
29.95813323410251
 40
29.95813323410251
 40
31.04235653407828
 40
31.04235653407828
 40
32.12657983405406
 40
32.12657983405406
 40
33.21080313402983
 40
33.21080313402983
 40
34.29502643400561
 40
34.29502643400561
 40
34.29502643400561
 40
34.29502643400561
 10
-27.68073973519574
 20
51.49999540688725
 30
0.0
 10
-27.68158612104173
 20
51.50157010711672
 30
0.0
 10
-28.44304904021323
 20
51.10595946275115
 30
0.0
 10
-30.84889136994031
 20
49.69461413998857
 30
0.0
 10
-32.48349837447523
 20
48.6748169955934
 30
0.0
 10
-36.09614898396694
 20
46.06337902240136
 30
0.0
 10
-38.0739872454501
 20
44.47010598501205
 30
0.0
 10
-42.00142360120008
 20
40.78496913393059
 30
0.0
 10
-43.95226859585585
 20
38.6915139872228
 30
0.0
 10
-47.44560277017967
 20
34.30635250234931
 30
0.0
 10
-49.13083210067441
 20
31.88418741750556
 30
0.0
 10
-52.2316855942959
 20
26.50483537247561
 30
0.0
 10
-53.64651247496567
 20
23.54711143896702
 30
0.0
 10
-55.99237533288624
 20
17.24607230190224
 30
0.0
 10
-56.92531433062396
 20
13.89493366479013
 30
0.0
 10
-58.17597429416332
 20
7.014248542609806
 30
0.0
 10
-58.49305591094728
 20
3.484439176496891
 30
0.0
 10
-58.49305591094728
 20
-3.484439176548193
 30
0.0
 10
-58.1759742941633
 20
-7.014248542661334
 30
0.0
 10
-56.92531433062396
 20
-13.89493366484254
 30
0.0
 10
-55.99237533288621
 20
-17.24607230195528
 30
0.0
 10
-53.64651247496564
 20
-23.54711143902176
 30
0.0
 10
-52.2316855942959
 20
-26.50483537253135
 30
0.0
 10
-49.13083210067441
 20
-31.88418741756362
 30
0.0
 10
-47.44560277017967
 20
-34.30635250240863
 30
0.0
 10
-43.95226859585583
 20
-38.6915139872848
 30
0.0
 10
-42.00142360119997
 20
-40.78496913399416
 30
0.0
 10
-38.07398724545004
 20
-44.47010598507893
 30
0.0
 10
-36.09614898396683
 20
-46.06337902246997
 30
0.0
 10
-32.48349837447512
 20
-48.67481699566582
 30
0.0
 10
-30.84889136994019
 20
-49.69461414006289
 30
0.0
 10
-28.44304904021311
 20
-51.10595946282953
 30
0.0
 10
-27.68158612104168
 20
-51.50157010719721
 30
0.0
 10
-27.67992011416237
 20
-51.4984705026566
 30
0.0
 10
-28.40027280588027
 20
-51.12104144723272
 30
0.0
 10
-30.7508742335572
 20
-49.7388346502672
 30
0.0
 10
-32.36691977906145
 20
-48.73202847438557
 30
0.0
 10
-35.95585541553484
 20
-46.1440093971673
 30
0.0
 10
-37.92857116584656
 20
-44.56066656474135
 30
0.0
 10
-41.8469289510933
 20
-40.89949371864515
 30
0.0
 10
-43.79362940815565
 20
-38.82010733940155
 30
0.0
 10
-47.31484677654987
 20
-34.42750694815115
 30
0.0
 10
-49.02875418066495
 20
-31.97334527313044
 30
0.0
 10
-52.17031815772668
 20
-26.53617876231525
 30
0.0
 10
-53.59720926444111
 20
-23.55270543040635
 30
0.0
 10
-55.95410291756792
 20
-17.21574676326634
 30
0.0
 10
-56.88605367241132
 20
-13.85460794793835
 30
0.0
 10
-58.13112273472467
 20
-6.976336362496766
 30
0.0
 10
-58.44366876860971
 20
-3.458981744024612
 30
0.0
 10
-58.44366876860971
 20
3.458981743912119
 30
0.0
 10
-58.13112273472467
 20
6.9763363623845
 30
0.0
 10
-56.88605367241135
 20
13.85460794782688
 30
0.0
 10
-55.95410291756798
 20
17.21574676315543
 30
0.0
 10
-53.59720926444118
 20
23.55270543029704
 30
0.0
 10
-52.17031815772668
 20
26.53617876220693
 30
0.0
 10
-49.02875418066497
 20
31.97334527302422
 30
0.0
 10
-47.31484677654992
 20
34.42750694804613
 30
0.0
 10
-43.7936294081557
 20
38.82010733929912
 30
0.0
 10
-41.84692895109338
 20
40.89949371854408
 30
0.0
 10
-37.92857116584665
 20
44.5606665646435
 30
0.0
 10
-35.95585541553487
 20
46.14400939707112
 30
0.0
 10
-32.36691977906153
 20
48.73202847429292
 30
0.0
 10
-30.75087423355731
 20
49.73883465017639
 30
0.0
 10
-28.40027280588038
 20
51.12104144714582
 30
0.0
 10
-27.67992011416249
 20
51.49847050257176
 30
0.0
 10
-27.68073973519574
 20
51.49999540688725
 30
0.0
  0
CIRCLE
  5
145
330
2
100
AcDbEntity
  8
GEB-KONTUR-A
 48
25.0
100
AcDbCircle
 10
0.0000000000019327
 20
-0.0000000000218279
 30
0.0
 40
58.49918597125671
  0
TEXT
  5
146
330
2
100
AcDbEntity
  8
GEB-TEXT
100
AcDbText
 10
-72.52684406004803
 20
-85.95000000000004
 30
0.0
 40
3.5
  1
Abzweig PP-MD 87.5G d125/110
 72
     1
 11
-36.51814692498664
 21
-85.95000000000004
 31
0.0
100
AcDbText
  0
TEXT
  5
148
330
2
100
AcDbEntity
  8
GEB-TEXT
100
AcDbText
 10
-55.270363841767
 20
-80.45000000000005
 30
0.0
 40
3.5
  1
Geberit Silent PP
 72
     1
 11
-36.51814692498664
 21
-80.45000000000005
 31
0.0
100
AcDbText
  0
TEXT
  5
149
330
2
100
AcDbEntity
  8
GEB-ART-NR
100
AcDbText
 10
-60.69359172463223
 20
-92.29278125428027
 30
0.0
 40
3.5
  1
GEB-ART-NR 390.651
 72
     1
 11
-35.96559036037576
 21
-92.29278125428027
 31
0.0
100
AcDbText
  0
ENDSEC
  0
SECTION
  2
OBJECTS
  0
DICTIONARY
  5
9
330
0
100
AcDbDictionary
281
     1
  3
ACAD_2007HEADERVARS_RT
350
178
  3
ACAD_COLOR
350
44
  3
ACAD_GROUP
350
31
  3
ACAD_LAYOUT
350
16
  3
ACAD_MATERIAL
350
B
  3
ACAD_MLEADERSTYLE
350
47
  3
ACAD_MLINESTYLE
350
32
  3
ACAD_PLOTSETTINGS
350
33
  3
ACAD_PLOTSTYLENAME
350
8
  3
ACAD_SCALELIST
350
45
  3
ACAD_TABLESTYLE
350
46
  3
ACAD_VISUALSTYLE
350
2B
  3
ACDB_RECOMPOSE_DATA
350
177
  3
AcDbVariableDictionary
350
14D
  0
DICTIONARY
  5
2C
330
28
100
AcDbDictionary
280
     1
281
     1
  0
DICTIONARY
  5
1C
330
1B
100
AcDbDictionary
280
     1
281
     1
  3
ACAD_LAYERFILTERS
360
1D
  3
ACLYDICTIONARY
360
1E
  0
DICTIONARY
  5
3
330
2
100
AcDbDictionary
280
     1
281
     1
  3
ACAD_SORTENTS
360
14B
  0
DICTIONARY
  5
178
102
{ACAD_REACTORS
330
9
102
}
330
9
100
AcDbDictionary
281
     1
  3
DIMARCSYM
350
179
  3
DIMLTEX1
350
17B
  3
DIMLTEX2
350
17C
  3
DIMLTYPE
350
17A
  0
DICTIONARY
  5
44
102
{ACAD_REACTORS
330
9
102
}
330
9
100
AcDbDictionary
281
     1
  0
DICTIONARY
  5
31
102
{ACAD_REACTORS
330
9
102
}
330
9
100
AcDbDictionary
281
     1
  0
DICTIONARY
  5
16
102
{ACAD_REACTORS
330
9
102
}
330
9
100
AcDbDictionary
281
     1
  3
Layout1
350
1A
  3
Model
350
15
  0
DICTIONARY
  5
B
102
{ACAD_REACTORS
330
9
102
}
330
9
100
AcDbDictionary
281
     1
  3
ByBlock
350
3C
  3
ByLayer
350
34
  3
Global
350
A
  0
DICTIONARY
  5
47
102
{ACAD_REACTORS
330
9
102
}
330
9
100
AcDbDictionary
281
     1
  3
Standard
350
16B
  0
DICTIONARY
  5
32
102
{ACAD_REACTORS
330
9
102
}
330
9
100
AcDbDictionary
281
     1
  3
Standard
350
48
  0
DICTIONARY
  5
33
102
{ACAD_REACTORS
330
9
102
}
330
9
100
AcDbDictionary
281
     1
  0
ACDBDICTIONARYWDFLT
  5
8
102
{ACAD_REACTORS
330
9
102
}
330
9
100
AcDbDictionary
281
     1
  3
Normal
350
7
100
AcDbDictionaryWithDefault
340
7
  0
DICTIONARY
  5
45
102
{ACAD_REACTORS
330
9
102
}
330
9
100
AcDbDictionary
281
     1
  3
A0
350
4D
  3
A1
350
4E
  3
A2
350
4F
  3
A3
350
50
  3
A4
350
51
  3
A5
350
52
  3
A6
350
53
  3
A7
350
54
  3
A8
350
55
  3
A9
350
56
  3
B0
350
57
  3
B1
350
58
  3
B2
350
59
  3
B3
350
5A
  3
B4
350
5B
  3
B5
350
5C
  3
B6
350
5D
  3
B7
350
5E
  3
B8
350
5F
  3
B9
350
60
  3
C0
350
61
  3
C1
350
62
  3
C2
350
63
  3
C3
350
64
  3
C4
350
65
  3
C5
350
66
  3
C6
350
67
  3
C7
350
68
  3
C8
350
69
  3
C9
350
6A
  3
D0
350
6B
  3
D1
350
6C
  3
D2
350
6D
  0
DICTIONARY
  5
46
102
{ACAD_REACTORS
330
9
102
}
330
9
100
AcDbDictionary
281
     1
  3
Standard
350
49
  0
DICTIONARY
  5
2B
102
{ACAD_REACTORS
330
9
102
}
330
9
100
AcDbDictionary
281
     1
  3
2dWireframe
350
2A
  3
Basic
350
15A
  3
Brighten
350
15E
  3
ColorChange
350
162
  3
Conceptual
350
15C
  3
Dim
350
15D
  3
EdgeColorOff
350
16A
  3
Facepattern
350
161
  3
Flat
350
156
  3
FlatWithEdges
350
157
  3
Gouraud
350
158
  3
GouraudWithEdges
350
159
  3
Hidden
350
15B
  3
JitterOff
350
168
  3
Linepattern
350
160
  3
OverhangOff
350
169
  3
Realistic
350
4B
  3
Shaded
350
167
  3
Shaded with edges
350
166
  3
Shades of Gray
350
163
  3
Sketchy
350
164
  3
Thicken
350
15F
  3
Wireframe
350
4C
  3
X-Ray
350
165
  0
XRECORD
  5
177
102
{ACAD_REACTORS
330
9
102
}
330
9
100
AcDbXrecord
280
     1
 90
        1
330
49
  0
DICTIONARY
  5
14D
102
{ACAD_REACTORS
330
9
102
}
330
9
100
AcDbDictionary
281
     1
  3
CANNOSCALE
350
151
  3
CMLEADERSTYLE
350
14F
  3
CTABLESTYLE
350
14E
  3
DIMASSOC
350
174
  3
HIDETEXT
350
173
  3
INDEXCTL
350
172
  3
LAYEREVAL
350
153
  3
LAYERNOTIFY
350
154
  3
LIGHTINGUNITS
350
152
  3
MSLTSCALE
350
150
  3
SORTENTS
350
171
  3
XCLIPFRAME
350
175
  0
DICTIONARY
  5
1D
102
{ACAD_REACTORS
330
1C
102
}
330
1C
100
AcDbDictionary
281
     1
  0
DICTIONARY
  5
1E
102
{ACAD_REACTORS
330
1C
102
}
330
1C
100
AcDbDictionary
281
     1
1001
ACAD
1000
<All
  0
SORTENTSTABLE
  5
14B
102
{ACAD_REACTORS
330
3
102
}
330
3
100
AcDbSortentsTable
330
2
331
132
  5
8D
331
BC
  5
103
331
7D
  5
13F
331
F3
  5
CC
331
13A
  5
85
331
C4
  5
FB
331
85
  5
13A
331
FB
  5
C4
331
142
  5
7A
331
103
  5
BC
331
8D
  5
132
331
CC
  5
F3
331
10B
  5
B4
331
D4
  5
EB
331
95
  5
12A
331
DC
  5
E3
331
9D
  5
122
331
113
  5
AC
331
E4
  5
DB
331
A5
  5
11A
331
11B
  5
A4
331
123
  5
9C
331
AD
  5
112
331
EC
  5
D3
331
12B
  5
94
331
B5
  5
10A
331
133
  5
8C
331
F4
  5
CB
331
BD
  5
102
331
FC
  5
C3
331
C5
  5
FA
331
86
  5
139
331
13B
  5
84
331
143
  5
79
331
CD
  5
F2
331
8E
  5
131
331
104
  5
BB
331
D5
  5
EA
331
96
  5
129
331
10C
  5
B3
331
114
  5
AB
331
9E
  5
121
331
DD
  5
E2
331
11C
  5
A3
331
E5
  5
DA
331
A6
  5
119
331
ED
  5
D2
331
AE
  5
111
331
124
  5
9B
331
B6
  5
109
331
12C
  5
93
331
134
  5
8B
331
BE
  5
101
331
7F
  5
13E
331
F5
  5
CA
331
13C
  5
81
331
FD
  5
C2
331
87
  5
138
331
C6
  5
F9
331
144
  5
75
331
105
  5
BA
331
8F
  5
130
331
CE
  5
F1
331
10D
  5
B2
331
D6
  5
E9
331
97
  5
128
331
DE
  5
E1
331
9F
  5
120
331
115
  5
AA
331
E6
  5
D9
331
A7
  5
118
331
11D
  5
A2
331
125
  5
9A
331
AF
  5
110
331
EE
  5
D1
331
12D
  5
92
331
B7
  5
108
331
F6
  5
C9
331
80
  5
13D
331
BF
  5
100
331
135
  5
8A
331
FE
  5
C1
331
C7
  5
F8
331
88
  5
137
331
13D
  5
80
331
145
  5
6E
331
CF
  5
F0
331
90
  5
12F
331
106
  5
B9
331
10E
  5
B1
331
D7
  5
E8
331
98
  5
127
331
116
  5
A9
331
A0
  5
11F
331
DF
  5
E0
331
11E
  5
A1
331
E7
  5
D8
331
A8
  5
117
331
EF
  5
D0
331
B0
  5
10F
331
126
  5
99
331
12E
  5
91
331
B8
  5
107
331
79
  5
143
331
136
  5
89
331
C0
  5
FF
331
81
  5
13C
331
F7
  5
C8
331
13E
  5
7F
331
FF
  5
C0
331
89
  5
136
331
C8
  5
F7
331
107
  5
B8
331
91
  5
12E
331
D0
  5
EF
331
146
  5
149
331
10F
  5
B0
331
D8
  5
E7
331
99
  5
126
331
E0
  5
DF
331
A1
  5
11E
331
117
  5
A8
331
11F
  5
A0
331
A9
  5
116
331
E8
  5
D7
331
B1
  5
10E
331
127
  5
98
331
12F
  5
90
331
F0
  5
CF
331
7A
  5
142
331
B9
  5
106
331
F8
  5
C7
331
C1
  5
FE
331
137
  5
88
331
100
  5
BF
331
C9
  5
F6
331
8A
  5
135
331
13F
  5
7D
331
D1
  5
EE
331
92
  5
12D
331
108
  5
B7
331
110
  5
AF
331
9A
  5
125
331
D9
  5
E6
331
118
  5
A7
331
A2
  5
11D
331
E1
  5
DE
331
120
  5
9F
331
E9
  5
D6
331
AA
  5
115
331
B2
  5
10D
331
128
  5
97
331
75
  5
144
331
130
  5
8F
331
BA
  5
105
331
7B
  5
141
331
F1
  5
CE
331
138
  5
87
331
C2
  5
FD
331
F9
  5
C6
331
140
  5
7C
331
101
  5
BE
331
8B
  5
134
331
CA
  5
F5
331
109
  5
B6
331
D2
  5
ED
331
93
  5
12C
331
111
  5
AE
331
DA
  5
E5
331
9B
  5
124
331
E2
  5
DD
331
A3
  5
11C
331
119
  5
A6
331
121
  5
9E
331
AB
  5
114
331
EA
  5
D5
331
B3
  5
10C
331
129
  5
96
331
6E
  5
145
331
131
  5
8E
331
F2
  5
CD
331
7C
  5
140
331
BB
  5
104
331
FA
  5
C5
331
C3
  5
FC
331
84
  5
13B
331
139
  5
86
331
141
  5
7B
331
CB
  5
F4
331
8C
  5
133
331
102
  5
BD
331
149
  5
146
331
D3
  5
EC
331
94
  5
12B
331
10A
  5
B5
331
112
  5
AD
331
9C
  5
123
331
DB
  5
E4
331
11A
  5
A5
331
E3
  5
DC
331
A4
  5
11B
331
122
  5
9D
331
EB
  5
D4
331
AC
  5
113
331
B4
  5
10B
331
12A
  5
95
  0
XRECORD
  5
179
102
{ACAD_REACTORS
330
178
102
}
330
178
100
AcDbXrecord
280
     1
 70
     1
  0
XRECORD
  5
17B
102
{ACAD_REACTORS
330
178
102
}
330
178
100
AcDbXrecord
280
     1
340
24
  0
XRECORD
  5
17C
102
{ACAD_REACTORS
330
178
102
}
330
178
100
AcDbXrecord
280
     1
340
24
  0
XRECORD
  5
17A
102
{ACAD_REACTORS
330
178
102
}
330
178
100
AcDbXrecord
280
     1
340
24
  0
LAYOUT
  5
1A
102
{ACAD_XDICTIONARY
360
180
102
}
102
{ACAD_REACTORS
330
16
102
}
330
16
100
AcDbPlotSettings
  1

  2
\\le-server\HP LaserJet 2100
  4

  6

 40
0.0
 41
0.0
 42
0.0
 43
0.0
 44
0.0
 45
0.0
 46
0.0
 47
0.0
 48
0.0
 49
0.0
140
0.0
141
0.0
142
1.0
143
1.0
 70
   688
 72
     0
 73
     0
 74
     5
  7

 75
    16
147
1.0
148
0.0
149
0.0
100
AcDbLayout
  1
Layout1
 70
     1
 71
     1
 10
0.0
 20
0.0
 11
1189.0
 21
840.9999999999998
 12
0.0
 22
0.0
 32
0.0
 14
0.0
 24
0.0
 34
0.0
 15
1189.0
 25
840.9999999999998
 35
0.0
146
0.0
 13
0.0
 23
0.0
 33
0.0
 16
1.0
 26
0.0
 36
0.0
 17
0.0
 27
1.0
 37
0.0
 76
     0
330
17
  0
LAYOUT
  5
15
102
{ACAD_XDICTIONARY
360
17E
102
}
102
{ACAD_REACTORS
330
16
102
}
330
16
100
AcDbPlotSettings
  1

  2
\\le-server\HP LaserJet 2100
  4

  6

 40
0.0
 41
0.0
 42
0.0
 43
0.0
 44
0.0
 45
0.0
 46
0.0
 47
0.0
 48
0.0
 49
0.0
140
0.0
141
0.0
142
1.0
143
1.0
 70
  1712
 72
     0
 73
     0
 74
     0
  7

 75
     0
147
1.0
148
0.0
149
0.0
100
AcDbLayout
  1
Model
 70
     1
 71
     0
 10
0.0
 20
0.0
 11
12.0
 21
9.0
 12
0.0
 22
0.0
 32
0.0
 14
0.0
 24
0.0
 34
0.0
 15
0.0
 25
0.0
 35
0.0
146
0.0
 13
0.0
 23
0.0
 33
0.0
 16
1.0
 26
0.0
 36
0.0
 17
0.0
 27
1.0
 37
0.0
 76
     0
330
2
331
29
  0
MATERIAL
  5
3C
102
{ACAD_XDICTIONARY
360
3D
102
}
102
{ACAD_REACTORS
330
B
102
}
330
B
100
AcDbMaterial
  1
ByBlock
 72
     0
 43
0.0208333333333333
 43
0.0
 43
0.0
 43
0.0
 43
0.0
 43
0.0208333333333333
 43
0.0
 43
0.0
 43
0.0
 43
0.0
 43
1.0
 43
0.0
 43
0.0
 43
0.0
 43
0.0
 43
1.0
 77
     0
 47
0.0208333333333333
 47
0.0
 47
0.0
 47
0.0
 47
0.0
 47
0.0208333333333333
 47
0.0
 47
0.0
 47
0.0
 47
0.0
 47
1.0
 47
0.0
 47
0.0
 47
0.0
 47
0.0
 47
1.0
171
     0
 49
0.0208333333333333
 49
0.0
 49
0.0
 49
0.0
 49
0.0
 49
0.0208333333333333
 49
0.0
 49
0.0
 49
0.0
 49
0.0
 49
1.0
 49
0.0
 49
0.0
 49
0.0
 49
0.0
 49
1.0
175
     0
142
0.0208333333333333
142
0.0
142
0.0
142
0.0
142
0.0
142
0.0208333333333333
142
0.0
142
0.0
142
0.0
142
0.0
142
1.0
142
0.0
142
0.0
142
0.0
142
0.0
142
1.0
179
     0
144
0.0208333333333333
144
0.0
144
0.0
144
0.0
144
0.0
144
0.0208333333333333
144
0.0
144
0.0
144
0.0
144
0.0
144
1.0
144
0.0
144
0.0
144
0.0
144
0.0
144
1.0
147
0.0208333333333333
147
0.0
147
0.0
147
0.0
147
0.0
147
0.0208333333333333
147
0.0
147
0.0
147
0.0
147
0.0
147
1.0
147
0.0
147
0.0
147
0.0
147
0.0
147
1.0
  0
MATERIAL
  5
34
102
{ACAD_XDICTIONARY
360
35
102
}
102
{ACAD_REACTORS
330
B
102
}
330
B
100
AcDbMaterial
  1
ByLayer
 72
     0
 43
0.0208333333333333
 43
0.0
 43
0.0
 43
0.0
 43
0.0
 43
0.0208333333333333
 43
0.0
 43
0.0
 43
0.0
 43
0.0
 43
1.0
 43
0.0
 43
0.0
 43
0.0
 43
0.0
 43
1.0
 77
     0
 47
0.0208333333333333
 47
0.0
 47
0.0
 47
0.0
 47
0.0
 47
0.0208333333333333
 47
0.0
 47
0.0
 47
0.0
 47
0.0
 47
1.0
 47
0.0
 47
0.0
 47
0.0
 47
0.0
 47
1.0
171
     0
 49
0.0208333333333333
 49
0.0
 49
0.0
 49
0.0
 49
0.0
 49
0.0208333333333333
 49
0.0
 49
0.0
 49
0.0
 49
0.0
 49
1.0
 49
0.0
 49
0.0
 49
0.0
 49
0.0
 49
1.0
175
     0
142
0.0208333333333333
142
0.0
142
0.0
142
0.0
142
0.0
142
0.0208333333333333
142
0.0
142
0.0
142
0.0
142
0.0
142
1.0
142
0.0
142
0.0
142
0.0
142
0.0
142
1.0
179
     0
144
0.0208333333333333
144
0.0
144
0.0
144
0.0
144
0.0
144
0.0208333333333333
144
0.0
144
0.0
144
0.0
144
0.0
144
1.0
144
0.0
144
0.0
144
0.0
144
0.0
144
1.0
147
0.0208333333333333
147
0.0
147
0.0
147
0.0
147
0.0
147
0.0208333333333333
147
0.0
147
0.0
147
0.0
147
0.0
147
1.0
147
0.0
147
0.0
147
0.0
147
0.0
147
1.0
  0
MATERIAL
  5
A
102
{ACAD_XDICTIONARY
360
C
102
}
102
{ACAD_REACTORS
330
B
102
}
330
B
100
AcDbMaterial
  1
Global
 72
     0
 43
0.0208333333333333
 43
0.0
 43
0.0
 43
0.0
 43
0.0
 43
0.0208333333333333
 43
0.0
 43
0.0
 43
0.0
 43
0.0
 43
1.0
 43
0.0
 43
0.0
 43
0.0
 43
0.0
 43
1.0
 77
     0
 47
0.0208333333333333
 47
0.0
 47
0.0
 47
0.0
 47
0.0
 47
0.0208333333333333
 47
0.0
 47
0.0
 47
0.0
 47
0.0
 47
1.0
 47
0.0
 47
0.0
 47
0.0
 47
0.0
 47
1.0
171
     0
 49
0.0208333333333333
 49
0.0
 49
0.0
 49
0.0
 49
0.0
 49
0.0208333333333333
 49
0.0
 49
0.0
 49
0.0
 49
0.0
 49
1.0
 49
0.0
 49
0.0
 49
0.0
 49
0.0
 49
1.0
175
     0
142
0.0208333333333333
142
0.0
142
0.0
142
0.0
142
0.0
142
0.0208333333333333
142
0.0
142
0.0
142
0.0
142
0.0
142
1.0
142
0.0
142
0.0
142
0.0
142
0.0
142
1.0
179
     0
144
0.0208333333333333
144
0.0
144
0.0
144
0.0
144
0.0
144
0.0208333333333333
144
0.0
144
0.0
144
0.0
144
0.0
144
1.0
144
0.0
144
0.0
144
0.0
144
0.0
144
1.0
147
0.0208333333333333
147
0.0
147
0.0
147
0.0
147
0.0
147
0.0208333333333333
147
0.0
147
0.0
147
0.0
147
0.0
147
1.0
147
0.0
147
0.0
147
0.0
147
0.0
147
1.0
  0
MLEADERSTYLE
  5
16B
102
{ACAD_REACTORS
330
47
102
}
330
47
100
AcDbMLeaderStyle
170
     2
171
     1
172
     0
 90
        2
 40
0.0
 41
0.0
173
     1
 91
-1056964608
340
24
 92
       -2
290
     1
 42
2.0
291
     1
 43
0.36
  3
Standard
 44
4.0
300

342
21
174
     1
178
     6
175
     1
176
     0
 93
-1056964608
 45
4.0
292
     0
297
     0
 46
4.0
 94
-1056964608
 47
1.0
 49
1.0
140
1.0
293
     1
141
0.0
294
     1
177
     0
142
1.0
295
     0
296
     0
143
0.125
1001
ACAD_MLEADERVER
1070
     2
  0
MLINESTYLE
  5
48
102
{ACAD_REACTORS
330
32
102
}
330
32
100
AcDbMlineStyle
  2
STANDARD
 70
     0
  3

 62
   256
 51
90.0
 52
90.0
 71
     2
 49
0.5
 62
   256
  6
BYLAYER
 49
-0.5
 62
   256
  6
BYLAYER
  0
ACDBPLACEHOLDER
  5
7
102
{ACAD_REACTORS
330
8
102
}
330
8
  0
SCALE
  5
4D
102
{ACAD_REACTORS
330
45
102
}
330
45
100
AcDbScale
 70
     0
300
1:1
140
1.0
141
1.0
290
     1
  0
SCALE
  5
4E
102
{ACAD_REACTORS
330
45
102
}
330
45
100
AcDbScale
 70
     0
300
1:2
140
1.0
141
2.0
290
     0
  0
SCALE
  5
4F
102
{ACAD_REACTORS
330
45
102
}
330
45
100
AcDbScale
 70
     0
300
1:4
140
1.0
141
4.0
290
     0
  0
SCALE
  5
50
102
{ACAD_REACTORS
330
45
102
}
330
45
100
AcDbScale
 70
     0
300
1:5
140
1.0
141
5.0
290
     0
  0
SCALE
  5
51
102
{ACAD_REACTORS
330
45
102
}
330
45
100
AcDbScale
 70
     0
300
1:8
140
1.0
141
8.0
290
     0
  0
SCALE
  5
52
102
{ACAD_REACTORS
330
45
102
}
330
45
100
AcDbScale
 70
     0
300
1:10
140
1.0
141
10.0
290
     0
  0
SCALE
  5
53
102
{ACAD_REACTORS
330
45
102
}
330
45
100
AcDbScale
 70
     0
300
1:16
140
1.0
141
16.0
290
     0
  0
SCALE
  5
54
102
{ACAD_REACTORS
330
45
102
}
330
45
100
AcDbScale
 70
     0
300
1:20
140
1.0
141
20.0
290
     0
  0
SCALE
  5
55
102
{ACAD_REACTORS
330
45
102
}
330
45
100
AcDbScale
 70
     0
300
1:30
140
1.0
141
30.0
290
     0
  0
SCALE
  5
56
102
{ACAD_REACTORS
330
45
102
}
330
45
100
AcDbScale
 70
     0
300
1:40
140
1.0
141
40.0
290
     0
  0
SCALE
  5
57
102
{ACAD_REACTORS
330
45
102
}
330
45
100
AcDbScale
 70
     0
300
1:50
140
1.0
141
50.0
290
     0
  0
SCALE
  5
58
102
{ACAD_REACTORS
330
45
102
}
330
45
100
AcDbScale
 70
     0
300
1:100
140
1.0
141
100.0
290
     0
  0
SCALE
  5
59
102
{ACAD_REACTORS
330
45
102
}
330
45
100
AcDbScale
 70
     0
300
2:1
140
2.0
141
1.0
290
     0
  0
SCALE
  5
5A
102
{ACAD_REACTORS
330
45
102
}
330
45
100
AcDbScale
 70
     0
300
4:1
140
4.0
141
1.0
290
     0
  0
SCALE
  5
5B
102
{ACAD_REACTORS
330
45
102
}
330
45
100
AcDbScale
 70
     0
300
8:1
140
8.0
141
1.0
290
     0
  0
SCALE
  5
5C
102
{ACAD_REACTORS
330
45
102
}
330
45
100
AcDbScale
 70
     0
300
10:1
140
10.0
141
1.0
290
     0
  0
SCALE
  5
5D
102
{ACAD_REACTORS
330
45
102
}
330
45
100
AcDbScale
 70
     0
300
100:1
140
100.0
141
1.0
290
     0
  0
SCALE
  5
5E
102
{ACAD_REACTORS
330
45
102
}
330
45
100
AcDbScale
 70
     0
300
1/128" = 1'-0"
140
0.0078125
141
12.0
290
     0
  0
SCALE
  5
5F
102
{ACAD_REACTORS
330
45
102
}
330
45
100
AcDbScale
 70
     0
300
1/64" = 1'-0"
140
0.015625
141
12.0
290
     0
  0
SCALE
  5
60
102
{ACAD_REACTORS
330
45
102
}
330
45
100
AcDbScale
 70
     0
300
1/32" = 1'-0"
140
0.03125
141
12.0
290
     0
  0
SCALE
  5
61
102
{ACAD_REACTORS
330
45
102
}
330
45
100
AcDbScale
 70
     0
300
1/16" = 1'-0"
140
0.0625
141
12.0
290
     0
  0
SCALE
  5
62
102
{ACAD_REACTORS
330
45
102
}
330
45
100
AcDbScale
 70
     0
300
3/32" = 1'-0"
140
0.09375
141
12.0
290
     0
  0
SCALE
  5
63
102
{ACAD_REACTORS
330
45
102
}
330
45
100
AcDbScale
 70
     0
300
1/8" = 1'-0"
140
0.125
141
12.0
290
     0
  0
SCALE
  5
64
102
{ACAD_REACTORS
330
45
102
}
330
45
100
AcDbScale
 70
     0
300
3/16" = 1'-0"
140
0.1875
141
12.0
290
     0
  0
SCALE
  5
65
102
{ACAD_REACTORS
330
45
102
}
330
45
100
AcDbScale
 70
     0
300
1/4" = 1'-0"
140
0.25
141
12.0
290
     0
  0
SCALE
  5
66
102
{ACAD_REACTORS
330
45
102
}
330
45
100
AcDbScale
 70
     0
300
3/8" = 1'-0"
140
0.375
141
12.0
290
     0
  0
SCALE
  5
67
102
{ACAD_REACTORS
330
45
102
}
330
45
100
AcDbScale
 70
     0
300
1/2" = 1'-0"
140
0.5
141
12.0
290
     0
  0
SCALE
  5
68
102
{ACAD_REACTORS
330
45
102
}
330
45
100
AcDbScale
 70
     0
300
3/4" = 1'-0"
140
0.75
141
12.0
290
     0
  0
SCALE
  5
69
102
{ACAD_REACTORS
330
45
102
}
330
45
100
AcDbScale
 70
     0
300
1" = 1'-0"
140
1.0
141
12.0
290
     0
  0
SCALE
  5
6A
102
{ACAD_REACTORS
330
45
102
}
330
45
100
AcDbScale
 70
     0
300
1-1/2" = 1'-0"
140
1.5
141
12.0
290
     0
  0
SCALE
  5
6B
102
{ACAD_REACTORS
330
45
102
}
330
45
100
AcDbScale
 70
     0
300
3" = 1'-0"
140
3.0
141
12.0
290
     0
  0
SCALE
  5
6C
102
{ACAD_REACTORS
330
45
102
}
330
45
100
AcDbScale
 70
     0
300
6" = 1'-0"
140
6.0
141
12.0
290
     0
  0
SCALE
  5
6D
102
{ACAD_REACTORS
330
45
102
}
330
45
100
AcDbScale
 70
     0
300
1'-0" = 1'-0"
140
12.0
141
12.0
290
     0
  0
TABLESTYLE
  5
49
102
{ACAD_XDICTIONARY
360
4A
102
}
102
{ACAD_REACTORS
330
46
102
}
330
46
100
AcDbTableStyle
  3
Standard
 70
     0
 71
     0
 40
0.06
 41
0.06
280
     0
281
     0
  7
STANDARD
140
0.18
170
     2
 62
     0
 63
     7
283
     0
274
    -2
284
     1
 64
     0
275
    -2
285
     1
 65
     0
276
    -2
286
     1
 66
     0
277
    -2
287
     1
 67
     0
278
    -2
288
     1
 68
     0
279
    -2
289
     1
 69
     0
  7
STANDARD
140
0.25
170
     5
 62
     0
 63
     7
283
     0
274
    -2
284
     1
 64
     0
275
    -2
285
     1
 65
     0
276
    -2
286
     1
 66
     0
277
    -2
287
     1
 67
     0
278
    -2
288
     1
 68
     0
279
    -2
289
     1
 69
     0
  7
STANDARD
140
0.18
170
     5
 62
     0
 63
     7
283
     0
274
    -2
284
     1
 64
     0
275
    -2
285
     1
 65
     0
276
    -2
286
     1
 66
     0
277
    -2
287
     1
 67
     0
278
    -2
288
     1
 68
     0
279
    -2
289
     1
 69
     0
  0
VISUALSTYLE
  5
2A
102
{ACAD_XDICTIONARY
360
182
102
}
102
{ACAD_REACTORS
330
2B
102
}
330
2B
100
AcDbVisualStyle
  2
2dWireframe
 70
     4
 71
     0
 72
     2
 73
     0
 90
        0
 40
-0.6
 41
-30.0
 62
     5
 63
     7
 74
     1
 91
        4
 64
     7
 65
   257
 75
     1
175
     1
 42
1.0
 92
        0
 66
   257
 43
1.0
 76
     1
 77
     6
 78
     2
 67
     7
 79
     5
170
     0
171
     0
290
     0
174
     0
 93
        1
 44
0.0
173
     0
291
     0
 45
0.0
1001
ACAD
1000
AcDbSavedByObjectVersion
1070
     0
  0
VISUALSTYLE
  5
15A
102
{ACAD_XDICTIONARY
360
193
102
}
102
{ACAD_REACTORS
330
2B
102
}
330
2B
100
AcDbVisualStyle
  2
Basic
 70
     7
 71
     1
 72
     0
 73
     1
 90
        0
 40
-0.6
 41
-30.0
 62
     5
 63
     7
 74
     0
 91
        4
 64
     7
 65
   257
 75
     1
175
     1
 42
1.0
 92
        8
 66
     7
 43
1.0
 76
     1
 77
     6
 78
     2
 67
     7
 79
     5
170
     0
171
     0
290
     0
174
     0
 93
        1
 44
0.0
173
     0
291
     1
 45
0.0
1001
ACAD
1000
AcDbSavedByObjectVersion
1070
     0
  0
VISUALSTYLE
  5
15E
102
{ACAD_XDICTIONARY
360
19B
102
}
102
{ACAD_REACTORS
330
2B
102
}
330
2B
100
AcDbVisualStyle
  2
Brighten
 70
    12
 71
     2
 72
     2
 73
     0
 90
        0
 40
-0.6
 41
-30.0
 62
     5
 63
     7
 74
     1
 91
        4
 64
     7
 65
   257
 75
     1
175
     1
 42
1.0
 92
        8
 66
     7
 43
1.0
 76
     1
 77
     6
 78
     2
 67
     7
 79
     5
170
     0
171
     0
290
     0
174
     0
 93
        1
 44
50.0
173
     0
291
     1
 45
0.0
1001
ACAD
1000
AcDbSavedByObjectVersion
1070
     0
  0
VISUALSTYLE
  5
162
102
{ACAD_XDICTIONARY
360
1A3
102
}
102
{ACAD_REACTORS
330
2B
102
}
330
2B
100
AcDbVisualStyle
  2
ColorChange
 70
    16
 71
     2
 72
     2
 73
     3
 90
        0
 40
-0.6
 41
-30.0
 62
     5
 63
     8
 74
     1
 91
        4
 64
     7
 65
   257
 75
     1
175
     1
 42
1.0
 92
        8
 66
     8
 43
1.0
 76
     1
 77
     6
 78
     2
 67
     7
 79
     5
170
     0
171
     0
290
     0
174
     0
 93
        1
 44
0.0
173
     0
291
     1
 45
0.0
1001
ACAD
1000
AcDbSavedByObjectVersion
1070
     0
  0
VISUALSTYLE
  5
15C
102
{ACAD_XDICTIONARY
360
197
102
}
102
{ACAD_REACTORS
330
2B
102
}
330
2B
100
AcDbVisualStyle
  2
Conceptual
 70
     9
 71
     3
 72
     2
 73
     0
 90
        0
 40
-0.6
 41
-30.0
 62
     5
 63
     7
 74
     2
 91
        2
 64
     7
 65
   257
 75
     1
175
     1
 42
179.0
 92
        8
 66
     7
 43
1.0
 76
     1
 77
     6
 78
     2
 67
     7
 79
     3
170
     0
171
     0
290
     0
174
     0
 93
        1
 44
0.0
173
     0
291
     0
 45
0.0
1001
ACAD
1000
AcDbSavedByObjectVersion
1070
     0
  0
VISUALSTYLE
  5
15D
102
{ACAD_XDICTIONARY
360
199
102
}
102
{ACAD_REACTORS
330
2B
102
}
330
2B
100
AcDbVisualStyle
  2
Dim
 70
    11
 71
     2
 72
     2
 73
     0
 90
        0
 40
-0.6
 41
-30.0
 62
     5
 63
     7
 74
     1
 91
        4
 64
     7
 65
   257
 75
     1
175
     1
 42
1.0
 92
        8
 66
     7
 43
1.0
 76
     1
 77
     6
 78
     2
 67
     7
 79
     5
170
     0
171
     0
290
     0
174
     0
 93
        1
 44
-50.0
173
     0
291
     1
 45
0.0
1001
ACAD
1000
AcDbSavedByObjectVersion
1070
     0
  0
VISUALSTYLE
  5
16A
102
{ACAD_XDICTIONARY
360
1B3
102
}
102
{ACAD_REACTORS
330
2B
102
}
330
2B
100
AcDbVisualStyle
  2
EdgeColorOff
 70
    22
 71
     2
 72
     2
 73
     0
 90
        0
 40
-0.6
 41
-30.0
 62
     5
 63
     7
 74
     1
 91
        4
 64
     7
 65
   257
 75
     1
175
     1
 42
1.0
 92
        8
 66
     7
 43
1.0
 76
     1
 77
     6
 78
     2
 67
     7
 79
     5
170
     0
171
     0
290
     0
174
     0
 93
        1
 44
0.0
173
     0
291
     1
 45
0.0
1001
ACAD
1000
AcDbSavedByObjectVersion
1070
     0
  0
VISUALSTYLE
  5
161
102
{ACAD_XDICTIONARY
360
1A1
102
}
102
{ACAD_REACTORS
330
2B
102
}
330
2B
100
AcDbVisualStyle
  2
Facepattern
 70
    15
 71
     2
 72
     2
 73
     0
 90
        0
 40
-0.6
 41
-30.0
 62
     5
 63
     7
 74
     1
 91
        4
 64
     7
 65
   257
 75
     1
175
     1
 42
1.0
 92
        8
 66
     7
 43
1.0
 76
     1
 77
     6
 78
     2
 67
     7
 79
     5
170
     0
171
     0
290
     0
174
     0
 93
        1
 44
0.0
173
     0
291
     1
 45
0.0
1001
ACAD
1000
AcDbSavedByObjectVersion
1070
     0
  0
VISUALSTYLE
  5
156
102
{ACAD_XDICTIONARY
360
18B
102
}
102
{ACAD_REACTORS
330
2B
102
}
330
2B
100
AcDbVisualStyle
  2
Flat
 70
     0
 71
     2
 72
     1
 73
     1
 90
        2
 40
-0.6
 41
30.0
 62
     5
 63
     7
 74
     0
 91
        0
 64
     7
 65
   257
 75
     1
175
     1
 42
1.0
 92
        8
 66
     7
 43
1.0
 76
     1
 77
     6
 78
     2
 67
     7
 79
     5
170
     0
171
     0
290
     0
174
     0
 93
       13
 44
0.0
173
     0
291
     1
 45
0.0
1001
ACAD
1000
AcDbSavedByObjectVersion
1070
     0
  0
VISUALSTYLE
  5
157
102
{ACAD_XDICTIONARY
360
18D
102
}
102
{ACAD_REACTORS
330
2B
102
}
330
2B
100
AcDbVisualStyle
  2
FlatWithEdges
 70
     1
 71
     2
 72
     1
 73
     1
 90
        2
 40
-0.6
 41
30.0
 62
     5
 63
     7
 74
     1
 91
        0
 64
     7
 65
   257
 75
     1
175
     1
 42
1.0
 92
        0
 66
   257
 43
1.0
 76
     1
 77
     6
 78
     2
 67
     7
 79
     5
170
     0
171
     0
290
     0
174
     0
 93
       13
 44
0.0
173
     0
291
     1
 45
0.0
1001
ACAD
1000
AcDbSavedByObjectVersion
1070
     0
  0
VISUALSTYLE
  5
158
102
{ACAD_XDICTIONARY
360
18F
102
}
102
{ACAD_REACTORS
330
2B
102
}
330
2B
100
AcDbVisualStyle
  2
Gouraud
 70
     2
 71
     2
 72
     2
 73
     1
 90
        2
 40
-0.6
 41
30.0
 62
     5
 63
     7
 74
     0
 91
        0
 64
     7
 65
   257
 75
     1
175
     1
 42
1.0
 92
        0
 66
     7
 43
1.0
 76
     1
 77
     6
 78
     2
 67
     7
 79
     5
170
     0
171
     0
290
     0
174
     0
 93
       13
 44
0.0
173
     0
291
     1
 45
0.0
1001
ACAD
1000
AcDbSavedByObjectVersion
1070
     0
  0
VISUALSTYLE
  5
159
102
{ACAD_XDICTIONARY
360
191
102
}
102
{ACAD_REACTORS
330
2B
102
}
330
2B
100
AcDbVisualStyle
  2
GouraudWithEdges
 70
     3
 71
     2
 72
     2
 73
     1
 90
        2
 40
-0.6
 41
30.0
 62
     5
 63
     7
 74
     1
 91
        0
 64
     7
 65
   257
 75
     1
175
     1
 42
1.0
 92
        0
 66
   257
 43
1.0
 76
     1
 77
     6
 78
     2
 67
     7
 79
     5
170
     0
171
     0
290
     0
174
     0
 93
       13
 44
0.0
173
     0
291
     1
 45
0.0
1001
ACAD
1000
AcDbSavedByObjectVersion
1070
     0
  0
VISUALSTYLE
  5
15B
102
{ACAD_XDICTIONARY
360
195
102
}
102
{ACAD_REACTORS
330
2B
102
}
330
2B
100
AcDbVisualStyle
  2
Hidden
 70
     6
 71
     1
 72
     2
 73
     2
 90
        0
 40
-0.6
 41
-30.0
 62
     5
 63
     7
 74
     2
 91
        2
 64
     7
 65
   257
 75
     2
175
     1
 42
40.0
 92
        0
 66
   257
 43
1.0
 76
     1
 77
     6
 78
     2
 67
     7
 79
     3
170
     0
171
     0
290
     0
174
     0
 93
        1
 44
0.0
173
     0
291
     0
 45
0.0
1001
ACAD
1000
AcDbSavedByObjectVersion
1070
     0
  0
VISUALSTYLE
  5
168
102
{ACAD_XDICTIONARY
360
1AF
102
}
102
{ACAD_REACTORS
330
2B
102
}
330
2B
100
AcDbVisualStyle
  2
JitterOff
 70
    20
 71
     2
 72
     2
 73
     0
 90
        0
 40
-0.6
 41
-30.0
 62
     5
 63
     7
 74
     1
 91
        4
 64
     7
 65
   257
 75
     1
175
     1
 42
1.0
 92
       10
 66
     7
 43
1.0
 76
     1
 77
     6
 78
     2
 67
     7
 79
     5
170
     0
171
     0
290
     0
174
     0
 93
        1
 44
0.0
173
     0
291
     1
 45
0.0
1001
ACAD
1000
AcDbSavedByObjectVersion
1070
     0
  0
VISUALSTYLE
  5
160
102
{ACAD_XDICTIONARY
360
19F
102
}
102
{ACAD_REACTORS
330
2B
102
}
330
2B
100
AcDbVisualStyle
  2
Linepattern
 70
    14
 71
     2
 72
     2
 73
     0
 90
        0
 40
-0.6
 41
-30.0
 62
     5
 63
     7
 74
     1
 91
        4
 64
     7
 65
   257
 75
     7
175
     7
 42
1.0
 92
        8
 66
     7
 43
1.0
 76
     1
 77
     6
 78
     2
 67
     7
 79
     5
170
     0
171
     0
290
     0
174
     0
 93
        1
 44
0.0
173
     0
291
     1
 45
0.0
1001
ACAD
1000
AcDbSavedByObjectVersion
1070
     0
  0
VISUALSTYLE
  5
169
102
{ACAD_XDICTIONARY
360
1B1
102
}
102
{ACAD_REACTORS
330
2B
102
}
330
2B
100
AcDbVisualStyle
  2
OverhangOff
 70
    21
 71
     2
 72
     2
 73
     0
 90
        0
 40
-0.6
 41
-30.0
 62
     5
 63
     7
 74
     1
 91
        4
 64
     7
 65
   257
 75
     1
175
     1
 42
1.0
 92
        9
 66
     7
 43
1.0
 76
     1
 77
     6
 78
     2
 67
     7
 79
     5
170
     0
171
     0
290
     0
174
     0
 93
        1
 44
0.0
173
     0
291
     1
 45
0.0
1001
ACAD
1000
AcDbSavedByObjectVersion
1070
     0
  0
VISUALSTYLE
  5
4B
102
{ACAD_XDICTIONARY
360
187
102
}
102
{ACAD_REACTORS
330
2B
102
}
330
2B
100
AcDbVisualStyle
  2
Realistic
 70
     8
 71
     2
 72
     2
 73
     0
 90
        0
 40
-0.6
 41
-30.0
 62
     5
 63
     7
 74
     1
 91
        0
 64
     7
 65
   257
 75
     1
175
     1
 42
1.0
 92
        8
 66
     8
 43
1.0
 76
     1
 77
     6
 78
     2
 67
     7
 79
     5
170
     0
171
     0
290
     0
174
     0
 93
       13
 44
0.0
173
     0
291
     0
 45
0.0
1001
ACAD
1000
AcDbSavedByObjectVersion
1070
     0
  0
VISUALSTYLE
  5
167
102
{ACAD_XDICTIONARY
360
1AD
102
}
102
{ACAD_REACTORS
330
2B
102
}
330
2B
100
AcDbVisualStyle
  2
Shaded
 70
    27
 71
     2
 72
     2
 73
     1
 90
        2
 40
-0.6
 41
30.0
 62
     5
 63
     7
 74
     0
 91
        4
 64
     7
 65
   257
 75
     1
175
     1
 42
1.0
 92
        8
 66
   257
 43
1.0
 76
     1
 77
     6
 78
     2
 67
     8
 79
     3
170
     0
171
     0
290
     0
174
     0
 93
        5
 44
0.0
173
     0
291
     0
 45
0.0
1001
ACAD
1000
AcDbSavedByObjectVersion
1070
     0
  0
VISUALSTYLE
  5
166
102
{ACAD_XDICTIONARY
360
1AB
102
}
102
{ACAD_REACTORS
330
2B
102
}
330
2B
100
AcDbVisualStyle
  2
Shaded with edges
 70
    26
 71
     2
 72
     2
 73
     1
 90
        2
 40
-0.6
 41
30.0
 62
     5
 63
     7
 74
     1
 91
       10
 64
     7
 65
   257
 75
     2
175
     1
 42
1.0
 92
        8
 66
   257
 43
1.0
 76
     1
 77
     6
 78
     2
 67
     7
 79
     3
170
     0
171
     0
290
     0
174
     0
 93
        5
 44
0.0
173
     0
291
     0
 45
0.0
1001
ACAD
1000
AcDbSavedByObjectVersion
1070
     0
  0
VISUALSTYLE
  5
163
102
{ACAD_XDICTIONARY
360
1A5
102
}
102
{ACAD_REACTORS
330
2B
102
}
330
2B
100
AcDbVisualStyle
  2
Shades of Gray
 70
    23
 71
     2
 72
     2
 73
     3
 90
        0
 40
-0.6
 41
-30.0
 62
     5
 63
     7
 74
     2
 91
        2
 64
     7
 65
     7
 75
     1
175
     1
 42
40.0
 92
        8
 66
     7
 43
1.0
 76
     1
 77
     6
 78
     2
 67
     7
 79
     3
170
     0
171
     0
290
     0
174
     0
 93
        1
 44
0.0
173
     0
291
     0
 45
0.0
1001
ACAD
1000
AcDbSavedByObjectVersion
1070
     0
  0
VISUALSTYLE
  5
164
102
{ACAD_XDICTIONARY
360
1A7
102
}
102
{ACAD_REACTORS
330
2B
102
}
330
2B
100
AcDbVisualStyle
  2
Sketchy
 70
    24
 71
     1
 72
     2
 73
     2
 90
        0
 40
-0.6
 41
-30.0
 62
     5
 63
     7
 74
     2
 91
        2
 64
     7
 65
     7
 75
     1
175
     1
 42
40.0
 92
       11
 66
     7
 43
1.0
 76
     1
 77
     6
 78
     2
 67
     7
 79
     6
170
     0
171
     0
290
     0
174
     0
 93
        1
 44
0.0
173
     0
291
     0
 45
0.0
1001
ACAD
1000
AcDbSavedByObjectVersion
1070
     0
  0
VISUALSTYLE
  5
15F
102
{ACAD_XDICTIONARY
360
19D
102
}
102
{ACAD_REACTORS
330
2B
102
}
330
2B
100
AcDbVisualStyle
  2
Thicken
 70
    13
 71
     2
 72
     2
 73
     0
 90
        0
 40
-0.6
 41
-30.0
 62
     5
 63
     7
 74
     1
 91
        4
 64
     7
 65
   257
 75
     1
175
     1
 42
1.0
 92
       12
 66
     7
 43
1.0
 76
     1
 77
     6
 78
     2
 67
     7
 79
     5
170
     0
171
     0
290
     0
174
     0
 93
        1
 44
0.0
173
     0
291
     1
 45
0.0
1001
ACAD
1000
AcDbSavedByObjectVersion
1070
     0
  0
VISUALSTYLE
  5
4C
102
{ACAD_XDICTIONARY
360
189
102
}
102
{ACAD_REACTORS
330
2B
102
}
330
2B
100
AcDbVisualStyle
  2
Wireframe
 70
     5
 71
     0
 72
     2
 73
     0
 90
        0
 40
-0.6
 41
-30.0
 62
     5
 63
     7
 74
     1
 91
        4
 64
     7
 65
   257
 75
     1
175
     1
 42
1.0
 92
        0
 66
   257
 43
1.0
 76
     1
 77
     6
 78
     2
 67
     7
 79
     3
170
     0
171
     0
290
     0
174
     0
 93
        1
 44
0.0
173
     0
291
     0
 45
0.0
1001
ACAD
1000
AcDbSavedByObjectVersion
1070
     0
  0
VISUALSTYLE
  5
165
102
{ACAD_XDICTIONARY
360
1A9
102
}
102
{ACAD_REACTORS
330
2B
102
}
330
2B
100
AcDbVisualStyle
  2
X-Ray
 70
    25
 71
     2
 72
     2
 73
     1
 90
        1
 40
0.5
 41
-30.0
 62
     5
 63
     7
 74
     1
 91
        0
 64
     7
 65
   257
 75
     1
175
     1
 42
1.0
 92
        8
 66
     7
 43
1.0
 76
     1
 77
     6
 78
     2
 67
     7
 79
     3
170
     0
171
     0
290
     0
174
     0
 93
       13
 44
0.0
173
     0
291
     0
 45
0.0
1001
ACAD
1000
AcDbSavedByObjectVersion
1070
     0
  0
DICTIONARYVAR
  5
151
102
{ACAD_REACTORS
330
14D
102
}
330
14D
100
DictionaryVariables
280
     0
  1
1:1
  0
DICTIONARYVAR
  5
14F
102
{ACAD_REACTORS
330
14D
102
}
330
14D
100
DictionaryVariables
280
     0
  1
STANDARD
  0
DICTIONARYVAR
  5
14E
102
{ACAD_REACTORS
330
14D
102
}
330
14D
100
DictionaryVariables
280
     0
  1
STANDARD
  0
DICTIONARYVAR
  5
174
102
{ACAD_REACTORS
330
14D
102
}
330
14D
100
DictionaryVariables
280
     0
  1
1
  0
DICTIONARYVAR
  5
173
102
{ACAD_REACTORS
330
14D
102
}
330
14D
100
DictionaryVariables
280
     0
  1
1
  0
DICTIONARYVAR
  5
172
102
{ACAD_REACTORS
330
14D
102
}
330
14D
100
DictionaryVariables
280
     0
  1
0
  0
DICTIONARYVAR
  5
153
102
{ACAD_REACTORS
330
14D
102
}
330
14D
100
DictionaryVariables
280
     0
  1
1
  0
DICTIONARYVAR
  5
154
102
{ACAD_REACTORS
330
14D
102
}
330
14D
100
DictionaryVariables
280
     0
  1
15
  0
DICTIONARYVAR
  5
152
102
{ACAD_REACTORS
330
14D
102
}
330
14D
100
DictionaryVariables
280
     0
  1
0
  0
DICTIONARYVAR
  5
150
102
{ACAD_REACTORS
330
14D
102
}
330
14D
100
DictionaryVariables
280
     0
  1
0
  0
DICTIONARYVAR
  5
171
102
{ACAD_REACTORS
330
14D
102
}
330
14D
100
DictionaryVariables
280
     0
  1
127
  0
DICTIONARYVAR
  5
175
102
{ACAD_REACTORS
330
14D
102
}
330
14D
100
DictionaryVariables
280
     0
  1
2
  0
DICTIONARY
  5
180
330
1A
100
AcDbDictionary
280
     1
281
     1
  3
ACAD_XREC_ROUNDTRIP
360
181
  0
DICTIONARY
  5
17E
330
15
100
AcDbDictionary
280
     1
281
     1
  3
ACAD_XREC_ROUNDTRIP
360
17F
  0
DICTIONARY
  5
3D
330
3C
100
AcDbDictionary
280
     1
281
     1
  3
ACAD_XREC_ROUNDTRIP
360
185
  3
BUMPTILE
360
3E
  3
DIFFUSETILE
360
3F
  3
OPACITYTILE
360
40
  3
REFLECTIONTILE
360
41
  3
REFRACTIONTILE
360
42
  3
SPECULARTILE
360
43
  0
DICTIONARY
  5
35
330
34
100
AcDbDictionary
280
     1
281
     1
  3
ACAD_XREC_ROUNDTRIP
360
184
  3
BUMPTILE
360
36
  3
DIFFUSETILE
360
37
  3
OPACITYTILE
360
38
  3
REFLECTIONTILE
360
39
  3
REFRACTIONTILE
360
3A
  3
SPECULARTILE
360
3B
  0
DICTIONARY
  5
C
330
A
100
AcDbDictionary
280
     1
281
     1
  3
ACAD_XREC_ROUNDTRIP
360
17D
  3
BUMPTILE
360
D
  3
DIFFUSETILE
360
E
  3
OPACITYTILE
360
F
  3
REFLECTIONTILE
360
10
  3
REFRACTIONTILE
360
11
  3
SPECULARTILE
360
12
  0
DICTIONARY
  5
4A
330
49
100
AcDbDictionary
280
     1
281
     1
  3
ACAD_ROUNDTRIP_2008_TABLESTYLE_CELLSTYLEMAP
360
176
  3
ACAD_XREC_ROUNDTRIP
360
186
  0
DICTIONARY
  5
182
330
2A
100
AcDbDictionary
280
     1
281
     1
  3
ACAD_XREC_ROUNDTRIP
360
183
  0
DICTIONARY
  5
193
330
15A
100
AcDbDictionary
280
     1
281
     1
  3
ACAD_XREC_ROUNDTRIP
360
194
  0
DICTIONARY
  5
19B
330
15E
100
AcDbDictionary
280
     1
281
     1
  3
ACAD_XREC_ROUNDTRIP
360
19C
  0
DICTIONARY
  5
1A3
330
162
100
AcDbDictionary
280
     1
281
     1
  3
ACAD_XREC_ROUNDTRIP
360
1A4
  0
DICTIONARY
  5
197
330
15C
100
AcDbDictionary
280
     1
281
     1
  3
ACAD_XREC_ROUNDTRIP
360
198
  0
DICTIONARY
  5
199
330
15D
100
AcDbDictionary
280
     1
281
     1
  3
ACAD_XREC_ROUNDTRIP
360
19A
  0
DICTIONARY
  5
1B3
330
16A
100
AcDbDictionary
280
     1
281
     1
  3
ACAD_XREC_ROUNDTRIP
360
1B4
  0
DICTIONARY
  5
1A1
330
161
100
AcDbDictionary
280
     1
281
     1
  3
ACAD_XREC_ROUNDTRIP
360
1A2
  0
DICTIONARY
  5
18B
330
156
100
AcDbDictionary
280
     1
281
     1
  3
ACAD_XREC_ROUNDTRIP
360
18C
  0
DICTIONARY
  5
18D
330
157
100
AcDbDictionary
280
     1
281
     1
  3
ACAD_XREC_ROUNDTRIP
360
18E
  0
DICTIONARY
  5
18F
330
158
100
AcDbDictionary
280
     1
281
     1
  3
ACAD_XREC_ROUNDTRIP
360
190
  0
DICTIONARY
  5
191
330
159
100
AcDbDictionary
280
     1
281
     1
  3
ACAD_XREC_ROUNDTRIP
360
192
  0
DICTIONARY
  5
195
330
15B
100
AcDbDictionary
280
     1
281
     1
  3
ACAD_XREC_ROUNDTRIP
360
196
  0
DICTIONARY
  5
1AF
330
168
100
AcDbDictionary
280
     1
281
     1
  3
ACAD_XREC_ROUNDTRIP
360
1B0
  0
DICTIONARY
  5
19F
330
160
100
AcDbDictionary
280
     1
281
     1
  3
ACAD_XREC_ROUNDTRIP
360
1A0
  0
DICTIONARY
  5
1B1
330
169
100
AcDbDictionary
280
     1
281
     1
  3
ACAD_XREC_ROUNDTRIP
360
1B2
  0
DICTIONARY
  5
187
330
4B
100
AcDbDictionary
280
     1
281
     1
  3
ACAD_XREC_ROUNDTRIP
360
188
  0
DICTIONARY
  5
1AD
330
167
100
AcDbDictionary
280
     1
281
     1
  3
ACAD_XREC_ROUNDTRIP
360
1AE
  0
DICTIONARY
  5
1AB
330
166
100
AcDbDictionary
280
     1
281
     1
  3
ACAD_XREC_ROUNDTRIP
360
1AC
  0
DICTIONARY
  5
1A5
330
163
100
AcDbDictionary
280
     1
281
     1
  3
ACAD_XREC_ROUNDTRIP
360
1A6
  0
DICTIONARY
  5
1A7
330
164
100
AcDbDictionary
280
     1
281
     1
  3
ACAD_XREC_ROUNDTRIP
360
1A8
  0
DICTIONARY
  5
19D
330
15F
100
AcDbDictionary
280
     1
281
     1
  3
ACAD_XREC_ROUNDTRIP
360
19E
  0
DICTIONARY
  5
189
330
4C
100
AcDbDictionary
280
     1
281
     1
  3
ACAD_XREC_ROUNDTRIP
360
18A
  0
DICTIONARY
  5
1A9
330
165
100
AcDbDictionary
280
     1
281
     1
  3
ACAD_XREC_ROUNDTRIP
360
1AA
  0
XRECORD
  5
181
102
{ACAD_REACTORS
330
180
102
}
330
180
100
AcDbXrecord
280
     1
102
SHADEPLOT
 70
     0
102
SHADEPLOTRESLEVEL
 70
     2
102
SHADEPLOTCUSTOMDPI
 70
   300
  0
XRECORD
  5
17F
102
{ACAD_REACTORS
330
17E
102
}
330
17E
100
AcDbXrecord
280
     1
102
SHADEPLOT
 70
     0
102
SHADEPLOTRESLEVEL
 70
     2
102
SHADEPLOTCUSTOMDPI
 70
   300
  0
XRECORD
  5
185
102
{ACAD_REACTORS
330
3D
102
}
330
3D
100
AcDbXrecord
280
     1
102
MATERIAL
148
0.0
149
0.0
149
0.0
 93
        0
 94
      127
282
     0
 72
     0
 77
     0
171
     0
175
     0
179
     0
273
     0
  0
XRECORD
  5
3E
102
{ACAD_REACTORS
330
3D
102
}
330
3D
100
AcDbXrecord
280
     1
270
     1
271
     1
  0
XRECORD
  5
3F
102
{ACAD_REACTORS
330
3D
102
}
330
3D
100
AcDbXrecord
280
     1
270
     1
271
     1
  0
XRECORD
  5
40
102
{ACAD_REACTORS
330
3D
102
}
330
3D
100
AcDbXrecord
280
     1
270
     1
271
     1
  0
XRECORD
  5
41
102
{ACAD_REACTORS
330
3D
102
}
330
3D
100
AcDbXrecord
280
     1
270
     1
271
     1
  0
XRECORD
  5
42
102
{ACAD_REACTORS
330
3D
102
}
330
3D
100
AcDbXrecord
280
     1
270
     1
271
     1
  0
XRECORD
  5
43
102
{ACAD_REACTORS
330
3D
102
}
330
3D
100
AcDbXrecord
280
     1
270
     1
271
     1
  0
XRECORD
  5
184
102
{ACAD_REACTORS
330
35
102
}
330
35
100
AcDbXrecord
280
     1
102
MATERIAL
148
0.0
149
0.0
149
0.0
 93
        0
 94
      127
282
     0
 72
     0
 77
     0
171
     0
175
     0
179
     0
273
     0
  0
XRECORD
  5
36
102
{ACAD_REACTORS
330
35
102
}
330
35
100
AcDbXrecord
280
     1
270
     1
271
     1
  0
XRECORD
  5
37
102
{ACAD_REACTORS
330
35
102
}
330
35
100
AcDbXrecord
280
     1
270
     1
271
     1
  0
XRECORD
  5
38
102
{ACAD_REACTORS
330
35
102
}
330
35
100
AcDbXrecord
280
     1
270
     1
271
     1
  0
XRECORD
  5
39
102
{ACAD_REACTORS
330
35
102
}
330
35
100
AcDbXrecord
280
     1
270
     1
271
     1
  0
XRECORD
  5
3A
102
{ACAD_REACTORS
330
35
102
}
330
35
100
AcDbXrecord
280
     1
270
     1
271
     1
  0
XRECORD
  5
3B
102
{ACAD_REACTORS
330
35
102
}
330
35
100
AcDbXrecord
280
     1
270
     1
271
     1
  0
XRECORD
  5
17D
102
{ACAD_REACTORS
330
C
102
}
330
C
100
AcDbXrecord
280
     1
102
MATERIAL
148
0.0
149
0.0
149
0.0
 93
        0
 94
      127
282
     0
 72
     0
 77
     0
171
     0
175
     0
179
     0
273
     0
  0
XRECORD
  5
D
102
{ACAD_REACTORS
330
C
102
}
330
C
100
AcDbXrecord
280
     1
270
     1
271
     1
  0
XRECORD
  5
E
102
{ACAD_REACTORS
330
C
102
}
330
C
100
AcDbXrecord
280
     1
270
     1
271
     1
  0
XRECORD
  5
F
102
{ACAD_REACTORS
330
C
102
}
330
C
100
AcDbXrecord
280
     1
270
     1
271
     1
  0
XRECORD
  5
10
102
{ACAD_REACTORS
330
C
102
}
330
C
100
AcDbXrecord
280
     1
270
     1
271
     1
  0
XRECORD
  5
11
102
{ACAD_REACTORS
330
C
102
}
330
C
100
AcDbXrecord
280
     1
270
     1
271
     1
  0
XRECORD
  5
12
102
{ACAD_REACTORS
330
C
102
}
330
C
100
AcDbXrecord
280
     1
270
     1
271
     1
  0
CELLSTYLEMAP
  5
176
102
{ACAD_REACTORS
330
4A
102
}
330
4A
100
AcDbCellStyleMap
 90
        3
300
CELLSTYLE
  1
TABLEFORMAT_BEGIN
 90
        5
170
     1
 91
        0
 92
    32768
 62
   257
 93
        1
300
CONTENTFORMAT
  1
CONTENTFORMAT_BEGIN
 90
        0
 91
        0
 92
      512
 93
        0
300

 40
0.0
140
1.0
 94
        5
 62
     0
340
21
144
0.25
309
CONTENTFORMAT_END
171
     0
 94
        0
309
TABLEFORMAT_END
  1
CELLSTYLE_BEGIN
 90
        1
 91
        1
300
_TITLE
309
CELLSTYLE_END
300
CELLSTYLE
  1
TABLEFORMAT_BEGIN
 90
        5
170
     1
 91
        0
 92
        0
 62
   257
 93
        1
300
CONTENTFORMAT
  1
CONTENTFORMAT_BEGIN
 90
        0
 91
        0
 92
      512
 93
        0
300

 40
0.0
140
1.0
 94
        5
 62
     0
340
21
144
0.18
309
CONTENTFORMAT_END
171
     0
 94
        0
309
TABLEFORMAT_END
  1
CELLSTYLE_BEGIN
 90
        2
 91
        1
300
_HEADER
309
CELLSTYLE_END
300
CELLSTYLE
  1
TABLEFORMAT_BEGIN
 90
        5
170
     1
 91
        0
 92
        0
 62
   257
 93
        1
300
CONTENTFORMAT
  1
CONTENTFORMAT_BEGIN
 90
        0
 91
        0
 92
      512
 93
        0
300

 40
0.0
140
1.0
 94
        2
 62
     0
340
21
144
0.18
309
CONTENTFORMAT_END
171
     0
 94
        0
309
TABLEFORMAT_END
  1
CELLSTYLE_BEGIN
 90
        3
 91
        2
300
_DATA
309
CELLSTYLE_END
  0
XRECORD
  5
186
102
{ACAD_REACTORS
330
4A
102
}
330
4A
100
AcDbXrecord
280
     1
102
ACAD_ROUNDTRIP_PRE2007_TABLESTYLE
 90
      512
 91
        0
  1

 92
      512
 93
        0
  2

 94
      512
 95
        0
  3

  0
XRECORD
  5
183
102
{ACAD_REACTORS
330
182
102
}
330
182
100
AcDbXrecord
280
     1
102
RTVSPropertyOp0
 70
     1
102
RTVSPropertyOp1
 70
     1
102
RTVSPropertyOp2
 70
     1
102
RTVSPropertyOp3
 70
     1
102
RTVSPropertyOp4
 70
     1
102
RTVSPropertyOp5
 70
     1
102
RTVSPropertyOp6
 70
     1
102
RTVSPropertyOp7
 70
     1
102
RTVSPropertyOp8
 70
     1
102
RTVSPropertyOp9
 70
     1
102
RTVSPropertyOp10
 70
     1
102
RTVSPropertyOp11
 70
     1
102
RTVSPropertyOp12
 70
     1
102
RTVSPropertyOp13
 70
     1
102
RTVSPropertyOp14
 70
     1
102
RTVSPropertyOp15
 70
     1
102
RTVSPropertyOp16
 70
     1
102
RTVSPropertyOp17
 70
     1
102
RTVSPropertyOp18
 70
     1
102
RTVSPropertyOp19
 70
     1
102
RTVSPropertyOp20
 70
     1
102
RTVSPropertyOp21
 70
     1
102
RTVSPropertyOp22
 70
     1
102
RTVSPropertyOp23
 70
     1
102
RTVSPropertyOp24
 70
     1
102
RTVSPropertyOp25
 70
     1
102
RTVSPropertyOp26
 70
     1
102
RTVSPropertyOp27
 70
     1
102
RTVSPropertyOp28
 70
     1
102
RTVSPropertyOp29
 70
     1
102
RTVSPropertyOp30
 70
     1
102
RTVSPropertyOp31
 70
     1
102
RTVSPropertyOp32
 70
     1
  0
XRECORD
  5
194
102
{ACAD_REACTORS
330
193
102
}
330
193
100
AcDbXrecord
280
     1
102
RTVSPropertyOp0
 70
     1
102
RTVSPropertyOp1
 70
     1
102
RTVSPropertyOp2
 70
     1
102
RTVSPropertyOp3
 70
     1
102
RTVSPropertyOp4
 70
     1
102
RTVSPropertyOp5
 70
     1
102
RTVSPropertyOp6
 70
     1
102
RTVSPropertyOp7
 70
     1
102
RTVSPropertyOp8
 70
     1
102
RTVSPropertyOp9
 70
     1
102
RTVSPropertyOp10
 70
     1
102
RTVSPropertyOp11
 70
     1
102
RTVSPropertyOp12
 70
     1
102
RTVSPropertyOp13
 70
     1
102
RTVSPropertyOp14
 70
     1
102
RTVSPropertyOp15
 70
     1
102
RTVSPropertyOp16
 70
     1
102
RTVSPropertyOp17
 70
     1
102
RTVSPropertyOp18
 70
     1
102
RTVSPropertyOp19
 70
     1
102
RTVSPropertyOp20
 70
     1
102
RTVSPropertyOp21
 70
     1
102
RTVSPropertyOp22
 70
     1
102
RTVSPropertyOp23
 70
     1
102
RTVSPropertyOp24
 70
     1
102
RTVSPropertyOp25
 70
     1
102
RTVSPropertyOp26
 70
     1
102
RTVSPropertyOp27
 70
     1
102
RTVSPropertyOp28
 70
     1
102
RTVSPropertyOp29
 70
     1
102
RTVSPropertyOp30
 70
     1
102
RTVSPropertyOp31
 70
     1
102
RTVSPropertyOp32
 70
     1
  0
XRECORD
  5
19C
102
{ACAD_REACTORS
330
19B
102
}
330
19B
100
AcDbXrecord
280
     1
102
RTVSPropertyOp0
 70
     1
102
RTVSPropertyOp1
 70
     1
102
RTVSPropertyOp2
 70
     1
102
RTVSPropertyOp3
 70
     1
102
RTVSPropertyOp4
 70
     1
102
RTVSPropertyOp5
 70
     1
102
RTVSPropertyOp6
 70
     1
102
RTVSPropertyOp7
 70
     1
102
RTVSPropertyOp8
 70
     1
102
RTVSPropertyOp9
 70
     1
102
RTVSPropertyOp10
 70
     1
102
RTVSPropertyOp11
 70
     1
102
RTVSPropertyOp12
 70
     1
102
RTVSPropertyOp13
 70
     1
102
RTVSPropertyOp14
 70
     1
102
RTVSPropertyOp15
 70
     1
102
RTVSPropertyOp16
 70
     1
102
RTVSPropertyOp17
 70
     1
102
RTVSPropertyOp18
 70
     1
102
RTVSPropertyOp19
 70
     1
102
RTVSPropertyOp20
 70
     1
102
RTVSPropertyOp21
 70
     1
102
RTVSPropertyOp22
 70
     1
102
RTVSPropertyOp23
 70
     1
102
RTVSPropertyOp24
 70
     1
102
RTVSPropertyOp25
 70
     1
102
RTVSPropertyOp26
 70
     1
102
RTVSPropertyOp27
 70
     1
102
RTVSPropertyOp28
 70
     1
102
RTVSPropertyOp29
 70
     1
102
RTVSPropertyOp30
 70
     1
102
RTVSPropertyOp31
 70
     1
102
RTVSPropertyOp32
 70
     1
  0
XRECORD
  5
1A4
102
{ACAD_REACTORS
330
1A3
102
}
330
1A3
100
AcDbXrecord
280
     1
102
RTVSPropertyOp0
 70
     1
102
RTVSPropertyOp1
 70
     1
102
RTVSPropertyOp2
 70
     1
102
RTVSPropertyOp3
 70
     1
102
RTVSPropertyOp4
 70
     1
102
RTVSPropertyOp5
 70
     1
102
RTVSPropertyOp6
 70
     1
102
RTVSPropertyOp7
 70
     1
102
RTVSPropertyOp8
 70
     1
102
RTVSPropertyOp9
 70
     1
102
RTVSPropertyOp10
 70
     1
102
RTVSPropertyOp11
 70
     1
102
RTVSPropertyOp12
 70
     1
102
RTVSPropertyOp13
 70
     1
102
RTVSPropertyOp14
 70
     1
102
RTVSPropertyOp15
 70
     1
102
RTVSPropertyOp16
 70
     1
102
RTVSPropertyOp17
 70
     1
102
RTVSPropertyOp18
 70
     1
102
RTVSPropertyOp19
 70
     1
102
RTVSPropertyOp20
 70
     1
102
RTVSPropertyOp21
 70
     1
102
RTVSPropertyOp22
 70
     1
102
RTVSPropertyOp23
 70
     1
102
RTVSPropertyOp24
 70
     1
102
RTVSPropertyOp25
 70
     1
102
RTVSPropertyOp26
 70
     1
102
RTVSPropertyOp27
 70
     1
102
RTVSPropertyOp28
 70
     1
102
RTVSPropertyOp29
 70
     1
102
RTVSPropertyOp30
 70
     1
102
RTVSPropertyOp31
 70
     1
102
RTVSPropertyOp32
 70
     1
  0
XRECORD
  5
198
102
{ACAD_REACTORS
330
197
102
}
330
197
100
AcDbXrecord
280
     1
102
RTVSPropertyOp0
 70
     1
102
RTVSPropertyOp1
 70
     1
102
RTVSPropertyOp2
 70
     1
102
RTVSPropertyOp3
 70
     1
102
RTVSPropertyOp4
 70
     1
102
RTVSPropertyOp5
 70
     1
102
RTVSPropertyOp6
 70
     1
102
RTVSPropertyOp7
 70
     1
102
RTVSPropertyOp8
 70
     1
102
RTVSPropertyOp9
 70
     1
102
RTVSPropertyOp10
 70
     1
102
RTVSPropertyOp11
 70
     1
102
RTVSPropertyOp12
 70
     1
102
RTVSPropertyOp13
 70
     1
102
RTVSPropertyOp14
 70
     1
102
RTVSPropertyOp15
 70
     1
102
RTVSPropertyOp16
 70
     1
102
RTVSPropertyOp17
 70
     1
102
RTVSPropertyOp18
 70
     1
102
RTVSPropertyOp19
 70
     1
102
RTVSPropertyOp20
 70
     1
102
RTVSPropertyOp21
 70
     1
102
RTVSPropertyOp22
 70
     1
102
RTVSPropertyOp23
 70
     1
102
RTVSPropertyOp24
 70
     1
102
RTVSPropertyOp25
 70
     1
102
RTVSPropertyOp26
 70
     1
102
RTVSPropertyOp27
 70
     1
102
RTVSPropertyOp28
 70
     1
102
RTVSPropertyOp29
 70
     1
102
RTVSPropertyOp30
 70
     1
102
RTVSPropertyOp31
 70
     1
102
RTVSPropertyOp32
 70
     1
  0
XRECORD
  5
19A
102
{ACAD_REACTORS
330
199
102
}
330
199
100
AcDbXrecord
280
     1
102
RTVSPropertyOp0
 70
     1
102
RTVSPropertyOp1
 70
     1
102
RTVSPropertyOp2
 70
     1
102
RTVSPropertyOp3
 70
     1
102
RTVSPropertyOp4
 70
     1
102
RTVSPropertyOp5
 70
     1
102
RTVSPropertyOp6
 70
     1
102
RTVSPropertyOp7
 70
     1
102
RTVSPropertyOp8
 70
     1
102
RTVSPropertyOp9
 70
     1
102
RTVSPropertyOp10
 70
     1
102
RTVSPropertyOp11
 70
     1
102
RTVSPropertyOp12
 70
     1
102
RTVSPropertyOp13
 70
     1
102
RTVSPropertyOp14
 70
     1
102
RTVSPropertyOp15
 70
     1
102
RTVSPropertyOp16
 70
     1
102
RTVSPropertyOp17
 70
     1
102
RTVSPropertyOp18
 70
     1
102
RTVSPropertyOp19
 70
     1
102
RTVSPropertyOp20
 70
     1
102
RTVSPropertyOp21
 70
     1
102
RTVSPropertyOp22
 70
     1
102
RTVSPropertyOp23
 70
     1
102
RTVSPropertyOp24
 70
     1
102
RTVSPropertyOp25
 70
     1
102
RTVSPropertyOp26
 70
     1
102
RTVSPropertyOp27
 70
     1
102
RTVSPropertyOp28
 70
     1
102
RTVSPropertyOp29
 70
     1
102
RTVSPropertyOp30
 70
     1
102
RTVSPropertyOp31
 70
     1
102
RTVSPropertyOp32
 70
     1
  0
XRECORD
  5
1B4
102
{ACAD_REACTORS
330
1B3
102
}
330
1B3
100
AcDbXrecord
280
     1
102
RTVSPropertyOp0
 70
     0
102
RTVSPropertyOp1
 70
     0
102
RTVSPropertyOp2
 70
     0
102
RTVSPropertyOp3
 70
     0
102
RTVSPropertyOp4
 70
     0
102
RTVSPropertyOp5
 70
     0
102
RTVSPropertyOp6
 70
     0
102
RTVSPropertyOp7
 70
     0
102
RTVSPropertyOp8
 70
     0
102
RTVSPropertyOp9
 70
     0
102
RTVSPropertyOp10
 70
     0
102
RTVSPropertyOp11
 70
     0
102
RTVSPropertyOp12
 70
     0
102
RTVSPropertyOp13
 70
     0
102
RTVSPropertyOp14
 70
     2
102
RTVSPropertyOp15
 70
     0
102
RTVSPropertyOp16
 70
     0
102
RTVSPropertyOp17
 70
     0
102
RTVSPropertyOp18
 70
     0
102
RTVSPropertyOp19
 70
     0
102
RTVSPropertyOp20
 70
     0
102
RTVSPropertyOp21
 70
     0
102
RTVSPropertyOp22
 70
     0
102
RTVSPropertyOp23
 70
     0
102
RTVSPropertyOp24
 70
     0
102
RTVSPropertyOp25
 70
     0
102
RTVSPropertyOp26
 70
     0
102
RTVSPropertyOp27
 70
     0
102
RTVSPropertyOp28
 70
     0
102
RTVSPropertyOp29
 70
     0
102
RTVSPropertyOp30
 70
     0
102
RTVSPropertyOp31
 70
     0
102
RTVSPropertyOp32
 70
     0
  0
XRECORD
  5
1A2
102
{ACAD_REACTORS
330
1A1
102
}
330
1A1
100
AcDbXrecord
280
     1
102
RTVSPropertyOp0
 70
     1
102
RTVSPropertyOp1
 70
     1
102
RTVSPropertyOp2
 70
     1
102
RTVSPropertyOp3
 70
     1
102
RTVSPropertyOp4
 70
     1
102
RTVSPropertyOp5
 70
     1
102
RTVSPropertyOp6
 70
     1
102
RTVSPropertyOp7
 70
     1
102
RTVSPropertyOp8
 70
     1
102
RTVSPropertyOp9
 70
     1
102
RTVSPropertyOp10
 70
     1
102
RTVSPropertyOp11
 70
     1
102
RTVSPropertyOp12
 70
     1
102
RTVSPropertyOp13
 70
     1
102
RTVSPropertyOp14
 70
     1
102
RTVSPropertyOp15
 70
     1
102
RTVSPropertyOp16
 70
     1
102
RTVSPropertyOp17
 70
     1
102
RTVSPropertyOp18
 70
     1
102
RTVSPropertyOp19
 70
     1
102
RTVSPropertyOp20
 70
     1
102
RTVSPropertyOp21
 70
     1
102
RTVSPropertyOp22
 70
     1
102
RTVSPropertyOp23
 70
     1
102
RTVSPropertyOp24
 70
     1
102
RTVSPropertyOp25
 70
     1
102
RTVSPropertyOp26
 70
     1
102
RTVSPropertyOp27
 70
     1
102
RTVSPropertyOp28
 70
     1
102
RTVSPropertyOp29
 70
     1
102
RTVSPropertyOp30
 70
     1
102
RTVSPropertyOp31
 70
     1
102
RTVSPropertyOp32
 70
     1
  0
XRECORD
  5
18C
102
{ACAD_REACTORS
330
18B
102
}
330
18B
100
AcDbXrecord
280
     1
102
RTVSPropertyOp0
 70
     1
102
RTVSPropertyOp1
 70
     1
102
RTVSPropertyOp2
 70
     1
102
RTVSPropertyOp3
 70
     1
102
RTVSPropertyOp4
 70
     1
102
RTVSPropertyOp5
 70
     1
102
RTVSPropertyOp6
 70
     1
102
RTVSPropertyOp7
 70
     1
102
RTVSPropertyOp8
 70
     1
102
RTVSPropertyOp9
 70
     1
102
RTVSPropertyOp10
 70
     1
102
RTVSPropertyOp11
 70
     1
102
RTVSPropertyOp12
 70
     1
102
RTVSPropertyOp13
 70
     1
102
RTVSPropertyOp14
 70
     1
102
RTVSPropertyOp15
 70
     1
102
RTVSPropertyOp16
 70
     1
102
RTVSPropertyOp17
 70
     1
102
RTVSPropertyOp18
 70
     1
102
RTVSPropertyOp19
 70
     1
102
RTVSPropertyOp20
 70
     1
102
RTVSPropertyOp21
 70
     1
102
RTVSPropertyOp22
 70
     1
102
RTVSPropertyOp23
 70
     1
102
RTVSPropertyOp24
 70
     1
102
RTVSPropertyOp25
 70
     1
102
RTVSPropertyOp26
 70
     1
102
RTVSPropertyOp27
 70
     1
102
RTVSPropertyOp28
 70
     1
102
RTVSPropertyOp29
 70
     1
102
RTVSPropertyOp30
 70
     1
102
RTVSPropertyOp31
 70
     1
102
RTVSPropertyOp32
 70
     1
  0
XRECORD
  5
18E
102
{ACAD_REACTORS
330
18D
102
}
330
18D
100
AcDbXrecord
280
     1
102
RTVSPropertyOp0
 70
     1
102
RTVSPropertyOp1
 70
     1
102
RTVSPropertyOp2
 70
     1
102
RTVSPropertyOp3
 70
     1
102
RTVSPropertyOp4
 70
     1
102
RTVSPropertyOp5
 70
     1
102
RTVSPropertyOp6
 70
     1
102
RTVSPropertyOp7
 70
     1
102
RTVSPropertyOp8
 70
     1
102
RTVSPropertyOp9
 70
     1
102
RTVSPropertyOp10
 70
     1
102
RTVSPropertyOp11
 70
     1
102
RTVSPropertyOp12
 70
     1
102
RTVSPropertyOp13
 70
     1
102
RTVSPropertyOp14
 70
     1
102
RTVSPropertyOp15
 70
     1
102
RTVSPropertyOp16
 70
     1
102
RTVSPropertyOp17
 70
     1
102
RTVSPropertyOp18
 70
     1
102
RTVSPropertyOp19
 70
     1
102
RTVSPropertyOp20
 70
     1
102
RTVSPropertyOp21
 70
     1
102
RTVSPropertyOp22
 70
     1
102
RTVSPropertyOp23
 70
     1
102
RTVSPropertyOp24
 70
     1
102
RTVSPropertyOp25
 70
     1
102
RTVSPropertyOp26
 70
     1
102
RTVSPropertyOp27
 70
     1
102
RTVSPropertyOp28
 70
     1
102
RTVSPropertyOp29
 70
     1
102
RTVSPropertyOp30
 70
     1
102
RTVSPropertyOp31
 70
     1
102
RTVSPropertyOp32
 70
     1
  0
XRECORD
  5
190
102
{ACAD_REACTORS
330
18F
102
}
330
18F
100
AcDbXrecord
280
     1
102
RTVSPropertyOp0
 70
     1
102
RTVSPropertyOp1
 70
     1
102
RTVSPropertyOp2
 70
     1
102
RTVSPropertyOp3
 70
     1
102
RTVSPropertyOp4
 70
     1
102
RTVSPropertyOp5
 70
     1
102
RTVSPropertyOp6
 70
     1
102
RTVSPropertyOp7
 70
     1
102
RTVSPropertyOp8
 70
     1
102
RTVSPropertyOp9
 70
     1
102
RTVSPropertyOp10
 70
     1
102
RTVSPropertyOp11
 70
     1
102
RTVSPropertyOp12
 70
     1
102
RTVSPropertyOp13
 70
     1
102
RTVSPropertyOp14
 70
     1
102
RTVSPropertyOp15
 70
     1
102
RTVSPropertyOp16
 70
     1
102
RTVSPropertyOp17
 70
     1
102
RTVSPropertyOp18
 70
     1
102
RTVSPropertyOp19
 70
     1
102
RTVSPropertyOp20
 70
     1
102
RTVSPropertyOp21
 70
     1
102
RTVSPropertyOp22
 70
     1
102
RTVSPropertyOp23
 70
     1
102
RTVSPropertyOp24
 70
     1
102
RTVSPropertyOp25
 70
     1
102
RTVSPropertyOp26
 70
     1
102
RTVSPropertyOp27
 70
     1
102
RTVSPropertyOp28
 70
     1
102
RTVSPropertyOp29
 70
     1
102
RTVSPropertyOp30
 70
     1
102
RTVSPropertyOp31
 70
     1
102
RTVSPropertyOp32
 70
     1
  0
XRECORD
  5
192
102
{ACAD_REACTORS
330
191
102
}
330
191
100
AcDbXrecord
280
     1
102
RTVSPropertyOp0
 70
     1
102
RTVSPropertyOp1
 70
     1
102
RTVSPropertyOp2
 70
     1
102
RTVSPropertyOp3
 70
     1
102
RTVSPropertyOp4
 70
     1
102
RTVSPropertyOp5
 70
     1
102
RTVSPropertyOp6
 70
     1
102
RTVSPropertyOp7
 70
     1
102
RTVSPropertyOp8
 70
     1
102
RTVSPropertyOp9
 70
     1
102
RTVSPropertyOp10
 70
     1
102
RTVSPropertyOp11
 70
     1
102
RTVSPropertyOp12
 70
     1
102
RTVSPropertyOp13
 70
     1
102
RTVSPropertyOp14
 70
     1
102
RTVSPropertyOp15
 70
     1
102
RTVSPropertyOp16
 70
     1
102
RTVSPropertyOp17
 70
     1
102
RTVSPropertyOp18
 70
     1
102
RTVSPropertyOp19
 70
     1
102
RTVSPropertyOp20
 70
     1
102
RTVSPropertyOp21
 70
     1
102
RTVSPropertyOp22
 70
     1
102
RTVSPropertyOp23
 70
     1
102
RTVSPropertyOp24
 70
     1
102
RTVSPropertyOp25
 70
     1
102
RTVSPropertyOp26
 70
     1
102
RTVSPropertyOp27
 70
     1
102
RTVSPropertyOp28
 70
     1
102
RTVSPropertyOp29
 70
     1
102
RTVSPropertyOp30
 70
     1
102
RTVSPropertyOp31
 70
     1
102
RTVSPropertyOp32
 70
     1
  0
XRECORD
  5
196
102
{ACAD_REACTORS
330
195
102
}
330
195
100
AcDbXrecord
280
     1
102
RTVSPropertyOp0
 70
     1
102
RTVSPropertyOp1
 70
     1
102
RTVSPropertyOp2
 70
     1
102
RTVSPropertyOp3
 70
     1
102
RTVSPropertyOp4
 70
     1
102
RTVSPropertyOp5
 70
     1
102
RTVSPropertyOp6
 70
     1
102
RTVSPropertyOp7
 70
     1
102
RTVSPropertyOp8
 70
     1
102
RTVSPropertyOp9
 70
     1
102
RTVSPropertyOp10
 70
     1
102
RTVSPropertyOp11
 70
     1
102
RTVSPropertyOp12
 70
     1
102
RTVSPropertyOp13
 70
     1
102
RTVSPropertyOp14
 70
     1
102
RTVSPropertyOp15
 70
     1
102
RTVSPropertyOp16
 70
     1
102
RTVSPropertyOp17
 70
     1
102
RTVSPropertyOp18
 70
     1
102
RTVSPropertyOp19
 70
     1
102
RTVSPropertyOp20
 70
     1
102
RTVSPropertyOp21
 70
     1
102
RTVSPropertyOp22
 70
     1
102
RTVSPropertyOp23
 70
     1
102
RTVSPropertyOp24
 70
     1
102
RTVSPropertyOp25
 70
     1
102
RTVSPropertyOp26
 70
     1
102
RTVSPropertyOp27
 70
     1
102
RTVSPropertyOp28
 70
     1
102
RTVSPropertyOp29
 70
     1
102
RTVSPropertyOp30
 70
     1
102
RTVSPropertyOp31
 70
     1
102
RTVSPropertyOp32
 70
     1
  0
XRECORD
  5
1B0
102
{ACAD_REACTORS
330
1AF
102
}
330
1AF
100
AcDbXrecord
280
     1
102
RTVSPropertyOp0
 70
     0
102
RTVSPropertyOp1
 70
     0
102
RTVSPropertyOp2
 70
     0
102
RTVSPropertyOp3
 70
     0
102
RTVSPropertyOp4
 70
     0
102
RTVSPropertyOp5
 70
     0
102
RTVSPropertyOp6
 70
     0
102
RTVSPropertyOp7
 70
     0
102
RTVSPropertyOp8
 70
     0
102
RTVSPropertyOp9
 70
     0
102
RTVSPropertyOp10
 70
     0
102
RTVSPropertyOp11
 70
     0
102
RTVSPropertyOp12
 70
     0
102
RTVSPropertyOp13
 70
     0
102
RTVSPropertyOp14
 70
     2
102
RTVSPropertyOp15
 70
     0
102
RTVSPropertyOp16
 70
     0
102
RTVSPropertyOp17
 70
     0
102
RTVSPropertyOp18
 70
     0
102
RTVSPropertyOp19
 70
     0
102
RTVSPropertyOp20
 70
     0
102
RTVSPropertyOp21
 70
     0
102
RTVSPropertyOp22
 70
     0
102
RTVSPropertyOp23
 70
     0
102
RTVSPropertyOp24
 70
     0
102
RTVSPropertyOp25
 70
     0
102
RTVSPropertyOp26
 70
     0
102
RTVSPropertyOp27
 70
     0
102
RTVSPropertyOp28
 70
     0
102
RTVSPropertyOp29
 70
     0
102
RTVSPropertyOp30
 70
     0
102
RTVSPropertyOp31
 70
     0
102
RTVSPropertyOp32
 70
     0
  0
XRECORD
  5
1A0
102
{ACAD_REACTORS
330
19F
102
}
330
19F
100
AcDbXrecord
280
     1
102
RTVSPropertyOp0
 70
     1
102
RTVSPropertyOp1
 70
     1
102
RTVSPropertyOp2
 70
     1
102
RTVSPropertyOp3
 70
     1
102
RTVSPropertyOp4
 70
     1
102
RTVSPropertyOp5
 70
     1
102
RTVSPropertyOp6
 70
     1
102
RTVSPropertyOp7
 70
     1
102
RTVSPropertyOp8
 70
     1
102
RTVSPropertyOp9
 70
     1
102
RTVSPropertyOp10
 70
     1
102
RTVSPropertyOp11
 70
     1
102
RTVSPropertyOp12
 70
     1
102
RTVSPropertyOp13
 70
     1
102
RTVSPropertyOp14
 70
     1
102
RTVSPropertyOp15
 70
     1
102
RTVSPropertyOp16
 70
     1
102
RTVSPropertyOp17
 70
     1
102
RTVSPropertyOp18
 70
     1
102
RTVSPropertyOp19
 70
     1
102
RTVSPropertyOp20
 70
     1
102
RTVSPropertyOp21
 70
     1
102
RTVSPropertyOp22
 70
     1
102
RTVSPropertyOp23
 70
     1
102
RTVSPropertyOp24
 70
     1
102
RTVSPropertyOp25
 70
     1
102
RTVSPropertyOp26
 70
     1
102
RTVSPropertyOp27
 70
     1
102
RTVSPropertyOp28
 70
     1
102
RTVSPropertyOp29
 70
     1
102
RTVSPropertyOp30
 70
     1
102
RTVSPropertyOp31
 70
     1
102
RTVSPropertyOp32
 70
     1
  0
XRECORD
  5
1B2
102
{ACAD_REACTORS
330
1B1
102
}
330
1B1
100
AcDbXrecord
280
     1
102
RTVSPropertyOp0
 70
     0
102
RTVSPropertyOp1
 70
     0
102
RTVSPropertyOp2
 70
     0
102
RTVSPropertyOp3
 70
     0
102
RTVSPropertyOp4
 70
     0
102
RTVSPropertyOp5
 70
     0
102
RTVSPropertyOp6
 70
     0
102
RTVSPropertyOp7
 70
     0
102
RTVSPropertyOp8
 70
     0
102
RTVSPropertyOp9
 70
     0
102
RTVSPropertyOp10
 70
     0
102
RTVSPropertyOp11
 70
     0
102
RTVSPropertyOp12
 70
     0
102
RTVSPropertyOp13
 70
     0
102
RTVSPropertyOp14
 70
     2
102
RTVSPropertyOp15
 70
     0
102
RTVSPropertyOp16
 70
     0
102
RTVSPropertyOp17
 70
     0
102
RTVSPropertyOp18
 70
     0
102
RTVSPropertyOp19
 70
     0
102
RTVSPropertyOp20
 70
     0
102
RTVSPropertyOp21
 70
     0
102
RTVSPropertyOp22
 70
     0
102
RTVSPropertyOp23
 70
     0
102
RTVSPropertyOp24
 70
     0
102
RTVSPropertyOp25
 70
     0
102
RTVSPropertyOp26
 70
     0
102
RTVSPropertyOp27
 70
     0
102
RTVSPropertyOp28
 70
     0
102
RTVSPropertyOp29
 70
     0
102
RTVSPropertyOp30
 70
     0
102
RTVSPropertyOp31
 70
     0
102
RTVSPropertyOp32
 70
     0
  0
XRECORD
  5
188
102
{ACAD_REACTORS
330
187
102
}
330
187
100
AcDbXrecord
280
     1
102
RTVSPropertyOp0
 70
     1
102
RTVSPropertyOp1
 70
     1
102
RTVSPropertyOp2
 70
     1
102
RTVSPropertyOp3
 70
     1
102
RTVSPropertyOp4
 70
     1
102
RTVSPropertyOp5
 70
     1
102
RTVSPropertyOp6
 70
     1
102
RTVSPropertyOp7
 70
     1
102
RTVSPropertyOp8
 70
     1
102
RTVSPropertyOp9
 70
     1
102
RTVSPropertyOp10
 70
     1
102
RTVSPropertyOp11
 70
     1
102
RTVSPropertyOp12
 70
     1
102
RTVSPropertyOp13
 70
     1
102
RTVSPropertyOp14
 70
     1
102
RTVSPropertyOp15
 70
     1
102
RTVSPropertyOp16
 70
     1
102
RTVSPropertyOp17
 70
     1
102
RTVSPropertyOp18
 70
     1
102
RTVSPropertyOp19
 70
     1
102
RTVSPropertyOp20
 70
     1
102
RTVSPropertyOp21
 70
     1
102
RTVSPropertyOp22
 70
     1
102
RTVSPropertyOp23
 70
     1
102
RTVSPropertyOp24
 70
     1
102
RTVSPropertyOp25
 70
     1
102
RTVSPropertyOp26
 70
     1
102
RTVSPropertyOp27
 70
     1
102
RTVSPropertyOp28
 70
     1
102
RTVSPropertyOp29
 70
     1
102
RTVSPropertyOp30
 70
     1
102
RTVSPropertyOp31
 70
     1
102
RTVSPropertyOp32
 70
     1
  0
XRECORD
  5
1AE
102
{ACAD_REACTORS
330
1AD
102
}
330
1AD
100
AcDbXrecord
280
     1
102
RTVSPropertyOp0
 70
     1
102
RTVSPropertyOp1
 70
     1
102
RTVSPropertyOp2
 70
     1
102
RTVSPropertyOp3
 70
     1
102
RTVSPropertyOp4
 70
     1
102
RTVSPropertyOp5
 70
     1
102
RTVSPropertyOp6
 70
     1
102
RTVSPropertyOp7
 70
     1
102
RTVSPropertyOp8
 70
     1
102
RTVSPropertyOp9
 70
     1
102
RTVSPropertyOp10
 70
     1
102
RTVSPropertyOp11
 70
     1
102
RTVSPropertyOp12
 70
     1
102
RTVSPropertyOp13
 70
     1
102
RTVSPropertyOp14
 70
     1
102
RTVSPropertyOp15
 70
     1
102
RTVSPropertyOp16
 70
     1
102
RTVSPropertyOp17
 70
     1
102
RTVSPropertyOp18
 70
     1
102
RTVSPropertyOp19
 70
     1
102
RTVSPropertyOp20
 70
     1
102
RTVSPropertyOp21
 70
     1
102
RTVSPropertyOp22
 70
     1
102
RTVSPropertyOp23
 70
     1
102
RTVSPropertyOp24
 70
     1
102
RTVSPropertyOp25
 70
     1
102
RTVSPropertyOp26
 70
     1
102
RTVSPropertyOp27
 70
     1
102
RTVSPropertyOp28
 70
     1
102
RTVSPropertyOp29
 70
     1
102
RTVSPropertyOp30
 70
     1
102
RTVSPropertyOp31
 70
     1
102
RTVSPropertyOp32
 70
     1
  0
XRECORD
  5
1AC
102
{ACAD_REACTORS
330
1AB
102
}
330
1AB
100
AcDbXrecord
280
     1
102
RTVSPropertyOp0
 70
     1
102
RTVSPropertyOp1
 70
     1
102
RTVSPropertyOp2
 70
     1
102
RTVSPropertyOp3
 70
     1
102
RTVSPropertyOp4
 70
     1
102
RTVSPropertyOp5
 70
     1
102
RTVSPropertyOp6
 70
     1
102
RTVSPropertyOp7
 70
     1
102
RTVSPropertyOp8
 70
     1
102
RTVSPropertyOp9
 70
     1
102
RTVSPropertyOp10
 70
     1
102
RTVSPropertyOp11
 70
     1
102
RTVSPropertyOp12
 70
     1
102
RTVSPropertyOp13
 70
     1
102
RTVSPropertyOp14
 70
     1
102
RTVSPropertyOp15
 70
     1
102
RTVSPropertyOp16
 70
     1
102
RTVSPropertyOp17
 70
     1
102
RTVSPropertyOp18
 70
     1
102
RTVSPropertyOp19
 70
     1
102
RTVSPropertyOp20
 70
     1
102
RTVSPropertyOp21
 70
     1
102
RTVSPropertyOp22
 70
     1
102
RTVSPropertyOp23
 70
     1
102
RTVSPropertyOp24
 70
     1
102
RTVSPropertyOp25
 70
     1
102
RTVSPropertyOp26
 70
     1
102
RTVSPropertyOp27
 70
     1
102
RTVSPropertyOp28
 70
     1
102
RTVSPropertyOp29
 70
     1
102
RTVSPropertyOp30
 70
     1
102
RTVSPropertyOp31
 70
     1
102
RTVSPropertyOp32
 70
     1
  0
XRECORD
  5
1A6
102
{ACAD_REACTORS
330
1A5
102
}
330
1A5
100
AcDbXrecord
280
     1
102
RTVSPropertyOp0
 70
     1
102
RTVSPropertyOp1
 70
     1
102
RTVSPropertyOp2
 70
     1
102
RTVSPropertyOp3
 70
     1
102
RTVSPropertyOp4
 70
     1
102
RTVSPropertyOp5
 70
     1
102
RTVSPropertyOp6
 70
     1
102
RTVSPropertyOp7
 70
     1
102
RTVSPropertyOp8
 70
     1
102
RTVSPropertyOp9
 70
     1
102
RTVSPropertyOp10
 70
     1
102
RTVSPropertyOp11
 70
     1
102
RTVSPropertyOp12
 70
     1
102
RTVSPropertyOp13
 70
     1
102
RTVSPropertyOp14
 70
     1
102
RTVSPropertyOp15
 70
     1
102
RTVSPropertyOp16
 70
     1
102
RTVSPropertyOp17
 70
     1
102
RTVSPropertyOp18
 70
     1
102
RTVSPropertyOp19
 70
     1
102
RTVSPropertyOp20
 70
     1
102
RTVSPropertyOp21
 70
     1
102
RTVSPropertyOp22
 70
     1
102
RTVSPropertyOp23
 70
     1
102
RTVSPropertyOp24
 70
     1
102
RTVSPropertyOp25
 70
     1
102
RTVSPropertyOp26
 70
     1
102
RTVSPropertyOp27
 70
     1
102
RTVSPropertyOp28
 70
     1
102
RTVSPropertyOp29
 70
     1
102
RTVSPropertyOp30
 70
     1
102
RTVSPropertyOp31
 70
     1
102
RTVSPropertyOp32
 70
     1
  0
XRECORD
  5
1A8
102
{ACAD_REACTORS
330
1A7
102
}
330
1A7
100
AcDbXrecord
280
     1
102
RTVSPropertyOp0
 70
     1
102
RTVSPropertyOp1
 70
     1
102
RTVSPropertyOp2
 70
     1
102
RTVSPropertyOp3
 70
     1
102
RTVSPropertyOp4
 70
     1
102
RTVSPropertyOp5
 70
     1
102
RTVSPropertyOp6
 70
     1
102
RTVSPropertyOp7
 70
     1
102
RTVSPropertyOp8
 70
     1
102
RTVSPropertyOp9
 70
     1
102
RTVSPropertyOp10
 70
     1
102
RTVSPropertyOp11
 70
     1
102
RTVSPropertyOp12
 70
     1
102
RTVSPropertyOp13
 70
     1
102
RTVSPropertyOp14
 70
     1
102
RTVSPropertyOp15
 70
     1
102
RTVSPropertyOp16
 70
     1
102
RTVSPropertyOp17
 70
     1
102
RTVSPropertyOp18
 70
     1
102
RTVSPropertyOp19
 70
     1
102
RTVSPropertyOp20
 70
     1
102
RTVSPropertyOp21
 70
     1
102
RTVSPropertyOp22
 70
     1
102
RTVSPropertyOp23
 70
     1
102
RTVSPropertyOp24
 70
     1
102
RTVSPropertyOp25
 70
     1
102
RTVSPropertyOp26
 70
     1
102
RTVSPropertyOp27
 70
     1
102
RTVSPropertyOp28
 70
     1
102
RTVSPropertyOp29
 70
     1
102
RTVSPropertyOp30
 70
     1
102
RTVSPropertyOp31
 70
     1
102
RTVSPropertyOp32
 70
     1
  0
XRECORD
  5
19E
102
{ACAD_REACTORS
330
19D
102
}
330
19D
100
AcDbXrecord
280
     1
102
RTVSPropertyOp0
 70
     1
102
RTVSPropertyOp1
 70
     1
102
RTVSPropertyOp2
 70
     1
102
RTVSPropertyOp3
 70
     1
102
RTVSPropertyOp4
 70
     1
102
RTVSPropertyOp5
 70
     1
102
RTVSPropertyOp6
 70
     1
102
RTVSPropertyOp7
 70
     1
102
RTVSPropertyOp8
 70
     1
102
RTVSPropertyOp9
 70
     1
102
RTVSPropertyOp10
 70
     1
102
RTVSPropertyOp11
 70
     1
102
RTVSPropertyOp12
 70
     1
102
RTVSPropertyOp13
 70
     1
102
RTVSPropertyOp14
 70
     1
102
RTVSPropertyOp15
 70
     1
102
RTVSPropertyOp16
 70
     1
102
RTVSPropertyOp17
 70
     1
102
RTVSPropertyOp18
 70
     1
102
RTVSPropertyOp19
 70
     1
102
RTVSPropertyOp20
 70
     1
102
RTVSPropertyOp21
 70
     1
102
RTVSPropertyOp22
 70
     1
102
RTVSPropertyOp23
 70
     1
102
RTVSPropertyOp24
 70
     1
102
RTVSPropertyOp25
 70
     1
102
RTVSPropertyOp26
 70
     1
102
RTVSPropertyOp27
 70
     1
102
RTVSPropertyOp28
 70
     1
102
RTVSPropertyOp29
 70
     1
102
RTVSPropertyOp30
 70
     1
102
RTVSPropertyOp31
 70
     1
102
RTVSPropertyOp32
 70
     1
  0
XRECORD
  5
18A
102
{ACAD_REACTORS
330
189
102
}
330
189
100
AcDbXrecord
280
     1
102
RTVSPropertyOp0
 70
     1
102
RTVSPropertyOp1
 70
     1
102
RTVSPropertyOp2
 70
     1
102
RTVSPropertyOp3
 70
     1
102
RTVSPropertyOp4
 70
     1
102
RTVSPropertyOp5
 70
     1
102
RTVSPropertyOp6
 70
     1
102
RTVSPropertyOp7
 70
     1
102
RTVSPropertyOp8
 70
     1
102
RTVSPropertyOp9
 70
     1
102
RTVSPropertyOp10
 70
     1
102
RTVSPropertyOp11
 70
     1
102
RTVSPropertyOp12
 70
     1
102
RTVSPropertyOp13
 70
     1
102
RTVSPropertyOp14
 70
     1
102
RTVSPropertyOp15
 70
     1
102
RTVSPropertyOp16
 70
     1
102
RTVSPropertyOp17
 70
     1
102
RTVSPropertyOp18
 70
     1
102
RTVSPropertyOp19
 70
     1
102
RTVSPropertyOp20
 70
     1
102
RTVSPropertyOp21
 70
     1
102
RTVSPropertyOp22
 70
     1
102
RTVSPropertyOp23
 70
     1
102
RTVSPropertyOp24
 70
     1
102
RTVSPropertyOp25
 70
     1
102
RTVSPropertyOp26
 70
     1
102
RTVSPropertyOp27
 70
     1
102
RTVSPropertyOp28
 70
     1
102
RTVSPropertyOp29
 70
     1
102
RTVSPropertyOp30
 70
     1
102
RTVSPropertyOp31
 70
     1
102
RTVSPropertyOp32
 70
     1
  0
XRECORD
  5
1AA
102
{ACAD_REACTORS
330
1A9
102
}
330
1A9
100
AcDbXrecord
280
     1
102
RTVSPropertyOp0
 70
     1
102
RTVSPropertyOp1
 70
     1
102
RTVSPropertyOp2
 70
     1
102
RTVSPropertyOp3
 70
     1
102
RTVSPropertyOp4
 70
     1
102
RTVSPropertyOp5
 70
     1
102
RTVSPropertyOp6
 70
     1
102
RTVSPropertyOp7
 70
     1
102
RTVSPropertyOp8
 70
     1
102
RTVSPropertyOp9
 70
     1
102
RTVSPropertyOp10
 70
     1
102
RTVSPropertyOp11
 70
     1
102
RTVSPropertyOp12
 70
     1
102
RTVSPropertyOp13
 70
     1
102
RTVSPropertyOp14
 70
     1
102
RTVSPropertyOp15
 70
     1
102
RTVSPropertyOp16
 70
     1
102
RTVSPropertyOp17
 70
     1
102
RTVSPropertyOp18
 70
     1
102
RTVSPropertyOp19
 70
     1
102
RTVSPropertyOp20
 70
     1
102
RTVSPropertyOp21
 70
     1
102
RTVSPropertyOp22
 70
     1
102
RTVSPropertyOp23
 70
     1
102
RTVSPropertyOp24
 70
     1
102
RTVSPropertyOp25
 70
     1
102
RTVSPropertyOp26
 70
     1
102
RTVSPropertyOp27
 70
     1
102
RTVSPropertyOp28
 70
     1
102
RTVSPropertyOp29
 70
     1
102
RTVSPropertyOp30
 70
     1
102
RTVSPropertyOp31
 70
     1
102
RTVSPropertyOp32
 70
     1
  0
ENDSEC
  0
EOF
