  0
SECTION
  2
HEADER
  9
$ACADVER
  1
AC1015
  9
$ACADMAINTVER
 70
    18
  9
$DWGCODEPAGE
  3
ANSI_1252
  9
$INSBASE
 10
0.0
 20
0.0
 30
0.0
  9
$EXTMIN
 10
-118.7802555486332
 20
-84.46444516170846
 30
-0.0015258207003583
  9
$EXTMAX
 10
66.6381392791377
 20
66.57574568546329
 30
0.0000000349246037
  9
$LIMMIN
 10
0.0
 20
0.0
  9
$LIMMAX
 10
1189.0
 20
840.9999999999998
  9
$ORTHOMODE
 70
     0
  9
$REGENMODE
 70
     1
  9
$FILLMODE
 70
     1
  9
$QTEXTMODE
 70
     0
  9
$MIRRTEXT
 70
     0
  9
$LTSCALE
 40
1.0
  9
$ATTMODE
 70
     1
  9
$TEXTSIZE
 40
0.2
  9
$TRACEWID
 40
0.05
  9
$TEXTSTYLE
  7
STANDARD
  9
$CLAYER
  8
0
  9
$CELTYPE
  6
ByLayer
  9
$CECOLOR
 62
   256
  9
$CELTSCALE
 40
1.0
  9
$DISPSILH
 70
     0
  9
$DIMSCALE
 40
1.0
  9
$DIMASZ
 40
180.0
  9
$DIMEXO
 40
0.0625
  9
$DIMDLI
 40
0.38
  9
$DIMRND
 40
0.0
  9
$DIMDLE
 40
0.0
  9
$DIMEXE
 40
0.18
  9
$DIMTP
 40
0.0
  9
$DIMTM
 40
0.0
  9
$DIMTXT
 40
34.99999940395355
  9
$DIMCEN
 40
0.09
  9
$DIMTSZ
 40
0.0
  9
$DIMTOL
 70
     0
  9
$DIMLIM
 70
     0
  9
$DIMTIH
 70
     1
  9
$DIMTOH
 70
     1
  9
$DIMSE1
 70
     0
  9
$DIMSE2
 70
     0
  9
$DIMTAD
 70
     0
  9
$DIMZIN
 70
     0
  9
$DIMBLK
  1

  9
$DIMASO
 70
     1
  9
$DIMSHO
 70
     1
  9
$DIMPOST
  1

  9
$DIMAPOST
  1

  9
$DIMALT
 70
     0
  9
$DIMALTD
 70
     2
  9
$DIMALTF
 40
25.4
  9
$DIMLFAC
 40
1.0
  9
$DIMTOFL
 70
     0
  9
$DIMTVP
 40
0.0
  9
$DIMTIX
 70
     0
  9
$DIMSOXD
 70
     0
  9
$DIMSAH
 70
     0
  9
$DIMBLK1
  1

  9
$DIMBLK2
  1

  9
$DIMSTYLE
  2
STANDARD
  9
$DIMCLRD
 70
     0
  9
$DIMCLRE
 70
     0
  9
$DIMCLRT
 70
     0
  9
$DIMTFAC
 40
1.0
  9
$DIMGAP
 40
0.09
  9
$DIMJUST
 70
     0
  9
$DIMSD1
 70
     0
  9
$DIMSD2
 70
     0
  9
$DIMTOLJ
 70
     1
  9
$DIMTZIN
 70
     0
  9
$DIMALTZ
 70
     0
  9
$DIMALTTZ
 70
     0
  9
$DIMUPT
 70
     0
  9
$DIMDEC
 70
     4
  9
$DIMTDEC
 70
     4
  9
$DIMALTU
 70
     2
  9
$DIMALTTD
 70
     2
  9
$DIMTXSTY
  7
STANDARD
  9
$DIMAUNIT
 70
     0
  9
$DIMADEC
 70
     0
  9
$DIMALTRND
 40
0.0
  9
$DIMAZIN
 70
     0
  9
$DIMDSEP
 70
    46
  9
$DIMATFIT
 70
     3
  9
$DIMFRAC
 70
     0
  9
$DIMLDRBLK
  1

  9
$DIMLUNIT
 70
     2
  9
$DIMLWD
 70
    -2
  9
$DIMLWE
 70
    -2
  9
$DIMTMOVE
 70
     0
  9
$LUNITS
 70
     2
  9
$LUPREC
 70
     4
  9
$SKETCHINC
 40
0.1
  9
$FILLETRAD
 40
0.0
  9
$AUNITS
 70
     0
  9
$AUPREC
 70
     0
  9
$MENU
  1
.
  9
$ELEVATION
 40
0.0
  9
$PELEVATION
 40
0.0
  9
$THICKNESS
 40
0.0
  9
$LIMCHECK
 70
     0
  9
$CHAMFERA
 40
0.0
  9
$CHAMFERB
 40
0.0
  9
$CHAMFERC
 40
0.0
  9
$CHAMFERD
 40
0.0
  9
$SKPOLY
 70
     0
  9
$TDCREATE
 40
2454871.497639329
  9
$TDUCREATE
 40
2454871.455972662
  9
$TDUPDATE
 40
2455943.981223773
  9
$TDUUPDATE
 40
2455943.939557107
  9
$TDINDWG
 40
0.0120568866
  9
$TDUSRTIMER
 40
0.0120568866
  9
$USRTIMER
 70
     1
  9
$ANGBASE
 50
0.0
  9
$ANGDIR
 70
     0
  9
$PDMODE
 70
     0
  9
$PDSIZE
 40
0.0
  9
$PLINEWID
 40
0.0
  9
$SPLFRAME
 70
     0
  9
$SPLINETYPE
 70
     6
  9
$SPLINESEGS
 70
     8
  9
$HANDSEED
  5
1B7
  9
$SURFTAB1
 70
     6
  9
$SURFTAB2
 70
     6
  9
$SURFTYPE
 70
     6
  9
$SURFU
 70
     6
  9
$SURFV
 70
     6
  9
$UCSBASE
  2

  9
$UCSNAME
  2

  9
$UCSORG
 10
0.0
 20
0.0
 30
0.0
  9
$UCSXDIR
 10
1.0
 20
0.0
 30
0.0
  9
$UCSYDIR
 10
0.0
 20
1.0
 30
0.0
  9
$UCSORTHOREF
  2

  9
$UCSORTHOVIEW
 70
     0
  9
$UCSORGTOP
 10
0.0
 20
0.0
 30
0.0
  9
$UCSORGBOTTOM
 10
0.0
 20
0.0
 30
0.0
  9
$UCSORGLEFT
 10
0.0
 20
0.0
 30
0.0
  9
$UCSORGRIGHT
 10
0.0
 20
0.0
 30
0.0
  9
$UCSORGFRONT
 10
0.0
 20
0.0
 30
0.0
  9
$UCSORGBACK
 10
0.0
 20
0.0
 30
0.0
  9
$PUCSBASE
  2

  9
$PUCSNAME
  2

  9
$PUCSORG
 10
0.0
 20
0.0
 30
0.0
  9
$PUCSXDIR
 10
1.0
 20
0.0
 30
0.0
  9
$PUCSYDIR
 10
0.0
 20
1.0
 30
0.0
  9
$PUCSORTHOREF
  2

  9
$PUCSORTHOVIEW
 70
     0
  9
$PUCSORGTOP
 10
0.0
 20
0.0
 30
0.0
  9
$PUCSORGBOTTOM
 10
0.0
 20
0.0
 30
0.0
  9
$PUCSORGLEFT
 10
0.0
 20
0.0
 30
0.0
  9
$PUCSORGRIGHT
 10
0.0
 20
0.0
 30
0.0
  9
$PUCSORGFRONT
 10
0.0
 20
0.0
 30
0.0
  9
$PUCSORGBACK
 10
0.0
 20
0.0
 30
0.0
  9
$USERI1
 70
     0
  9
$USERI2
 70
     0
  9
$USERI3
 70
     0
  9
$USERI4
 70
     0
  9
$USERI5
 70
     0
  9
$USERR1
 40
0.0
  9
$USERR2
 40
0.0
  9
$USERR3
 40
0.0
  9
$USERR4
 40
0.0
  9
$USERR5
 40
0.0
  9
$WORLDVIEW
 70
     1
  9
$SHADEDGE
 70
     3
  9
$SHADEDIF
 70
    70
  9
$TILEMODE
 70
     1
  9
$MAXACTVP
 70
    64
  9
$PINSBASE
 10
0.0
 20
0.0
 30
0.0
  9
$PLIMCHECK
 70
     0
  9
$PEXTMIN
 10
0.0
 20
0.0
 30
0.0
  9
$PEXTMAX
 10
1189.0
 20
840.9999999999998
 30
0.0
  9
$PLIMMIN
 10
0.0
 20
0.0
  9
$PLIMMAX
 10
1189.0
 20
840.9999999999998
  9
$UNITMODE
 70
     0
  9
$VISRETAIN
 70
     1
  9
$PLINEGEN
 70
     0
  9
$PSLTSCALE
 70
     1
  9
$TREEDEPTH
 70
  3020
  9
$CMLSTYLE
  2
Standard
  9
$CMLJUST
 70
     0
  9
$CMLSCALE
 40
1.0
  9
$PROXYGRAPHICS
 70
     1
  9
$MEASUREMENT
 70
     1
  9
$CELWEIGHT
370
    -1
  9
$ENDCAPS
280
     0
  9
$JOINSTYLE
280
     0
  9
$LWDISPLAY
290
     0
  9
$INSUNITS
 70
     4
  9
$HYPERLINKBASE
  1

  9
$STYLESHEET
  1

  9
$XEDIT
290
     1
  9
$CEPSNTYPE
380
     0
  9
$PSTYLEMODE
290
     1
  9
$FINGERPRINTGUID
  2
{262264AD-6B25-4A8D-906B-3DB5F42D9A16}
  9
$VERSIONGUID
  2
{2EDD06FF-509B-43E7-824F-BA96C4570C09}
  9
$EXTNAMES
290
     1
  9
$PSVPSCALE
 40
0.0
  9
$OLESTARTUP
290
     0
  0
ENDSEC
  0
SECTION
  2
CLASSES
  0
CLASS
  1
ACDBDICTIONARYWDFLT
  2
AcDbDictionaryWithDefault
  3
ObjectDBX Classes
 90
        0
280
     0
281
     0
  0
CLASS
  1
MATERIAL
  2
AcDbMaterial
  3
ObjectDBX Classes
 90
     1153
280
     0
281
     0
  0
CLASS
  1
VISUALSTYLE
  2
AcDbVisualStyle
  3
ObjectDBX Classes
 90
     4095
280
     0
281
     0
  0
CLASS
  1
SCALE
  2
AcDbScale
  3
ObjectDBX Classes
 90
     1153
280
     0
281
     0
  0
CLASS
  1
TABLESTYLE
  2
AcDbTableStyle
  3
ObjectDBX Classes
 90
     4095
280
     0
281
     0
  0
CLASS
  1
MLEADERSTYLE
  2
AcDbMLeaderStyle
  3
ACDB_MLEADERSTYLE_CLASS
 90
     4095
280
     0
281
     0
  0
CLASS
  1
SORTENTSTABLE
  2
AcDbSortentsTable
  3
ObjectDBX Classes
 90
        0
280
     0
281
     0
  0
CLASS
  1
CELLSTYLEMAP
  2
AcDbCellStyleMap
  3
ObjectDBX Classes
 90
     1152
280
     0
281
     0
  0
CLASS
  1
DICTIONARYVAR
  2
AcDbDictionaryVar
  3
ObjectDBX Classes
 90
        0
280
     0
281
     0
  0
CLASS
  1
ACME_DOCUMENT
  2
AcMeDbDoc
  3
AcMeServices
 90
    33792
280
     1
281
     0
  0
CLASS
  1
AMGSETTINGSOBJ
  2
AmgSettingsObj
  3
"AcadM|Product Description: AutoCAD Mechanical|Company: Autodesk, Inc."
 90
    33792
280
     1
281
     0
  0
CLASS
  1
ACMESCOPE
  2
AcMeScope
  3
AcMeServices
 90
    33792
280
     1
281
     0
  0
CLASS
  1
ACMECOMMANDHISTORY
  2
AcMeCommandHistory
  3
AcMeServices
 90
    33792
280
     1
281
     0
  0
CLASS
  1
ACIMSYSVARMAN
  2
AcImSysVarManager
  3
AcMeServices
 90
    33792
280
     1
281
     0
  0
CLASS
  1
ACIMINTSYSVAR
  2
AcImIntSysVar
  3
AcMeServices
 90
    33792
280
     1
281
     0
  0
CLASS
  1
ACMEDRAWINGMAN
  2
AcMeDrawingMan
  3
AcMeServices
 90
    33792
280
     1
281
     0
  0
CLASS
  1
ACMEVIEW
  2
AcMeView
  3
AcMeServices
 90
    33792
280
     1
281
     0
  0
CLASS
  1
ACDBENTITYCACHE
  2
AcMeEntityCache
  3
AcMeServices
 90
    33792
280
     1
281
     0
  0
CLASS
  1
GSMANAGER
  2
AcMeGSManager
  3
AcMeServices
 90
    33792
280
     1
281
     0
  0
CLASS
  1
AMDTINTERNALREACTOR
  2
AmdtInternalReactor
  3
AcMeServices
 90
    33792
280
     1
281
     0
  0
CLASS
  1
ACMESTATEMGR
  2
AcMeStateMgr
  3
AcMeServices
 90
    33792
280
     1
281
     0
  0
CLASS
  1
ACGREFMASTER
  2
AcGrefMaster
  3
AcAttribServices
 90
    33792
280
     1
281
     0
  0
CLASS
  1
AM_DRAWING_MGR
  2
AcDmDwgMgr
  3
AcMechDwgViewMgmt
 90
    33792
280
     1
281
     0
  0
CLASS
  1
AM_DWG_DOCUMENT
  2
AcDmDwgDocument
  3
AcMechDwgViewMgmt
 90
    33792
280
     1
281
     0
  0
CLASS
  1
AM_DWG_SHEET
  2
AcDmSheet
  3
AcMechDwgViewMgmt
 90
    33792
280
     1
281
     0
  0
CLASS
  1
AM_VIEWDIMPARMAP
  2
AcDmViewDimParMap
  3
AcMechDwgViewMgmt
 90
    33792
280
     1
281
     0
  0
CLASS
  1
ACIMREALSYSVAR
  2
AcImRealSysVar
  3
AcMeServices
 90
    33792
280
     1
281
     0
  0
CLASS
  1
AM_DWGMGR_NAME
  2
AcDmDwgMgrName
  3
AcMechDwgViewMgmt
 90
    33792
280
     1
281
     0
  0
CLASS
  1
ACME_DATABASE
  2
AcMeDbDatabase
  3
AcMeServices
 90
    33792
280
     1
281
     0
  0
CLASS
  1
ACRFINSADJUSTERMGR
  2
AcRfInsAdjusterMgr
  3
AcMeServices
 90
    33792
280
     1
281
     0
  0
CLASS
  1
ACGREFACADMASTER
  2
AcGrefacadMaster
  3
AcGrefServices
 90
    33792
280
     1
281
     0
  0
CLASS
  1
AMDTMENUSTATEMGR
  2
AmdtMenuStateMgr
  3
McadcomServices
 90
    33792
280
     1
281
     0
  0
CLASS
  1
AMDTMCOMMENUSTATE
  2
AmdtMcomMenuState
  3
McadcomServices
 90
    33792
280
     1
281
     0
  0
CLASS
  1
AMIMASTER
  2
AmiMaster
  3
AmiServices
 90
    33792
280
     1
281
     0
  0
CLASS
  1
MAPIAMMOUDLE
  2
MApiAmModule
  3
MApiAmServices
 90
    33792
280
     1
281
     0
  0
CLASS
  1
ACIMSTRSYSVAR
  2
AcImStrSysVar
  3
AcMeServices
 90
    33792
280
     1
281
     0
  0
CLASS
  1
AMDTADMENUSTATE
  2
AmdtAdMenuState
  3
DesignerServices
 90
    33792
280
     1
281
     0
  0
CLASS
  1
ADAPPL
  2
AcAdAppl
  3
DesignerServices
 90
    33792
280
     1
281
     0
  0
CLASS
  1
DEPMGR
  2
AcAdDepMgr
  3
DesignerServices
 90
    33792
280
     1
281
     0
  0
CLASS
  1
PARAMMGR
  2
AcAdParamMgr
  3
DesignerServices
 90
    33792
280
     1
281
     0
  0
CLASS
  1
PARAMSCOPE
  2
AcAdParamScope
  3
DesignerServices
 90
    33792
280
     1
281
     0
  0
CLASS
  1
NAMEDAPPL
  2
AcAdNamedAppl
  3
DesignerServices
 90
    33792
280
     1
281
     0
  0
CLASS
  1
AMDTDMMENUSTATE
  2
AmdtDmMenuState
  3
AcMechDwgViewMgmt
 90
    33792
280
     1
281
     0
  0
CLASS
  1
AMDTAMMENUSTATE
  2
AmdtAmMenuState
  3
DesignerAssemblies
 90
    33792
280
     1
281
     0
  0
CLASS
  1
ACAMPROJECT
  2
AcAmProject
  3
DesignerAssemblies
 90
    33792
280
     1
281
     0
  0
CLASS
  1
ACAMGRCOMPDEF
  2
AcAmGrCompDef
  3
DesignerAssemblies
 90
    33792
280
     1
281
     0
  0
CLASS
  1
ACCMCONTEXT
  2
AcCmContext
  3
DesignerAssemblies
 90
    33792
280
     1
281
     0
  0
CLASS
  1
ACAMCOMPDEF
  2
AcAmCompDef
  3
DesignerAssemblies
 90
    33792
280
     1
281
     0
  0
CLASS
  1
ACAMCOMPDEFMGR
  2
AcAmCompDefMgr
  3
DesignerAssemblies
 90
    33792
280
     1
281
     0
  0
CLASS
  1
AMCONTEXTMGR
  2
AcAmContextMgr
  3
DesignerAssemblies
 90
    33792
280
     1
281
     0
  0
CLASS
  1
ACAMCONTEXTMODELER
  2
AcAmContextModeler
  3
DesignerAssemblies
 90
    33792
280
     1
281
     0
  0
CLASS
  1
ACMDATADICTIONARY
  2
AcmDataDictionary
  3
"AcmSymBB|Product Description: AutoCAD Mechanical|Company: Autodesk, Inc."
 90
    33792
280
     1
281
     0
  0
CLASS
  1
CATALOGSTATE
  2
AcAmCatalogState
  3
DesignerAssemblies
 90
    33792
280
     1
281
     0
  0
CLASS
  1
ACAMGRCOMPDEFSET
  2
AcAmGrCompDefSet
  3
DesignerAssemblies
 90
    33792
280
     1
281
     0
  0
CLASS
  1
AMDTBROWSERDBTAB
  2
AmdtBrowserDbTab
  3
McadcomServices
 90
    33792
280
     1
281
     0
  0
CLASS
  1
CBROWSERAPPOBJECT
  2
CBrowserAppObject
  3
McadcomServices
 90
    33792
280
     1
281
     0
  0
CLASS
  1
DM_PLACEHOLDER
  2
AcDmSelsetPlaceholder
  3
AcMechDwgViewMgmt
 90
    33792
280
     1
281
     0
  0
CLASS
  1
EXACXREFPANELOBJECT
  2
ExAcXREFPanelObject
  3
EXAC_ESW
 90
     1025
280
     0
281
     0
  0
CLASS
  1
NPOCOLLECTION
  2
AcDbImpNonPersistentObjectsCollection
  3
ObjectDBX Classes
 90
     1153
280
     0
281
     0
  0
CLASS
  1
ACMSTANDARDANSI
  2
AcmStandardANSI
  3
"Amdt_StdImp|Product Description: AutoCAD Mechanical|Company: Autodesk, Inc."
 90
    33792
280
     1
281
     0
  0
CLASS
  1
ACMSURFSTANDARDANSI
  2
AcmSurfTextStdANSI
  3
"Amdt_StdImp|Product Description: AutoCAD Mechanical|Company: Autodesk, Inc."
 90
    33792
280
     1
281
     0
  0
CLASS
  1
ACMFCFSTANDARDANSI
  2
AcmFCFStdANSI
  3
"Amdt_StdImp|Product Description: AutoCAD Mechanical|Company: Autodesk, Inc."
 90
    33792
280
     1
281
     0
  0
CLASS
  1
ACMWELDSTANDARDANSI
  2
AcmWeldingStdANSI
  3
"Amdt_StdImp|Product Description: AutoCAD Mechanical|Company: Autodesk, Inc."
 90
    33792
280
     1
281
     0
  0
CLASS
  1
ACMIDSTANDARDANSI
  2
AcmIdStdANSI
  3
"Amdt_StdImp|Product Description: AutoCAD Mechanical|Company: Autodesk, Inc."
 90
    33792
280
     1
281
     0
  0
CLASS
  1
ACMDATUMSTANDARDANSI
  2
AcmDatumStdANSI
  3
"Amdt_StdImp|Product Description: AutoCAD Mechanical|Company: Autodesk, Inc."
 90
    33792
280
     1
281
     0
  0
CLASS
  1
ACMBOMSTANDARDANSI
  2
AcmBOMStdANSI
  3
"Amdt_StdImp|Product Description: AutoCAD Mechanical|Company: Autodesk, Inc."
 90
    33792
280
     1
281
     0
  0
CLASS
  1
ACMDETAILSTANDARDANSI
  2
AmdtDetailSymStdANSI
  3
"Amdt_StdImp|Product Description: AutoCAD Mechanical|Company: Autodesk, Inc."
 90
    33792
280
     1
281
     0
  0
CLASS
  1
ACMSECTIONSTANDARDANSI
  2
AmdtSectionSymStdANSI
  3
"Amdt_StdImp|Product Description: AutoCAD Mechanical|Company: Autodesk, Inc."
 90
    33792
280
     1
281
     0
  0
CLASS
  1
ACMCENTERLINESTANDARDANSI
  2
AmdtCenterLineStdANSI
  3
"Amdt_StdImp|Product Description: AutoCAD Mechanical|Company: Autodesk, Inc."
 90
    33792
280
     1
281
     0
  0
CLASS
  1
ACMTHREADLINESTANDARDANSI
  2
AmdtThreadLineStdANSI
  3
"Amdt_StdImp|Product Description: AutoCAD Mechanical|Company: Autodesk, Inc."
 90
    33792
280
     1
281
     0
  0
CLASS
  1
ACMNOTESTANDARDANSI
  2
AmdtNoteStdANSI
  3
"Amdt_StdImp|Product Description: AutoCAD Mechanical|Company: Autodesk, Inc."
 90
    33792
280
     1
281
     0
  0
CLASS
  1
ACMTAPERSTANDARDANSI
  2
AcmTaperStdANSI
  3
"Amdt_StdImp|Product Description: AutoCAD Mechanical|Company: Autodesk, Inc."
 90
    33792
280
     1
281
     0
  0
CLASS
  1
ACMANOOTATIONVIEWSTANDARDANSI
  2
AmdtAnViewStdANSI
  3
"Amdt_StdImp|Product Description: AutoCAD Mechanical|Company: Autodesk, Inc."
 90
    33792
280
     1
281
     0
  0
CLASS
  1
ACAMGLAYSTD
  2
AcAmgLayStd
  3
"AmgLay|Product Description: AutoCAD Mechanical|Company: Autodesk, Inc."
 90
    33792
280
     1
281
     0
  0
CLASS
  1
ACAMGDIMSTD
  2
AcAmgDimStd
  3
"AmgDim|Product Description: AutoCAD Mechanical|Company: Autodesk, Inc."
 90
    33792
280
     1
281
     0
  0
CLASS
  1
AMGOBJPROPCFG
  2
AmgObjPropCfg
  3
"AmgLay|Product Description: AutoCAD Mechanical|Company: Autodesk, Inc."
 90
    33793
280
     1
281
     0
  0
CLASS
  1
ACAMGHOLECHARTSTDANSI
  2
AcAmgHoleChartStdANSI
  3
AmgDim|Product Description: AutoCAD Mechanical|Company: Autodesk, Inc.
 90
    33792
280
     1
281
     0
  0
CLASS
  1
ACAMGTITLESTD
  2
AcAmgTitleStd
  3
"AmgTitle|Product Description: AutoCAD Mechanical|Company: Autodesk, Inc."
 90
    36863
280
     1
281
     0
  0
CLASS
  1
AMDTNOTETEMPLATEDB
  2
AmdtNoteTemplateDB
  3
AcmSymBB|Product Description: AutoCAD Mechanical|Company: Autodesk, Inc.
 90
    33792
280
     1
281
     0
  0
CLASS
  1
ACAMGFILTERDAT
  2
AcAmgFilterDat
  3
"AcadM|Product Description: AutoCAD Mechanical|Company: Autodesk, Inc."
 90
    33792
280
     1
281
     0
  0
CLASS
  1
CAMSSTRUCTBTNSTATE
  2
StructBtnState
  3
DesignerAssemblies
 90
    33792
280
     1
281
     0
  0
CLASS
  1
ACDBPLACEHOLDER
  2
AcDbPlaceHolder
  3
ObjectDBX Classes
 90
        0
280
     0
281
     0
  0
CLASS
  1
LAYOUT
  2
AcDbLayout
  3
ObjectDBX Classes
 90
        0
280
     0
281
     0
  0
ENDSEC
  0
SECTION
  2
TABLES
  0
TABLE
  2
VPORT
  5
28
102
{ACAD_XDICTIONARY
360
2C
102
}
330
0
100
AcDbSymbolTable
 70
     1
  0
VPORT
  5
29
330
28
100
AcDbSymbolTableRecord
100
AcDbViewportTableRecord
  2
*ACTIVE
 70
     0
 10
0.0
 20
0.0
 11
1.0
 21
1.0
 12
-26.07105813474777
 22
-8.944349738122582
 13
0.0
 23
0.0
 14
1.0
 24
1.0
 15
0.0
 25
0.0
 16
0.0
 26
0.0
 36
1.0
 17
0.0
 27
0.0
 37
0.0
 40
181.6501866835321
 41
1.141762452107279
 42
50.0
 43
0.0
 44
0.0
 50
0.0
 51
0.0
 71
     0
 72
   100
 73
     1
 74
     1
 75
     0
 76
     0
 77
     0
 78
     0
281
     0
 65
     1
110
0.0
120
0.0
130
0.0
111
1.0
121
0.0
131
0.0
112
0.0
122
1.0
132
0.0
 79
     0
146
0.0
  0
ENDTAB
  0
TABLE
  2
LTYPE
  5
23
330
0
100
AcDbSymbolTable
 70
     3
  0
LTYPE
  5
24
330
23
100
AcDbSymbolTableRecord
100
AcDbLinetypeTableRecord
  2
ByBlock
 70
     0
  3

 72
    65
 73
     0
 40
0.0
  0
LTYPE
  5
25
330
23
100
AcDbSymbolTableRecord
100
AcDbLinetypeTableRecord
  2
ByLayer
 70
     0
  3

 72
    65
 73
     0
 40
0.0
  0
LTYPE
  5
13
330
23
100
AcDbSymbolTableRecord
100
AcDbLinetypeTableRecord
  2
CONTINUOUS
 70
     0
  3
Solid line
 72
    65
 73
     0
 40
0.0
  0
LTYPE
  5
77
330
23
100
AcDbSymbolTableRecord
100
AcDbLinetypeTableRecord
  2
DASHDOT
 70
     0
  3
Dash dot __ . __ . __ . __ . __ . __ . __ . __
 72
    65
 73
     4
 40
1.0
 49
0.5
 74
     0
 49
-0.25
 74
     0
 49
0.0
 74
     0
 49
-0.25
 74
     0
  0
LTYPE
  5
83
330
23
100
AcDbSymbolTableRecord
100
AcDbLinetypeTableRecord
  2
DASHED
 70
     0
  3
Dashed __ __ __ __ __ __ __ __ __ __ __ __ __ _
 72
    65
 73
     2
 40
0.75
 49
0.5
 74
     0
 49
-0.25
 74
     0
  0
ENDTAB
  0
TABLE
  2
LAYER
  5
1B
102
{ACAD_XDICTIONARY
360
1C
102
}
330
0
100
AcDbSymbolTable
 70
     7
  0
LAYER
  5
6
330
1B
100
AcDbSymbolTableRecord
100
AcDbLayerTableRecord
  2
0
 70
     0
 62
     7
  6
CONTINUOUS
370
    -3
390
7
  0
LAYER
  5
7E
330
1B
100
AcDbSymbolTableRecord
100
AcDbLayerTableRecord
  2
GEB-KONTUR-A
 70
     0
 62
     5
  6
CONTINUOUS
370
    -3
390
7
  0
LAYER
  5
76
330
1B
100
AcDbSymbolTableRecord
100
AcDbLayerTableRecord
  2
GEB-SYMMETRIE
 70
     0
 62
     3
  6
DASHDOT
370
    -3
390
7
1001
AcAecLayerStandard
1000

1000

  0
LAYER
  5
82
330
1B
100
AcDbSymbolTableRecord
100
AcDbLayerTableRecord
  2
GEB-VERDECKT
 70
     0
 62
     2
  6
DASHED
370
    -3
390
7
1001
AcAecLayerStandard
1000

1000

  0
LAYER
  5
14B
330
1B
100
AcDbSymbolTableRecord
100
AcDbLayerTableRecord
  2
GEB-ART-NR
 70
     0
 62
     1
  6
CONTINUOUS
370
    18
390
7
  0
LAYER
  5
72
330
1B
100
AcDbSymbolTableRecord
100
AcDbLayerTableRecord
  2
GEB-BEZUG
 70
     0
 62
     2
  6
CONTINUOUS
370
    25
390
7
  0
LAYER
  5
148
330
1B
100
AcDbSymbolTableRecord
100
AcDbLayerTableRecord
  2
GEB-TEXT
 70
     0
 62
     5
  6
CONTINUOUS
370
    18
390
7
  0
ENDTAB
  0
TABLE
  2
STYLE
  5
20
330
0
100
AcDbSymbolTable
 70
     1
  0
STYLE
  5
21
330
20
100
AcDbSymbolTableRecord
100
AcDbTextStyleTableRecord
  2
STANDARD
 70
     0
 40
0.0
 41
1.0
 50
0.0
 71
     0
 42
0.2
  3
ARIAL.TTF
  4

1001
ACAD
1000
Arial
1071
       34
  0
ENDTAB
  0
TABLE
  2
VIEW
  5
26
330
0
100
AcDbSymbolTable
 70
     0
  0
ENDTAB
  0
TABLE
  2
UCS
  5
27
330
0
100
AcDbSymbolTable
 70
     0
  0
ENDTAB
  0
TABLE
  2
APPID
  5
2D
330
0
100
AcDbSymbolTable
 70
     3
  0
APPID
  5
1F
330
2D
100
AcDbSymbolTableRecord
100
AcDbRegAppTableRecord
  2
ACAD
 70
     0
  0
APPID
  5
78
330
2D
100
AcDbSymbolTableRecord
100
AcDbRegAppTableRecord
  2
AcAecLayerStandard
 70
     0
  0
APPID
  5
1B6
330
2D
100
AcDbSymbolTableRecord
100
AcDbRegAppTableRecord
  2
ACAD_MLEADERVER
 70
     0
  0
ENDTAB
  0
TABLE
  2
DIMSTYLE
  5
2E
330
0
100
AcDbSymbolTable
 70
     1
100
AcDbDimStyleTable
 71
     1
340
2F
  0
DIMSTYLE
105
2F
330
2E
100
AcDbSymbolTableRecord
100
AcDbDimStyleTableRecord
  2
STANDARD
 70
     0
279
     2
340
21
  0
ENDTAB
  0
TABLE
  2
BLOCK_RECORD
  5
1
330
0
100
AcDbSymbolTable
 70
     1
  0
BLOCK_RECORD
  5
2
102
{ACAD_XDICTIONARY
360
3
102
}
330
1
100
AcDbSymbolTableRecord
100
AcDbBlockTableRecord
  2
*Model_Space
340
15
  0
BLOCK_RECORD
  5
17
330
1
100
AcDbSymbolTableRecord
100
AcDbBlockTableRecord
  2
*Paper_Space
340
1A
  0
BLOCK_RECORD
  5
6F
330
1
100
AcDbSymbolTableRecord
100
AcDbBlockTableRecord
  2
Einfügepunkt
340
0
102
{BLKREFS
331
6E
102
}
  0
ENDTAB
  0
ENDSEC
  0
SECTION
  2
BLOCKS
  0
BLOCK
  5
5
330
2
100
AcDbEntity
  8
0
100
AcDbBlockBegin
  2
*Model_Space
 70
     0
 10
0.0
 20
0.0
 30
0.0
  3
*Model_Space
  1

  0
ENDBLK
  5
14
330
2
100
AcDbEntity
  8
0
100
AcDbBlockEnd
  0
BLOCK
  5
18
330
17
100
AcDbEntity
 67
     1
  8
0
100
AcDbBlockBegin
  2
*Paper_Space
 70
     0
 10
0.0
 20
0.0
 30
0.0
  3
*Paper_Space
  1

  0
ENDBLK
  5
19
330
17
100
AcDbEntity
 67
     1
  8
0
100
AcDbBlockEnd
  0
BLOCK
  5
70
330
6F
100
AcDbEntity
  8
0
100
AcDbBlockBegin
  2
Einfügepunkt
 70
     0
 10
0.0
 20
0.0
 30
0.0
  3
Einfügepunkt
  1

  0
LINE
  5
71
330
6F
100
AcDbEntity
  8
GEB-BEZUG
100
AcDbLine
 10
-0.7071067811865817
 20
-0.7071067811865106
 30
0.0
 11
0.7071067811864751
 21
0.7071067811865817
 31
0.0
  0
LINE
  5
73
330
6F
100
AcDbEntity
  8
GEB-BEZUG
100
AcDbLine
 10
-0.7071067811865106
 20
0.7071067811865817
 30
0.0
 11
0.7071067811865462
 21
-0.7071067811865106
 31
0.0
  0
ENDBLK
  5
74
330
6F
100
AcDbEntity
  8
0
100
AcDbBlockEnd
  0
ENDSEC
  0
SECTION
  2
ENTITIES
  0
INSERT
  5
6E
330
2
100
AcDbEntity
  8
0
 48
25.0
100
AcDbBlockReference
  2
Einfügepunkt
 10
0.0
 20
0.0
 30
0.0
  0
LINE
  5
75
330
2
100
AcDbEntity
  8
GEB-SYMMETRIE
 48
25.0
100
AcDbLine
 10
-0.0000000000000284
 20
66.55000000000015
 30
0.0
 11
-0.0000000000000284
 21
-66.5500000000001
 31
0.0
  0
LINE
  5
79
330
2
100
AcDbEntity
  8
GEB-SYMMETRIE
 48
25.0
100
AcDbLine
 10
66.5500000000001
 20
0.0000000000000284
 30
0.0
 11
-66.55000000000012
 21
0.0000000000000284
 31
0.0
  0
LINE
  5
7A
330
2
100
AcDbEntity
  8
GEB-SYMMETRIE
 48
25.0
100
AcDbLine
 10
-39.50976049164978
 20
-0.0000000000319744
 30
0.0
 11
-59.58539815532003
 21
-0.0000000000317186
 31
0.0
  0
LINE
  5
7B
330
2
100
AcDbEntity
  8
GEB-SYMMETRIE
 48
25.0
100
AcDbLine
 10
-99.04304401571266
 20
-0.0000000000312355
 30
0.0
 11
-112.7347635434748
 21
-0.0000000000310649
 31
0.0
  0
LINE
  5
7C
330
2
100
AcDbEntity
  8
GEB-SYMMETRIE
 48
25.0
100
AcDbLine
 10
-107.7347635434748
 20
-0.0000000000310934
 30
0.0
 11
-118.729052872966
 21
-0.0000000000309512
 31
0.0
  0
CIRCLE
  5
7D
330
2
100
AcDbEntity
  8
GEB-KONTUR-A
 48
25.0
100
AcDbCircle
 10
0.000000000000739
 20
-0.0000000000206342
 30
0.0
 40
51.6000000000001
  0
CIRCLE
  5
7F
330
2
100
AcDbEntity
  8
GEB-KONTUR-A
 48
25.0
100
AcDbCircle
 10
-0.0000000000000568
 20
0.0000000000009663
 30
0.0
 40
60.15000000000011
  0
CIRCLE
  5
80
330
2
100
AcDbEntity
  8
GEB-KONTUR-A
 48
25.0
100
AcDbCircle
 10
-0.0000000000000284
 20
0.0000000000000284
 30
0.0
 40
64.05000000000012
  0
ARC
  5
81
330
2
100
AcDbEntity
  8
GEB-VERDECKT
 48
25.0
100
AcDbCircle
 10
-5.431718061673791
 20
-0.0000000000075602
 30
0.0
 40
57.7182819383261
100
AcDbArc
 50
114.2089557834798
 51
245.7910442165187
  0
ARC
  5
84
330
2
100
AcDbEntity
  8
GEB-VERDECKT
 48
25.0
100
AcDbCircle
 10
5.431718061674274
 20
-0.0000000000075886
 30
0.0
 40
57.7182819383261
100
AcDbArc
 50
294.2089557834798
 51
65.79104421651873
  0
CIRCLE
  5
85
330
2
100
AcDbEntity
  8
GEB-VERDECKT
 48
25.0
100
AcDbCircle
 10
0.0
 20
-0.0000000000009948
 30
0.0
 40
60.5500000000001
  0
ARC
  5
86
330
2
100
AcDbEntity
  8
GEB-VERDECKT
 48
25.0
100
AcDbCircle
 10
0.0000000000006821
 20
-0.0000000000192983
 30
0.0
 40
58.40000000000006
100
AcDbArc
 50
102.3592765980058
 51
257.6407234019941
  0
LINE
  5
87
330
2
100
AcDbEntity
  8
GEB-VERDECKT
 48
25.0
100
AcDbLine
 10
-12.49999999999934
 20
58.83682945228887
 30
0.0
 11
-12.49999999999934
 21
57.04655993132099
 31
0.0
  0
LINE
  5
88
330
2
100
AcDbEntity
  8
GEB-VERDECKT
 48
25.0
100
AcDbLine
 10
-12.49999999999929
 20
57.04655993131936
 30
0.0
 11
-12.49999999999929
 21
55.25371028263794
 31
0.0
  0
LINE
  5
89
330
2
100
AcDbEntity
  8
GEB-VERDECKT
 48
25.0
100
AcDbLine
 10
12.50000000000077
 20
55.25371028263788
 30
0.0
 11
12.50000000000077
 21
57.04655993131933
 31
0.0
  0
LINE
  5
8A
330
2
100
AcDbEntity
  8
GEB-VERDECKT
 48
25.0
100
AcDbLine
 10
12.50000000000068
 20
57.04655993132096
 30
0.0
 11
12.50000000000068
 21
58.83682945228883
 31
0.0
  0
ARC
  5
8B
330
2
100
AcDbEntity
  8
GEB-VERDECKT
 48
25.0
100
AcDbCircle
 10
0.0000000000006821
 20
-0.0000000000192983
 30
0.0
 40
58.40000000000007
100
AcDbArc
 50
282.3592765980059
 51
77.64072340199415
  0
LINE
  5
8C
330
2
100
AcDbEntity
  8
GEB-VERDECKT
 48
25.0
100
AcDbLine
 10
-12.49999999999986
 20
60.14999999999486
 30
0.0
 11
-12.49999999999986
 21
58.83682945230304
 31
0.0
  0
LINE
  5
8D
330
2
100
AcDbEntity
  8
GEB-VERDECKT
 48
25.0
100
AcDbLine
 10
12.50000000000017
 20
60.14999999999483
 30
0.0
 11
-12.49999999999986
 21
60.14999999999486
 31
0.0
  0
LINE
  5
8E
330
2
100
AcDbEntity
  8
GEB-VERDECKT
 48
25.0
100
AcDbLine
 10
12.50000000000017
 20
58.83682945230302
 30
0.0
 11
12.50000000000017
 21
60.14999999999483
 31
0.0
  0
LINE
  5
8F
330
2
100
AcDbEntity
  8
GEB-VERDECKT
 48
25.0
100
AcDbLine
 10
-12.49999999999988
 20
-60.15000000000501
 30
0.0
 11
12.50000000000017
 21
-60.15000000000506
 31
0.0
  0
LINE
  5
90
330
2
100
AcDbEntity
  8
GEB-VERDECKT
 48
25.0
100
AcDbLine
 10
12.50000000000068
 20
-58.83682945232741
 30
0.0
 11
12.50000000000068
 21
-57.0465599313595
 31
0.0
  0
LINE
  5
91
330
2
100
AcDbEntity
  8
GEB-VERDECKT
 48
25.0
100
AcDbLine
 10
12.50000000000074
 20
-57.04655993136114
 30
0.0
 11
12.50000000000074
 21
-55.25371028267975
 31
0.0
  0
LINE
  5
92
330
2
100
AcDbEntity
  8
GEB-VERDECKT
 48
25.0
100
AcDbLine
 10
12.50000000000017
 20
-60.15000000000506
 30
0.0
 11
12.50000000000017
 21
-58.8368294523132
 31
0.0
  0
LINE
  5
93
330
2
100
AcDbEntity
  8
GEB-VERDECKT
 48
25.0
100
AcDbLine
 10
-12.49999999999988
 20
-58.8368294523132
 30
0.0
 11
-12.49999999999988
 21
-60.15000000000501
 31
0.0
  0
LINE
  5
94
330
2
100
AcDbEntity
  8
GEB-VERDECKT
 48
25.0
100
AcDbLine
 10
-12.49999999999929
 20
-55.25371028267969
 30
0.0
 11
-12.49999999999929
 21
-57.04655993136109
 31
0.0
  0
LINE
  5
95
330
2
100
AcDbEntity
  8
GEB-VERDECKT
 48
25.0
100
AcDbLine
 10
-12.49999999999937
 20
-57.0465599313595
 30
0.0
 11
-12.49999999999937
 21
-58.83682945232741
 31
0.0
  0
CIRCLE
  5
96
330
2
100
AcDbEntity
  8
GEB-KONTUR-A
 48
25.0
100
AcDbCircle
 10
0.0000000000003411
 20
0.0000000000011369
 30
0.0
 40
56.74999999999958
  0
CIRCLE
  5
97
330
2
100
AcDbEntity
  8
GEB-KONTUR-A
 48
25.0
100
AcDbCircle
 10
-0.0000000000000568
 20
0.0000000000009379
 30
0.0
 40
56.6500000000001
  0
LINE
  5
98
330
2
100
AcDbEntity
  8
GEB-VERDECKT
 48
25.0
100
AcDbLine
 10
-54.08825349057434
 20
35.09999999996816
 30
0.0
 11
-58.0882902921542
 21
35.09999999996819
 31
0.0
  0
LINE
  5
99
330
2
100
AcDbEntity
  8
GEB-VERDECKT
 48
25.0
100
AcDbLine
 10
-54.08825349057434
 20
-35.10000000003171
 30
0.0
 11
-58.0882902921542
 21
-35.10000000003166
 31
0.0
  0
LINE
  5
9A
330
2
100
AcDbEntity
  8
GEB-VERDECKT
 48
25.0
100
AcDbLine
 10
-58.04969634824837
 20
35.08884650195768
 30
0.0
 11
-63.23760455753751
 21
38.08789321152952
 31
0.0
  0
LINE
  5
9B
330
2
100
AcDbEntity
  8
GEB-VERDECKT
 48
25.0
100
AcDbLine
 10
-58.04969634824837
 20
-35.08884650202063
 30
0.0
 11
-63.23760455753751
 21
-38.08789321159224
 31
0.0
  0
LINE
  5
9C
330
2
100
AcDbEntity
  8
GEB-VERDECKT
 48
25.0
100
AcDbLine
 10
-63.27949712912758
 20
38.09999999996828
 30
0.0
 11
-101.5430440157132
 21
38.09999999996873
 31
0.0
  0
LINE
  5
9D
330
2
100
AcDbEntity
  8
GEB-VERDECKT
 48
25.0
100
AcDbLine
 10
-63.27949712912758
 20
-38.10000000003157
 30
0.0
 11
-101.5430440157132
 21
-38.10000000003112
 31
0.0
  0
LINE
  5
9E
330
2
100
AcDbEntity
  8
GEB-VERDECKT
 48
25.0
100
AcDbLine
 10
-101.5430440157132
 20
42.29999999996872
 30
0.0
 11
-110.2347635434754
 21
42.2999999999688
 31
0.0
  0
LINE
  5
9F
330
2
100
AcDbEntity
  8
GEB-VERDECKT
 48
25.0
100
AcDbLine
 10
-101.5430440157132
 20
-42.30000000003108
 30
0.0
 11
-110.2347635434754
 21
-42.30000000003099
 31
0.0
  0
LINE
  5
A0
330
2
100
AcDbEntity
  8
GEB-VERDECKT
 48
25.0
100
AcDbLine
 10
-110.2347635434754
 20
38.09999999996885
 30
0.0
 11
-116.2290528729667
 21
38.0999999999689
 31
0.0
  0
LINE
  5
A1
330
2
100
AcDbEntity
  8
GEB-VERDECKT
 48
25.0
100
AcDbLine
 10
-110.2347635434754
 20
-38.100000000031
 30
0.0
 11
-116.2290528729667
 21
-38.10000000003092
 31
0.0
  0
SPLINE
  5
A2
330
2
100
AcDbEntity
  8
GEB-VERDECKT
 48
25.0
100
AcDbSpline
210
0.0
220
0.0
230
1.0
 70
     8
 71
     3
 72
    16
 73
    12
 74
     0
 42
0.0000000001
 43
0.0000000001
 40
2.837149406427525
 40
2.837149406427525
 40
2.837149406427525
 40
2.837149406427525
 40
2.958926705292431
 40
2.958926705292431
 40
3.080704004157337
 40
3.080704004157337
 40
3.202481303022243
 40
3.202481303022243
 40
3.324258601887149
 40
3.324258601887149
 40
3.446035900752054
 40
3.446035900752054
 40
3.446035900752054
 40
3.446035900752054
 10
-94.95429265363014
 20
-10.73042792717981
 30
0.0
 10
-94.973302719624
 20
-9.343409833534934
 30
0.0
 10
-94.98861796230917
 20
-7.930318363261477
 30
0.0
 10
-95.01164524689569
 20
-5.072482636738726
 30
0.0
 10
-95.01935713051148
 20
-3.627749998119128
 30
0.0
 10
-95.02706906369533
 20
-0.7276686137796844
 30
0.0
 10
-95.02706906369533
 20
0.7276686136926003
 30
0.0
 10
-95.01935713051148
 20
3.627749998032186
 30
0.0
 10
-95.01164524689569
 20
5.072482636651898
 30
0.0
 10
-94.98861796230917
 20
7.930318363174933
 30
0.0
 10
-94.973302719624
 20
9.343409833448589
 30
0.0
 10
-94.95429265363009
 20
10.73042792709373
 30
0.0
  0
SPLINE
  5
A3
330
2
100
AcDbEntity
  8
GEB-VERDECKT
 48
25.0
100
AcDbSpline
210
0.0
220
0.0
230
1.0
 70
     8
 71
     3
 72
    16
 73
    12
 74
     0
 42
0.0000000001
 43
0.0000000001
 40
2.837149406427517
 40
2.837149406427517
 40
2.837149406427517
 40
2.837149406427517
 40
2.958926705292427
 40
2.958926705292427
 40
3.080704004157336
 40
3.080704004157336
 40
3.202481303022245
 40
3.202481303022245
 40
3.324258601887154
 40
3.324258601887154
 40
3.446035900752062
 40
3.446035900752062
 40
3.446035900752062
 40
3.446035900752062
 10
-87.96095510255705
 20
-10.73042792718016
 30
0.0
 10
-87.97996516855091
 20
-9.343409833535247
 30
0.0
 10
-87.99528041123613
 20
-7.930318363261761
 30
0.0
 10
-88.01830769582261
 20
-5.072482636738953
 30
0.0
 10
-88.0260195794384
 20
-3.627749998119298
 30
0.0
 10
-88.03373151262226
 20
-0.7276686137797981
 30
0.0
 10
-88.03373151262226
 20
0.7276686136925719
 30
0.0
 10
-88.0260195794384
 20
3.627749998032186
 30
0.0
 10
-88.01830769582261
 20
5.072482636651926
 30
0.0
 10
-87.99528041123613
 20
7.930318363175018
 30
0.0
 10
-87.97996516855091
 20
9.34340983344876
 30
0.0
 10
-87.96095510255705
 20
10.7304279270939
 30
0.0
  0
SPLINE
  5
A4
330
2
100
AcDbEntity
  8
GEB-VERDECKT
 48
25.0
100
AcDbSpline
210
0.0
220
0.0
230
1.0
 70
     8
 71
     3
 72
    16
 73
    12
 74
     0
 42
0.0000000001
 43
0.0000000001
 40
2.837149406427539
 40
2.837149406427539
 40
2.837149406427539
 40
2.837149406427539
 40
2.958926705292441
 40
2.958926705292441
 40
3.080704004157342
 40
3.080704004157342
 40
3.202481303022244
 40
3.202481303022244
 40
3.324258601887145
 40
3.324258601887145
 40
3.446035900752046
 40
3.446035900752046
 40
3.446035900752046
 40
3.446035900752046
 10
-80.96761755148396
 20
-10.73042792717948
 30
0.0
 10
-80.98662761747783
 20
-9.34340983353465
 30
0.0
 10
-81.00194286016302
 20
-7.93031836326125
 30
0.0
 10
-81.02497014474954
 20
-5.072482636738612
 30
0.0
 10
-81.03268202836529
 20
-3.627749998119043
 30
0.0
 10
-81.04039396154917
 20
-0.7276686137797129
 30
0.0
 10
-81.04039396154917
 20
0.7276686136925435
 30
0.0
 10
-81.03268202836529
 20
3.627749998031958
 30
0.0
 10
-81.02497014474954
 20
5.072482636651614
 30
0.0
 10
-81.00194286016302
 20
7.930318363174563
 30
0.0
 10
-80.98662761747783
 20
9.343409833448191
 30
0.0
 10
-80.96761755148396
 20
10.73042792709327
 30
0.0
  0
SPLINE
  5
A5
330
2
100
AcDbEntity
  8
GEB-VERDECKT
 48
25.0
100
AcDbSpline
210
0.0
220
0.0
230
1.0
 70
     8
 71
     3
 72
    16
 73
    12
 74
     0
 42
0.0000000001
 43
0.0000000001
 40
2.837149406427543
 40
2.837149406427543
 40
2.837149406427543
 40
2.837149406427543
 40
2.958926705292443
 40
2.958926705292443
 40
3.080704004157344
 40
3.080704004157344
 40
3.202481303022244
 40
3.202481303022244
 40
3.324258601887144
 40
3.324258601887144
 40
3.446035900752044
 40
3.446035900752044
 40
3.446035900752044
 40
3.446035900752044
 10
-73.97428000041088
 20
-10.73042792717945
 30
0.0
 10
-73.99329006640474
 20
-9.343409833534622
 30
0.0
 10
-74.00860530908992
 20
-7.930318363261221
 30
0.0
 10
-74.03163259367642
 20
-5.072482636738612
 30
0.0
 10
-74.03934447729222
 20
-3.627749998119071
 30
0.0
 10
-74.04705641047607
 20
-0.7276686137797413
 30
0.0
 10
-74.04705641047607
 20
0.7276686136924582
 30
0.0
 10
-74.03934447729222
 20
3.627749998031873
 30
0.0
 10
-74.03163259367642
 20
5.0724826366515
 30
0.0
 10
-74.00860530908992
 20
7.930318363174421
 30
0.0
 10
-73.99329006640474
 20
9.343409833448021
 30
0.0
 10
-73.97428000041088
 20
10.73042792709313
 30
0.0
  0
LINE
  5
A6
330
2
100
AcDbEntity
  8
GEB-VERDECKT
 48
25.0
100
AcDbLine
 10
-42.00976049164959
 20
-38.10000000003185
 30
0.0
 11
-57.08539815532003
 21
-38.10000000003166
 31
0.0
  0
LINE
  5
A7
330
2
100
AcDbEntity
  8
GEB-VERDECKT
 48
25.0
100
AcDbLine
 10
-42.00976049164959
 20
38.09999999996799
 30
0.0
 11
-57.08539815532001
 21
38.09999999996816
 31
0.0
  0
ELLIPSE
  5
A8
330
2
100
AcDbEntity
  8
GEB-VERDECKT
 48
25.0
100
AcDbEllipse
 10
-58.0882902921542
 20
-0.0000000000317186
 30
0.0
 11
-0.0000000000000002
 21
35.09999999999993
 31
0.0
210
0.0
220
0.0
230
1.0
 40
0.0436193873653362
 41
0.0
 42
6.28318530717958
  0
ELLIPSE
  5
A9
330
2
100
AcDbEntity
  8
GEB-VERDECKT
 48
25.0
100
AcDbEllipse
 10
-63.27949712912758
 20
-0.0000000000316618
 30
0.0
 11
-0.0000000000000002
 21
38.09999999999991
 31
0.0
210
0.0
220
0.0
230
1.0
 40
0.0436193873653362
 41
0.0
 42
6.28318530717958
  0
ELLIPSE
  5
AA
330
2
100
AcDbEntity
  8
GEB-VERDECKT
 48
25.0
100
AcDbEllipse
 10
-101.5430440157132
 20
-0.0000000000311786
 30
0.0
 11
-0.0000000000000002
 21
38.09999999999993
 31
0.0
210
0.0
220
0.0
230
1.0
 40
0.0436193873653362
 41
0.0
 42
6.28318530717958
  0
ELLIPSE
  5
AB
330
2
100
AcDbEntity
  8
GEB-VERDECKT
 48
25.0
100
AcDbEllipse
 10
-101.5430440157132
 20
-0.0000000000311786
 30
0.0
 11
-0.0000000000000002
 21
42.29999999999989
 31
0.0
210
0.0
220
0.0
230
1.0
 40
0.0436193873653362
 41
0.0
 42
6.28318530717958
  0
ELLIPSE
  5
AC
330
2
100
AcDbEntity
  8
GEB-VERDECKT
 48
25.0
100
AcDbEllipse
 10
-110.2347635434754
 20
-0.0000000000310934
 30
0.0
 11
-0.0000000000000002
 21
42.29999999999991
 31
0.0
210
0.0
220
0.0
230
1.0
 40
0.0436193873653362
 41
0.0
 42
6.28318530717958
  0
ELLIPSE
  5
AD
330
2
100
AcDbEntity
  8
GEB-VERDECKT
 48
25.0
100
AcDbEllipse
 10
-110.2347635434754
 20
-0.0000000000310934
 30
0.0
 11
-0.0000000000000002
 21
38.09999999999993
 31
0.0
210
0.0
220
0.0
230
1.0
 40
0.0436193873653362
 41
0.0
 42
6.28318530717958
  0
ELLIPSE
  5
AE
330
2
100
AcDbEntity
  8
GEB-VERDECKT
 48
25.0
100
AcDbEllipse
 10
-112.7323840974301
 20
-0.0000000000310649
 30
0.0
 11
0.0000000000000001
 21
40.59999999999991
 31
0.0
210
0.0
220
0.0
230
1.0
 40
0.0436193873653362
 41
0.0
 42
3.141592653277434
  0
ELLIPSE
  5
AF
330
2
100
AcDbEntity
  8
GEB-VERDECKT
 48
25.0
100
AcDbEllipse
 10
-112.7323840974301
 20
-0.0000000000310649
 30
0.0
 11
-0.0000000000003823
 21
-44.79999999999989
 31
0.0
210
0.0
220
0.0
230
1.0
 40
0.0436193873653363
 41
3.578061682235968
 42
5.846716278355928
  0
ELLIPSE
  5
B0
330
2
100
AcDbEntity
  8
GEB-VERDECKT
 48
25.0
100
AcDbEllipse
 10
-60.28235246438194
 20
-0.0000000000317186
 30
0.0
 11
-0.000000000000511
 21
-39.34999999999991
 31
0.0
210
0.0
220
0.0
230
1.0
 40
0.0436193873653362
 41
0.2965777131987153
 42
2.845014940391553
  0
ELLIPSE
  5
B1
330
2
100
AcDbEntity
  8
GEB-VERDECKT
 48
25.0
100
AcDbEllipse
 10
-57.08539815531998
 20
-0.0000000000317186
 30
0.0
 11
0.0000000000003336
 21
39.34999999999991
 31
0.0
210
0.0
220
0.0
230
1.0
 40
0.0436193873653362
 41
3.803800909671855
 42
5.620977050963088
  0
LINE
  5
B2
330
2
100
AcDbEntity
  8
GEB-VERDECKT
 48
25.0
100
AcDbLine
 10
-59.78072950968061
 20
-38.93725722238531
 30
0.0
 11
-59.78072950968061
 21
-37.63206744256982
 31
0.0
  0
LINE
  5
B3
330
2
100
AcDbEntity
  8
GEB-VERDECKT
 48
25.0
100
AcDbLine
 10
-59.78072950968061
 20
-37.63206744256982
 30
0.0
 11
-59.61769332737157
 21
-37.63206744256982
 31
0.0
  0
LINE
  5
B4
330
2
100
AcDbEntity
  8
GEB-VERDECKT
 48
25.0
100
AcDbLine
 10
-56.58377520061861
 20
-37.63206744256988
 30
0.0
 11
-56.58377520061861
 21
-36.32299547121704
 31
0.0
  0
LINE
  5
B5
330
2
100
AcDbEntity
  8
GEB-VERDECKT
 48
25.0
100
AcDbLine
 10
-49.53829326894504
 20
-40.60000000002832
 30
0.0
 11
-41.50813753694822
 21
-40.60000000002844
 31
0.0
  0
LINE
  5
B6
330
2
100
AcDbEntity
  8
GEB-VERDECKT
 48
25.0
100
AcDbLine
 10
-98.54380050705714
 20
-40.6000000000277
 30
0.0
 11
-98.21932247263772
 21
-40.60000000002773
 31
0.0
  0
LINE
  5
B7
330
2
100
AcDbEntity
  8
GEB-VERDECKT
 48
25.0
100
AcDbLine
 10
-41.50813753694822
 20
-40.60000000002844
 30
0.0
 11
-41.50813753694819
 21
-36.32299547121721
 31
0.0
  0
ELLIPSE
  5
B8
330
2
100
AcDbEntity
  8
GEB-VERDECKT
 48
25.0
100
AcDbEllipse
 10
-42.00976049164956
 20
-0.0000000000319744
 30
0.0
 11
-0.000000000000495
 21
-38.0999999999999
 31
0.0
210
0.0
220
0.0
230
1.0
 40
0.0436193873653363
 41
5.97656608570137
 42
6.589804528658434
  0
LINE
  5
B9
330
2
100
AcDbEntity
  8
GEB-VERDECKT
 48
25.0
100
AcDbLine
 10
-56.42522697738221
 20
-36.32299547121704
 30
0.0
 11
-56.58377520061861
 21
-36.32299547121704
 31
0.0
  0
LINE
  5
BA
330
2
100
AcDbEntity
  8
GEB-VERDECKT
 48
25.0
100
AcDbLine
 10
-41.50813753694819
 20
-36.32299547121721
 30
0.0
 11
-52.75454956683839
 21
-36.32299547121707
 31
0.0
  0
ELLIPSE
  5
BB
330
2
100
AcDbEntity
  8
GEB-VERDECKT
 48
25.0
100
AcDbEllipse
 10
-57.08539815531998
 20
-0.000000000031747
 30
0.0
 11
-0.0000000000004949
 21
-38.09999999999991
 31
0.0
210
0.0
220
0.0
230
1.0
 40
0.0436193873653362
 41
5.97656608570137
 42
6.589804528658456
  0
LINE
  5
BC
330
2
100
AcDbEntity
  8
GEB-VERDECKT
 48
25.0
100
AcDbLine
 10
-42.51138344635092
 20
-40.60000000003526
 30
0.0
 11
-42.51138344635089
 21
-36.32299547122403
 31
0.0
  0
LINE
  5
BD
330
2
100
AcDbEntity
  8
GEB-VERDECKT
 48
25.0
100
AcDbLine
 10
-57.58702111002131
 20
-36.32299547122386
 30
0.0
 11
-56.58377520061861
 21
-36.32299547122389
 31
0.0
  0
LINE
  5
BE
330
2
100
AcDbEntity
  8
GEB-VERDECKT
 48
25.0
100
AcDbLine
 10
-57.58702111002131
 20
-36.32299547122386
 30
0.0
 11
-57.58702111002134
 21
-37.63206744257673
 31
0.0
  0
LINE
  5
BF
330
2
100
AcDbEntity
  8
GEB-VERDECKT
 48
25.0
100
AcDbLine
 10
-59.78072950968061
 20
-37.6320674425767
 30
0.0
 11
-60.78397541908334
 21
-37.63206744257664
 31
0.0
  0
ELLIPSE
  5
C0
330
2
100
AcDbEntity
  8
GEB-VERDECKT
 48
25.0
100
AcDbEllipse
 10
-57.08539815531998
 20
-0.0000000000317186
 30
0.0
 11
0.0000000000005113
 21
39.34999999999993
 31
0.0
210
0.0
220
0.0
230
1.0
 40
0.0436193873653362
 41
0.2965777131987842
 42
2.845014940391603
  0
LINE
  5
C1
330
2
100
AcDbEntity
  8
GEB-VERDECKT
 48
25.0
100
AcDbLine
 10
-60.78397541908334
 20
-37.63206744257664
 30
0.0
 11
-60.78397541908334
 21
-38.93725722239216
 31
0.0
  0
ELLIPSE
  5
C2
330
2
100
AcDbEntity
  8
GEB-VERDECKT
 48
25.0
100
AcDbEllipse
 10
-60.28235246438194
 20
-0.0000000000316902
 30
0.0
 11
0.0000000000005113
 21
39.34999999999993
 31
0.0
210
0.0
220
0.0
230
1.0
 40
0.0436193873653362
 41
0.2965777131987842
 42
2.845014940391603
  0
SPLINE
  5
C3
330
2
100
AcDbEntity
  8
GEB-VERDECKT
 48
25.0
100
AcDbSpline
210
0.0
220
0.0
230
1.0
 70
     8
 71
     3
 72
    28
 73
    24
 74
     0
 42
0.0000000001
 43
0.0000000001
 40
0.0001313713827774
 40
0.0001313713827774
 40
0.0001313713827774
 40
0.0001313713827774
 40
0.1699823435974464
 40
0.1699823435974464
 40
0.2359852913256785
 40
0.2359852913256785
 40
0.2509416450178962
 40
0.2509416450178962
 40
0.2577210618550381
 40
0.2577210618550381
 40
0.2621161837068308
 40
0.2621161837068308
 40
0.2660500458110009
 40
0.2660500458110009
 40
0.2708764225476415
 40
0.2708764225476415
 40
0.2794527665778864
 40
0.2794527665778864
 40
0.3006598919505363
 40
0.3006598919505363
 40
0.3800224291737506
 40
0.3800224291737506
 40
0.5638716632468812
 40
0.5638716632468812
 40
0.5638716632468812
 40
0.5638716632468812
 10
-93.64229993934506
 20
-32.95015215588094
 30
0.0
 10
-93.58554340823827
 20
-33.28014247159487
 30
0.0
 10
-93.5171880692941
 20
-33.54177996227745
 30
0.0
 10
-93.41347261119272
 20
-33.79297195883439
 30
0.0
 10
-93.368156252396
 20
-33.88792222487158
 30
0.0
 10
-93.30030529623915
 20
-33.95737799293403
 30
0.0
 10
-93.2854078294614
 20
-33.97015835563005
 30
0.0
 10
-93.26115946472464
 20
-33.98353990212979
 30
0.0
 10
-93.25240769387368
 20
-33.98743129874001
 30
0.0
 10
-93.23649389638745
 20
-33.99160653069478
 30
0.0
 10
-93.22991877103481
 20
-33.99266221948514
 30
0.0
 10
-93.2169474907676
 20
-33.99309911454489
 30
0.0
 10
-93.21100926826167
 20
-33.99263086011976
 30
0.0
 10
-93.19821144266938
 20
-33.99029554227781
 30
0.0
 10
-93.19175763518009
 20
-33.98819115650508
 30
0.0
 10
-93.17563039966339
 20
-33.9812675105149
 30
0.0
 10
-93.16666385304239
 20
-33.97530896898871
 30
0.0
 10
-93.14092079436932
 20
-33.95476006866545
 30
0.0
 10
-93.12557657949108
 20
-33.93519317601087
 30
0.0
 10
-93.06727840847612
 20
-33.84519157309077
 30
0.0
 10
-93.03638525065798
 20
-33.73909592702262
 30
0.0
 10
-92.97538530551731
 20
-33.48588044152288
 30
0.0
 10
-92.94580635865395
 20
-33.24526922258562
 30
0.0
 10
-92.93081159163099
 20
-32.95015215588097
 30
0.0
  0
SPLINE
  5
C4
330
2
100
AcDbEntity
  8
GEB-VERDECKT
 48
25.0
100
AcDbSpline
210
0.0
220
0.0
230
1.0
 70
     8
 71
     3
 72
    18
 73
    14
 74
     0
 42
0.0000000001
 43
0.0000000001
 40
3.852716598000005
 40
3.852716598000005
 40
3.852716598000005
 40
3.852716598000005
 40
4.038372487232881
 40
4.038372487232881
 40
4.368138376595315
 40
4.368138376595315
 40
5.010916804789026
 40
5.010916804789026
 40
5.870434557513849
 40
5.870434557513849
 40
6.913880305415015
 40
6.913880305415015
 40
7.695197836021934
 40
7.695197836021934
 40
7.695197836021934
 40
7.695197836021934
 10
-95.0218909036163
 20
-0.0000000000433715
 30
0.0
 10
-95.0218909036163
 20
-0.6198751368449678
 30
0.0
 10
-95.02127301917997
 20
-1.239699456789622
 30
0.0
 10
-95.01782064710644
 20
-2.958973737912799
 30
0.0
 10
-95.01364839346365
 20
-4.056455514040777
 30
0.0
 10
-94.99508332848989
 20
-7.277721484910415
 30
0.0
 10
-94.97490033432942
 20
-9.381794397592983
 30
0.0
 10
-94.90294684992054
 20
-14.19483748347736
 30
0.0
 10
-94.84316314388269
 20
-16.85498193394335
 30
0.0
 10
-94.64538336109773
 20
-22.43830880775164
 30
0.0
 10
-94.49464136459756
 20
-25.27234765335931
 30
0.0
 10
-94.10776627749834
 20
-29.70832636749353
 30
0.0
 10
-93.90374853649879
 20
-31.43005387934224
 30
0.0
 10
-93.64229993934506
 20
-32.95015215588094
 30
0.0
  0
SPLINE
  5
C5
330
2
100
AcDbEntity
  8
GEB-VERDECKT
 48
25.0
100
AcDbSpline
210
0.0
220
0.0
230
1.0
 70
     8
 71
     3
 72
    16
 73
    12
 74
     0
 42
0.0000000001
 43
0.0000000001
 40
0.0029989623155395
 40
0.0029989623155395
 40
0.0029989623155395
 40
0.0029989623155395
 40
1.593171455419905
 40
1.593171455419905
 40
3.043278655103499
 40
3.043278655103499
 40
3.502361017653607
 40
3.502361017653607
 40
3.783155273006209
 40
3.783155273006209
 40
3.852716598000005
 40
3.852716598000005
 40
3.852716598000005
 40
3.852716598000005
 10
-93.64229993934506
 20
32.95015215580426
 30
0.0
 10
-94.17378903282727
 20
29.86000111350572
 30
0.0
 10
-94.4744895612354
 20
25.95236306753054
 30
0.0
 10
-94.85242670081081
 20
17.33464611808756
 30
0.0
 10
-94.93991810845935
 20
12.79914147764017
 30
0.0
 10
-94.99960790057258
 20
6.550735585964957
 30
0.0
 10
-95.00936599795656
 20
5.032228193286556
 30
0.0
 10
-95.01881346455084
 20
2.570880901380007
 30
0.0
 10
-95.02092770912453
 20
1.634238835688677
 30
0.0
 10
-95.02180399985162
 20
0.4645152733324381
 30
0.0
 10
-95.0218909036163
 20
0.2322540697025488
 30
0.0
 10
-95.0218909036163
 20
-0.0000000000433715
 30
0.0
  0
SPLINE
  5
C6
330
2
100
AcDbEntity
  8
GEB-VERDECKT
 48
25.0
100
AcDbSpline
210
0.0
220
0.0
230
1.0
 70
     8
 71
     3
 72
    28
 73
    24
 74
     0
 42
0.0000000001
 43
0.0000000001
 40
0.000131371382778
 40
0.000131371382778
 40
0.000131371382778
 40
0.000131371382778
 40
0.1699823435974093
 40
0.1699823435974093
 40
0.2359852913257261
 40
0.2359852913257261
 40
0.2509416450210416
 40
0.2509416450210416
 40
0.2577210618604786
 40
0.2577210618604786
 40
0.2621161837137094
 40
0.2621161837137094
 40
0.2660500458191795
 40
0.2660500458191795
 40
0.270876422557421
 40
0.270876422557421
 40
0.2794527665900437
 40
0.2794527665900437
 40
0.3006598919666543
 40
0.3006598919666543
 40
0.3800224291940839
 40
0.3800224291940839
 40
0.5638716632770061
 40
0.5638716632770061
 40
0.5638716632770061
 40
0.5638716632770061
 10
-92.93081159163099
 20
32.95015215580423
 30
0.0
 10
-92.94757825294007
 20
33.28014247151836
 30
0.0
 10
-92.98247392597493
 20
33.54177996220116
 30
0.0
 10
-93.05350299073504
 20
33.79297195875853
 30
0.0
 10
-93.0863129394793
 20
33.88792222479566
 30
0.0
 10
-93.14492986877695
 20
33.95737799286079
 30
0.0
 10
-93.15812448783271
 20
33.97015835555535
 30
0.0
 10
-93.18058771368203
 20
33.98353990205399
 30
0.0
 10
-93.18881997604677
 20
33.98743129866418
 30
0.0
 10
-93.20417620433579
 20
33.99160653061895
 30
0.0
 10
-93.21061030334012
 20
33.99266221940937
 30
0.0
 10
-93.22352322291811
 20
33.99309911446909
 30
0.0
 10
-93.22952400189015
 20
33.99263086004393
 30
0.0
 10
-93.24263374033979
 20
33.99029554220201
 30
0.0
 10
-93.24936858189596
 20
33.9881911564294
 30
0.0
 10
-93.26642002773061
 20
33.9812675104391
 30
0.0
 10
-93.27618147802402
 20
33.975308968913
 30
0.0
 10
-93.30466313874888
 20
33.95476006859082
 30
0.0
 10
-93.3226097835112
 20
33.93519317593757
 30
0.0
 10
-93.39284042950728
 20
33.84519157301489
 30
0.0
 10
-93.43763532044205
 20
33.73909592694654
 30
0.0
 10
-93.53139724386052
 20
33.48588044144688
 30
0.0
 10
-93.59154141650675
 20
33.24526922250957
 30
0.0
 10
-93.64229993934506
 20
32.95015215580426
 30
0.0
  0
SPLINE
  5
C7
330
2
100
AcDbEntity
  8
GEB-VERDECKT
 48
25.0
100
AcDbSpline
210
0.0
220
0.0
230
1.0
 70
     8
 71
     3
 72
    18
 73
    14
 74
     0
 42
0.0000000001
 43
0.0000000001
 40
3.852716598000137
 40
3.852716598000137
 40
3.852716598000137
 40
3.852716598000137
 40
4.038372487232973
 40
4.038372487232973
 40
4.368138376595207
 40
4.368138376595207
 40
5.010916804788372
 40
5.010916804788372
 40
5.870434557512496
 40
5.870434557512496
 40
6.913880305412786
 40
6.913880305412786
 40
7.695197836018963
 40
7.695197836018963
 40
7.695197836018963
 40
7.695197836018963
 10
-93.02379446045256
 20
-0.0000000000433715
 30
0.0
 10
-93.02379446045256
 20
0.6198751367581963
 30
0.0
 10
-93.02317388130395
 20
1.239699456702879
 30
0.0
 10
-93.01975144858266
 20
2.9589737378258
 30
0.0
 10
-93.01562306302157
 20
4.056455513954119
 30
0.0
 10
-92.99826046846693
 20
7.277721484824411
 30
0.0
 10
-92.98000707238315
 20
9.381794397507235
 30
0.0
 10
-92.92863894254029
 20
14.19483748339255
 30
0.0
 10
-92.89259221100081
 20
16.85498193385925
 30
0.0
 10
-92.82583390460832
 20
22.43830880766947
 30
0.0
 10
-92.79777569280886
 20
25.27234765327828
 30
0.0
 10
-92.82084121657442
 20
29.7083263674146
 30
0.0
 10
-92.85357607366089
 20
31.43005387926436
 30
0.0
 10
-92.93081159163099
 20
32.95015215580423
 30
0.0
  0
SPLINE
  5
C8
330
2
100
AcDbEntity
  8
GEB-VERDECKT
 48
25.0
100
AcDbSpline
210
0.0
220
0.0
230
1.0
 70
     8
 71
     3
 72
    16
 73
    12
 74
     0
 42
0.0000000001
 43
0.0000000001
 40
0.0029989623155942
 40
0.0029989623155942
 40
0.0029989623155942
 40
0.0029989623155942
 40
1.5931714554199
 40
1.5931714554199
 40
3.043278655103506
 40
3.043278655103506
 40
3.502361017653702
 40
3.502361017653702
 40
3.78315527300635
 40
3.78315527300635
 40
3.852716598000137
 40
3.852716598000137
 40
3.852716598000137
 40
3.852716598000137
 10
-92.93081159163099
 20
-32.95015215588097
 30
0.0
 10
-92.77380239029108
 20
-29.8600011135851
 30
0.0
 10
-92.79218642011228
 20
-25.95236306761231
 30
0.0
 10
-92.8819125370382
 20
-17.33464611817282
 30
0.0
 10
-92.9516009741429
 20
-12.79914147772655
 30
0.0
 10
-93.00222723221919
 20
-6.550735586051899
 30
0.0
 10
-93.01155087455299
 20
-5.032228193373356
 30
0.0
 10
-93.02071008231427
 20
-2.570880901466978
 30
0.0
 10
-93.02283228406741
 20
-1.634238835775761
 30
0.0
 10
-93.02370750351039
 20
-0.4645152734191811
 30
0.0
 10
-93.02379446045256
 20
-0.2322540697893203
 30
0.0
 10
-93.02379446045256
 20
-0.0000000000433715
 30
0.0
  0
SPLINE
  5
C9
330
2
100
AcDbEntity
  8
GEB-VERDECKT
 48
25.0
100
AcDbSpline
210
0.0
220
0.0
230
1.0
 70
     8
 71
     3
 72
    28
 73
    24
 74
     0
 42
0.0000000001
 43
0.0000000001
 40
0.0001313713827774
 40
0.0001313713827774
 40
0.0001313713827774
 40
0.0001313713827774
 40
0.1699823435974397
 40
0.1699823435974397
 40
0.2359852913257011
 40
0.2359852913257011
 40
0.2509416450175716
 40
0.2509416450175716
 40
0.2577210618544569
 40
0.2577210618544569
 40
0.2621161837060828
 40
0.2621161837060828
 40
0.2660500458101033
 40
0.2660500458101033
 40
0.2708764225465599
 40
0.2708764225465599
 40
0.2794527665764772
 40
0.2794527665764772
 40
0.3006598919483223
 40
0.3006598919483223
 40
0.3800224291685691
 40
0.3800224291685691
 40
0.5638716632348221
 40
0.5638716632348221
 40
0.5638716632348221
 40
0.5638716632348221
 10
-86.648962388272
 20
-32.95015215588106
 30
0.0
 10
-86.59220585716525
 20
-33.28014247159493
 30
0.0
 10
-86.52385051822099
 20
-33.5417799622775
 30
0.0
 10
-86.42013506011961
 20
-33.79297195883453
 30
0.0
 10
-86.3748187013229
 20
-33.88792222487166
 30
0.0
 10
-86.30696774516634
 20
-33.95737799293383
 30
0.0
 10
-86.29207027838857
 20
-33.97015835562996
 30
0.0
 10
-86.26782191365157
 20
-33.98353990212988
 30
0.0
 10
-86.25907014280063
 20
-33.98743129874006
 30
0.0
 10
-86.24315634531432
 20
-33.99160653069487
 30
0.0
 10
-86.23658121996177
 20
-33.99266221948526
 30
0.0
 10
-86.22360993969449
 20
-33.99309911454498
 30
0.0
 10
-86.21767171718861
 20
-33.99263086011985
 30
0.0
 10
-86.20487389159629
 20
-33.99029554227789
 30
0.0
 10
-86.19842008410703
 20
-33.98819115650514
 30
0.0
 10
-86.18229284859031
 20
-33.98126751051498
 30
0.0
 10
-86.17332630196932
 20
-33.9753089689888
 30
0.0
 10
-86.14758324329622
 20
-33.95476006866557
 30
0.0
 10
-86.132239028418
 20
-33.93519317601093
 30
0.0
 10
-86.07394085740301
 20
-33.84519157309089
 30
0.0
 10
-86.04304769958487
 20
-33.73909592702271
 30
0.0
 10
-85.9820477544442
 20
-33.48588044152294
 30
0.0
 10
-85.95246880758088
 20
-33.2452692225857
 30
0.0
 10
-85.9374740405579
 20
-32.95015215588106
 30
0.0
  0
SPLINE
  5
CA
330
2
100
AcDbEntity
  8
GEB-VERDECKT
 48
25.0
100
AcDbSpline
210
0.0
220
0.0
230
1.0
 70
     8
 71
     3
 72
    18
 73
    14
 74
     0
 42
0.0000000001
 43
0.0000000001
 40
3.852716598000005
 40
3.852716598000005
 40
3.852716598000005
 40
3.852716598000005
 40
4.038372487232881
 40
4.038372487232881
 40
4.368138376595315
 40
4.368138376595315
 40
5.010916804789026
 40
5.010916804789026
 40
5.870434557513849
 40
5.870434557513849
 40
6.913880305415015
 40
6.913880305415015
 40
7.695197836021934
 40
7.695197836021934
 40
7.695197836021934
 40
7.695197836021934
 10
-88.02855335254321
 20
-0.0000000000434568
 30
0.0
 10
-88.02855335254321
 20
-0.6198751368450815
 30
0.0
 10
-88.02793546810688
 20
-1.239699456789679
 30
0.0
 10
-88.02448309603335
 20
-2.958973737912884
 30
0.0
 10
-88.02031084239056
 20
-4.056455514040834
 30
0.0
 10
-88.00174577741676
 20
-7.277721484910529
 30
0.0
 10
-87.98156278325629
 20
-9.381794397593068
 30
0.0
 10
-87.90960929884745
 20
-14.19483748347747
 30
0.0
 10
-87.84982559280962
 20
-16.8549819339434
 30
0.0
 10
-87.65204581002468
 20
-22.43830880775175
 30
0.0
 10
-87.50130381352448
 20
-25.27234765335939
 30
0.0
 10
-87.11442872642525
 20
-29.70832636749361
 30
0.0
 10
-86.91041098542573
 20
-31.4300538793423
 30
0.0
 10
-86.648962388272
 20
-32.95015215588106
 30
0.0
  0
SPLINE
  5
CB
330
2
100
AcDbEntity
  8
GEB-VERDECKT
 48
25.0
100
AcDbSpline
210
0.0
220
0.0
230
1.0
 70
     8
 71
     3
 72
    16
 73
    12
 74
     0
 42
0.0000000001
 43
0.0000000001
 40
0.0029989623155395
 40
0.0029989623155395
 40
0.0029989623155395
 40
0.0029989623155395
 40
1.593171455419905
 40
1.593171455419905
 40
3.043278655103499
 40
3.043278655103499
 40
3.502361017653607
 40
3.502361017653607
 40
3.783155273006209
 40
3.783155273006209
 40
3.852716598000005
 40
3.852716598000005
 40
3.852716598000005
 40
3.852716598000005
 10
-86.64896238827196
 20
32.95015215580418
 30
0.0
 10
-87.18045148175418
 20
29.86000111350563
 30
0.0
 10
-87.48115201016231
 20
25.95236306753049
 30
0.0
 10
-87.85908914973768
 20
17.33464611808748
 30
0.0
 10
-87.94658055738628
 20
12.79914147764006
 30
0.0
 10
-88.00627034949945
 20
6.550735585964844
 30
0.0
 10
-88.01602844688346
 20
5.032228193286499
 30
0.0
 10
-88.02547591347778
 20
2.570880901379922
 30
0.0
 10
-88.02759015805145
 20
1.634238835688591
 30
0.0
 10
-88.02846644877854
 20
0.4645152733323244
 30
0.0
 10
-88.02855335254321
 20
0.2322540697024351
 30
0.0
 10
-88.02855335254321
 20
-0.0000000000434568
 30
0.0
  0
SPLINE
  5
CC
330
2
100
AcDbEntity
  8
GEB-VERDECKT
 48
25.0
100
AcDbSpline
210
0.0
220
0.0
230
1.0
 70
     8
 71
     3
 72
    28
 73
    24
 74
     0
 42
0.0000000001
 43
0.0000000001
 40
0.0001313713827781
 40
0.0001313713827781
 40
0.0001313713827781
 40
0.0001313713827781
 40
0.1699823435973194
 40
0.1699823435973194
 40
0.2359852913255852
 40
0.2359852913255852
 40
0.250941645021387
 40
0.250941645021387
 40
0.2577210618614909
 40
0.2577210618614909
 40
0.2621161837148943
 40
0.2621161837148943
 40
0.2660500458204216
 40
0.2660500458204216
 40
0.2708764225588008
 40
0.2708764225588008
 40
0.2794527665918141
 40
0.2794527665918141
 40
0.3006598919693166
 40
0.3006598919693166
 40
0.3800224291978393
 40
0.3800224291978393
 40
0.56387166328299
 40
0.56387166328299
 40
0.56387166328299
 40
0.56387166328299
 10
-85.9374740405579
 20
32.95015215580418
 30
0.0
 10
-85.95424070186698
 20
33.28014247151811
 30
0.0
 10
-85.98913637490182
 20
33.54177996220099
 30
0.0
 10
-86.06016543966195
 20
33.79297195875847
 30
0.0
 10
-86.09297538840625
 20
33.88792222479557
 30
0.0
 10
-86.15159231770423
 20
33.95737799286113
 30
0.0
 10
-86.16478693675995
 20
33.97015835555547
 30
0.0
 10
-86.18725016260928
 20
33.98353990205416
 30
0.0
 10
-86.19548242497378
 20
33.98743129866412
 30
0.0
 10
-86.21083865326227
 20
33.9916065306187
 30
0.0
 10
-86.21727275226684
 20
33.99266221940931
 30
0.0
 10
-86.23018567184507
 20
33.99309911446903
 30
0.0
 10
-86.23618645081711
 20
33.99263086004385
 30
0.0
 10
-86.24929618926675
 20
33.99029554220192
 30
0.0
 10
-86.25603103082296
 20
33.98819115642928
 30
0.0
 10
-86.27308247665757
 20
33.98126751043904
 30
0.0
 10
-86.28284392695105
 20
33.97530896891283
 30
0.0
 10
-86.3113255876755
 20
33.9547600685909
 30
0.0
 10
-86.32927223243768
 20
33.93519317593797
 30
0.0
 10
-86.39950287843422
 20
33.84519157301478
 30
0.0
 10
-86.44429776936894
 20
33.73909592694648
 30
0.0
 10
-86.53805969278744
 20
33.48588044144677
 30
0.0
 10
-86.59820386543364
 20
33.24526922250951
 30
0.0
 10
-86.64896238827196
 20
32.95015215580418
 30
0.0
  0
SPLINE
  5
CD
330
2
100
AcDbEntity
  8
GEB-VERDECKT
 48
25.0
100
AcDbSpline
210
0.0
220
0.0
230
1.0
 70
     8
 71
     3
 72
    18
 73
    14
 74
     0
 42
0.0000000001
 43
0.0000000001
 40
3.852716598000137
 40
3.852716598000137
 40
3.852716598000137
 40
3.852716598000137
 40
4.038372487232973
 40
4.038372487232973
 40
4.368138376595207
 40
4.368138376595207
 40
5.010916804788372
 40
5.010916804788372
 40
5.870434557512496
 40
5.870434557512496
 40
6.913880305412786
 40
6.913880305412786
 40
7.695197836018963
 40
7.695197836018963
 40
7.695197836018963
 40
7.695197836018963
 10
-86.0304569093795
 20
-0.0000000000434852
 30
0.0
 10
-86.0304569093795
 20
0.6198751367581111
 30
0.0
 10
-86.02983633023086
 20
1.239699456702794
 30
0.0
 10
-86.0264138975096
 20
2.958973737825687
 30
0.0
 10
-86.02228551194846
 20
4.056455513954034
 30
0.0
 10
-86.00492291739385
 20
7.277721484824297
 30
0.0
 10
-85.9866695213101
 20
9.381794397507121
 30
0.0
 10
-85.9353013914672
 20
14.19483748339246
 30
0.0
 10
-85.89925465992768
 20
16.85498193385919
 30
0.0
 10
-85.83249635353524
 20
22.43830880766939
 30
0.0
 10
-85.80443814173577
 20
25.27234765327816
 30
0.0
 10
-85.82750366550135
 20
29.70832636741448
 30
0.0
 10
-85.86023852258781
 20
31.43005387926425
 30
0.0
 10
-85.9374740405579
 20
32.95015215580418
 30
0.0
  0
SPLINE
  5
CE
330
2
100
AcDbEntity
  8
GEB-VERDECKT
 48
25.0
100
AcDbSpline
210
0.0
220
0.0
230
1.0
 70
     8
 71
     3
 72
    16
 73
    12
 74
     0
 42
0.0000000001
 43
0.0000000001
 40
0.0029989623155941
 40
0.0029989623155941
 40
0.0029989623155941
 40
0.0029989623155941
 40
1.5931714554199
 40
1.5931714554199
 40
3.043278655103506
 40
3.043278655103506
 40
3.502361017653702
 40
3.502361017653702
 40
3.78315527300635
 40
3.78315527300635
 40
3.852716598000137
 40
3.852716598000137
 40
3.852716598000137
 40
3.852716598000137
 10
-85.9374740405579
 20
-32.95015215588106
 30
0.0
 10
-85.78046483921799
 20
-29.86000111358519
 30
0.0
 10
-85.7988488690392
 20
-25.9523630676124
 30
0.0
 10
-85.88857498596508
 20
-17.33464611817294
 30
0.0
 10
-85.95826342306983
 20
-12.7991414777266
 30
0.0
 10
-86.00888968114608
 20
-6.550735586051956
 30
0.0
 10
-86.0182133234799
 20
-5.03222819337347
 30
0.0
 10
-86.02737253124121
 20
-2.570880901467091
 30
0.0
 10
-86.0294947329943
 20
-1.634238835775818
 30
0.0
 10
-86.0303699524373
 20
-0.4645152734192948
 30
0.0
 10
-86.0304569093795
 20
-0.2322540697894055
 30
0.0
 10
-86.0304569093795
 20
-0.0000000000434852
 30
0.0
  0
SPLINE
  5
CF
330
2
100
AcDbEntity
  8
GEB-VERDECKT
 48
25.0
100
AcDbSpline
210
0.0
220
0.0
230
1.0
 70
     8
 71
     3
 72
    28
 73
    24
 74
     0
 42
0.0000000001
 43
0.0000000001
 40
0.0001313713827693
 40
0.0001313713827693
 40
0.0001313713827693
 40
0.0001313713827693
 40
0.1699823435973711
 40
0.1699823435973711
 40
0.2359852913254426
 40
0.2359852913254426
 40
0.2509416450205721
 40
0.2509416450205721
 40
0.2577210618599997
 40
0.2577210618599997
 40
0.2621161837132609
 40
0.2621161837132609
 40
0.2660500458187362
 40
0.2660500458187362
 40
0.2708764225569044
 40
0.2708764225569044
 40
0.2794527665894658
 40
0.2794527665894658
 40
0.3006598919664957
 40
0.3006598919664957
 40
0.3800224291958478
 40
0.3800224291958478
 40
0.5638716632830613
 40
0.5638716632830613
 40
0.5638716632830613
 40
0.5638716632830613
 10
-79.6556248371989
 20
-32.95015215588117
 30
0.0
 10
-79.59886830609216
 20
-33.28014247159493
 30
0.0
 10
-79.53051296714796
 20
-33.54177996227756
 30
0.0
 10
-79.42679750904659
 20
-33.79297195883453
 30
0.0
 10
-79.38148115024984
 20
-33.88792222487169
 30
0.0
 10
-79.31363019409047
 20
-33.95737799293673
 30
0.0
 10
-79.29873272731327
 20
-33.9701583556313
 30
0.0
 10
-79.27448436257833
 20
-33.98353990213008
 30
0.0
 10
-79.26573259172747
 20
-33.9874312987402
 30
0.0
 10
-79.24981879424129
 20
-33.99160653069495
 30
0.0
 10
-79.24324366888871
 20
-33.99266221948534
 30
0.0
 10
-79.23027238862141
 20
-33.99309911454506
 30
0.0
 10
-79.22433416611551
 20
-33.99263086011993
 30
0.0
 10
-79.2115363405233
 20
-33.99029554227798
 30
0.0
 10
-79.20508253303421
 20
-33.98819115650539
 30
0.0
 10
-79.18895529751722
 20
-33.98126751051507
 30
0.0
 10
-79.17998875089614
 20
-33.97530896898885
 30
0.0
 10
-79.15424569222455
 20
-33.95476006866676
 30
0.0
 10
-79.13890147734654
 20
-33.93519317601349
 30
0.0
 10
-79.08060330632998
 20
-33.84519157309103
 30
0.0
 10
-79.04971014851188
 20
-33.73909592702302
 30
0.0
 10
-78.98871020337111
 20
-33.48588044152305
 30
0.0
 10
-78.95913125650782
 20
-33.2452692225857
 30
0.0
 10
-78.94413648948483
 20
-32.95015215588117
 30
0.0
  0
SPLINE
  5
D0
330
2
100
AcDbEntity
  8
GEB-VERDECKT
 48
25.0
100
AcDbSpline
210
0.0
220
0.0
230
1.0
 70
     8
 71
     3
 72
    18
 73
    14
 74
     0
 42
0.0000000001
 43
0.0000000001
 40
3.852716598000075
 40
3.852716598000075
 40
3.852716598000075
 40
3.852716598000075
 40
4.038372487232971
 40
4.038372487232971
 40
4.36813837659545
 40
4.36813837659545
 40
5.010916804789212
 40
5.010916804789212
 40
5.870434557514112
 40
5.870434557514112
 40
6.913880305415295
 40
6.913880305415295
 40
7.69519783602225
 40
7.69519783602225
 40
7.69519783602225
 40
7.69519783602225
 10
-81.03521580147011
 20
-0.0000000000435705
 30
0.0
 10
-81.03521580147011
 20
-0.6198751368451667
 30
0.0
 10
-81.03459791703377
 20
-1.23969945678985
 30
0.0
 10
-81.03114554496025
 20
-2.958973737913197
 30
0.0
 10
-81.02697329131748
 20
-4.056455514041203
 30
0.0
 10
-81.00840822634371
 20
-7.27772148491087
 30
0.0
 10
-80.98822523218322
 20
-9.381794397593409
 30
0.0
 10
-80.91627174777437
 20
-14.19483748347781
 30
0.0
 10
-80.85648804173649
 20
-16.85498193394383
 30
0.0
 10
-80.65870825895155
 20
-22.43830880775212
 30
0.0
 10
-80.50796626245135
 20
-25.27234765335967
 30
0.0
 10
-80.12109117535215
 20
-29.70832636749381
 30
0.0
 10
-79.91707343435263
 20
-31.43005387934247
 30
0.0
 10
-79.6556248371989
 20
-32.95015215588117
 30
0.0
  0
SPLINE
  5
D1
330
2
100
AcDbEntity
  8
GEB-VERDECKT
 48
25.0
100
AcDbSpline
210
0.0
220
0.0
230
1.0
 70
     8
 71
     3
 72
    16
 73
    12
 74
     0
 42
0.0000000001
 43
0.0000000001
 40
0.0029989623155394
 40
0.0029989623155394
 40
0.0029989623155394
 40
0.0029989623155394
 40
1.593171455419909
 40
1.593171455419909
 40
3.043278655103514
 40
3.043278655103514
 40
3.502361017653661
 40
3.502361017653661
 40
3.783155273006291
 40
3.783155273006291
 40
3.852716598000075
 40
3.852716598000075
 40
3.852716598000075
 40
3.852716598000075
 10
-79.6556248371989
 20
32.95015215580406
 30
0.0
 10
-80.18711393068111
 20
29.86000111350552
 30
0.0
 10
-80.4878144590892
 20
25.95236306753037
 30
0.0
 10
-80.86575159866459
 20
17.33464611808739
 30
0.0
 10
-80.95324300631318
 20
12.79914147763995
 30
0.0
 10
-81.01293279842639
 20
6.550735585964645
 30
0.0
 10
-81.02269089581037
 20
5.032228193286101
 30
0.0
 10
-81.03213836240469
 20
2.570880901379723
 30
0.0
 10
-81.03425260697838
 20
1.634238835688478
 30
0.0
 10
-81.03512889770545
 20
0.4645152733321538
 30
0.0
 10
-81.03521580147011
 20
0.232254069702293
 30
0.0
 10
-81.03521580147011
 20
-0.0000000000435705
 30
0.0
  0
SPLINE
  5
D2
330
2
100
AcDbEntity
  8
GEB-VERDECKT
 48
25.0
100
AcDbSpline
210
0.0
220
0.0
230
1.0
 70
     8
 71
     3
 72
    28
 73
    24
 74
     0
 42
0.0000000001
 43
0.0000000001
 40
0.0001313713827864
 40
0.0001313713827864
 40
0.0001313713827864
 40
0.0001313713827864
 40
0.1699823435973689
 40
0.1699823435973689
 40
0.235985291325556
 40
0.235985291325556
 40
0.25094164502052
 40
0.25094164502052
 40
0.2577210618596857
 40
0.2577210618596857
 40
0.2621161837128967
 40
0.2621161837128967
 40
0.2660500458183976
 40
0.2660500458183976
 40
0.2708764225566737
 40
0.2708764225566737
 40
0.2794527665894336
 40
0.2794527665894336
 40
0.3006598919665349
 40
0.3006598919665349
 40
0.3800224291978983
 40
0.3800224291978983
 40
0.5638716632899971
 40
0.5638716632899971
 40
0.5638716632899971
 40
0.5638716632899971
 10
-78.9441364894848
 20
32.95015215580406
 30
0.0
 10
-78.96090315079391
 20
33.28014247151808
 30
0.0
 10
-78.99579882382875
 20
33.54177996220091
 30
0.0
 10
-79.06682788858879
 20
33.79297195875822
 30
0.0
 10
-79.09963783733309
 20
33.88792222479549
 30
0.0
 10
-79.15825476663059
 20
33.95737799286039
 30
0.0
 10
-79.1714493856864
 20
33.97015835555507
 30
0.0
 10
-79.19391261153584
 20
33.98353990205382
 30
0.0
 10
-79.20214487390061
 20
33.98743129866403
 30
0.0
 10
-79.21750110218983
 20
33.99160653061884
 30
0.0
 10
-79.22393520119405
 20
33.99266221940917
 30
0.0
 10
-79.23684812077192
 20
33.99309911446892
 30
0.0
 10
-79.24284889974393
 20
33.99263086004376
 30
0.0
 10
-79.25595863819364
 20
33.99029554220181
 30
0.0
 10
-79.26269347974986
 20
33.9881911564292
 30
0.0
 10
-79.27974492558442
 20
33.98126751043893
 30
0.0
 10
-79.28950637587781
 20
33.97530896891286
 30
0.0
 10
-79.31798803660305
 20
33.95476006859039
 30
0.0
 10
-79.33593468136542
 20
33.93519317593686
 30
0.0
 10
-79.40616532736112
 20
33.84519157301466
 30
0.0
 10
-79.4509602182959
 20
33.7390959269463
 30
0.0
 10
-79.54472214171454
 20
33.4858804414462
 30
0.0
 10
-79.60486631436072
 20
33.24526922250871
 30
0.0
 10
-79.6556248371989
 20
32.95015215580406
 30
0.0
  0
SPLINE
  5
D3
330
2
100
AcDbEntity
  8
GEB-VERDECKT
 48
25.0
100
AcDbSpline
210
0.0
220
0.0
230
1.0
 70
     8
 71
     3
 72
    18
 73
    14
 74
     0
 42
0.0000000001
 43
0.0000000001
 40
3.852716598000064
 40
3.852716598000064
 40
3.852716598000064
 40
3.852716598000064
 40
4.038372487233065
 40
4.038372487233065
 40
4.368138376595619
 40
4.368138376595619
 40
5.010916804789375
 40
5.010916804789375
 40
5.870434557514304
 40
5.870434557514304
 40
6.913880305415636
 40
6.913880305415636
 40
7.695197836022617
 40
7.695197836022617
 40
7.695197836022617
 40
7.695197836022617
 10
-79.03711935830642
 20
-0.0000000000435705
 30
0.0
 10
-79.03711935830642
 20
0.6198751367581963
 30
0.0
 10
-79.03649877915774
 20
1.239699456702794
 30
0.0
 10
-79.03307634643647
 20
2.958973737825516
 30
0.0
 10
-79.0289479608754
 20
4.056455513953807
 30
0.0
 10
-79.01158536632073
 20
7.277721484823956
 30
0.0
 10
-78.99333197023699
 20
9.381794397506695
 30
0.0
 10
-78.9419638403941
 20
14.19483748339186
 30
0.0
 10
-78.90591710885463
 20
16.85498193385845
 30
0.0
 10
-78.83915880246212
 20
22.43830880766868
 30
0.0
 10
-78.81110059066267
 20
25.27234765327765
 30
0.0
 10
-78.83416611442823
 20
29.70832636741437
 30
0.0
 10
-78.86690097151475
 20
31.43005387926414
 30
0.0
 10
-78.9441364894848
 20
32.95015215580406
 30
0.0
  0
SPLINE
  5
D4
330
2
100
AcDbEntity
  8
GEB-VERDECKT
 48
25.0
100
AcDbSpline
210
0.0
220
0.0
230
1.0
 70
     8
 71
     3
 72
    16
 73
    12
 74
     0
 42
0.0000000001
 43
0.0000000001
 40
0.0029989623156031
 40
0.0029989623156031
 40
0.0029989623156031
 40
0.0029989623156031
 40
1.593171455419883
 40
1.593171455419883
 40
3.043278655103513
 40
3.043278655103513
 40
3.502361017653645
 40
3.502361017653645
 40
3.783155273006256
 40
3.783155273006256
 40
3.852716598000064
 40
3.852716598000064
 40
3.852716598000064
 40
3.852716598000064
 10
-78.94413648948483
 20
-32.95015215588117
 30
0.0
 10
-78.78712728814491
 20
-29.86000111358533
 30
0.0
 10
-78.80551131796611
 20
-25.9523630676126
 30
0.0
 10
-78.89523743489201
 20
-17.33464611817311
 30
0.0
 10
-78.96492587199674
 20
-12.79914147772672
 30
0.0
 10
-79.01555213007302
 20
-6.550735586052098
 30
0.0
 10
-79.02487577240674
 20
-5.032228193373754
 30
0.0
 10
-79.03403498016814
 20
-2.570880901467006
 30
0.0
 10
-79.03615718192122
 20
-1.634238835775619
 30
0.0
 10
-79.03703240136422
 20
-0.4645152734192664
 30
0.0
 10
-79.03711935830642
 20
-0.2322540697894055
 30
0.0
 10
-79.03711935830642
 20
-0.0000000000435705
 30
0.0
  0
SPLINE
  5
D5
330
2
100
AcDbEntity
  8
GEB-VERDECKT
 48
25.0
100
AcDbSpline
210
0.0
220
0.0
230
1.0
 70
     8
 71
     3
 72
    28
 73
    24
 74
     0
 42
0.0000000001
 43
0.0000000001
 40
0.0001313713827771
 40
0.0001313713827771
 40
0.0001313713827771
 40
0.0001313713827771
 40
0.1699823435973059
 40
0.1699823435973059
 40
0.235985291325338
 40
0.235985291325338
 40
0.2509416450169386
 40
0.2509416450169386
 40
0.2577210618536445
 40
0.2577210618536445
 40
0.2621161837051527
 40
0.2621161837051527
 40
0.2660500458090691
 40
0.2660500458090691
 40
0.2708764225453974
 40
0.2708764225453974
 40
0.2794527665750877
 40
0.2794527665750877
 40
0.3006598919464912
 40
0.3006598919464912
 40
0.3800224291658242
 40
0.3800224291658242
 40
0.5638716632298446
 40
0.5638716632298446
 40
0.5638716632298446
 40
0.5638716632298446
 10
-72.66228728612583
 20
-32.95015215588123
 30
0.0
 10
-72.60553075501909
 20
-33.28014247159487
 30
0.0
 10
-72.53717541607489
 20
-33.54177996227756
 30
0.0
 10
-72.43345995797347
 20
-33.79297195883462
 30
0.0
 10
-72.38814359917674
 20
-33.8879222248718
 30
0.0
 10
-72.32029264302034
 20
-33.95737799293383
 30
0.0
 10
-72.30539517624254
 20
-33.97015835563008
 30
0.0
 10
-72.28114681150538
 20
-33.98353990213005
 30
0.0
 10
-72.27239504065443
 20
-33.98743129874029
 30
0.0
 10
-72.25648124316814
 20
-33.99160653069504
 30
0.0
 10
-72.24990611781556
 20
-33.99266221948542
 30
0.0
 10
-72.23693483754835
 20
-33.99309911454518
 30
0.0
 10
-72.23099661504241
 20
-33.99263086012002
 30
0.0
 10
-72.21819878945007
 20
-33.99029554227806
 30
0.0
 10
-72.21174498196083
 20
-33.98819115650534
 30
0.0
 10
-72.19561774644413
 20
-33.98126751051516
 30
0.0
 10
-72.18665119982313
 20
-33.97530896898897
 30
0.0
 10
-72.16090814114997
 20
-33.95476006866562
 30
0.0
 10
-72.14556392627173
 20
-33.93519317601093
 30
0.0
 10
-72.08726575525685
 20
-33.84519157309106
 30
0.0
 10
-72.05637259743872
 20
-33.73909592702302
 30
0.0
 10
-71.99537265229799
 20
-33.48588044152294
 30
0.0
 10
-71.96579370543469
 20
-33.24526922258556
 30
0.0
 10
-71.95079893841174
 20
-32.95015215588123
 30
0.0
  0
SPLINE
  5
D6
330
2
100
AcDbEntity
  8
GEB-VERDECKT
 48
25.0
100
AcDbSpline
210
0.0
220
0.0
230
1.0
 70
     8
 71
     3
 72
    18
 73
    14
 74
     0
 42
0.0000000001
 43
0.0000000001
 40
3.852716598000007
 40
3.852716598000007
 40
3.852716598000007
 40
3.852716598000007
 40
4.038372487232883
 40
4.038372487232883
 40
4.368138376595316
 40
4.368138376595316
 40
5.010916804789028
 40
5.010916804789028
 40
5.870434557513852
 40
5.870434557513852
 40
6.913880305415016
 40
6.913880305415016
 40
7.695197836021931
 40
7.695197836021931
 40
7.695197836021931
 40
7.695197836021931
 10
-74.04187825039705
 20
-0.0000000000436273
 30
0.0
 10
-74.04187825039705
 20
-0.6198751368451952
 30
0.0
 10
-74.04126036596071
 20
-1.23969945678985
 30
0.0
 10
-74.03780799388716
 20
-2.958973737913055
 30
0.0
 10
-74.03363574024439
 20
-4.056455514041033
 30
0.0
 10
-74.01507067527063
 20
-7.277721484910699
 30
0.0
 10
-73.99488768111012
 20
-9.381794397593239
 30
0.0
 10
-73.92293419670131
 20
-14.19483748347764
 30
0.0
 10
-73.86315049066343
 20
-16.8549819339436
 30
0.0
 10
-73.66537070787848
 20
-22.43830880775192
 30
0.0
 10
-73.5146287113783
 20
-25.27234765335959
 30
0.0
 10
-73.12775362427905
 20
-29.70832636749378
 30
0.0
 10
-72.92373588327953
 20
-31.43005387934252
 30
0.0
 10
-72.66228728612583
 20
-32.95015215588123
 30
0.0
  0
SPLINE
  5
D7
330
2
100
AcDbEntity
  8
GEB-VERDECKT
 48
25.0
100
AcDbSpline
210
0.0
220
0.0
230
1.0
 70
     8
 71
     3
 72
    16
 73
    12
 74
     0
 42
0.0000000001
 43
0.0000000001
 40
0.0029989623155396
 40
0.0029989623155396
 40
0.0029989623155396
 40
0.0029989623155396
 40
1.593171455419905
 40
1.593171455419905
 40
3.0432786551035
 40
3.0432786551035
 40
3.502361017653608
 40
3.502361017653608
 40
3.78315527300621
 40
3.78315527300621
 40
3.852716598000007
 40
3.852716598000007
 40
3.852716598000007
 40
3.852716598000007
 10
-72.6622872861258
 20
32.95015215580398
 30
0.0
 10
-73.19377637960804
 20
29.86000111350546
 30
0.0
 10
-73.49447690801614
 20
25.95236306753029
 30
0.0
 10
-73.87241404759151
 20
17.3346461180873
 30
0.0
 10
-73.95990545524009
 20
12.79914147763989
 30
0.0
 10
-74.01959524735332
 20
6.550735585964702
 30
0.0
 10
-74.0293533447373
 20
5.0322281932863
 30
0.0
 10
-74.03880081133161
 20
2.570880901379723
 30
0.0
 10
-74.04091505590526
 20
1.634238835688421
 30
0.0
 10
-74.04179134663235
 20
0.4645152733321538
 30
0.0
 10
-74.04187825039705
 20
0.2322540697022646
 30
0.0
 10
-74.04187825039705
 20
-0.0000000000436273
 30
0.0
  0
SPLINE
  5
D8
330
2
100
AcDbEntity
  8
GEB-VERDECKT
 48
25.0
100
AcDbSpline
210
0.0
220
0.0
230
1.0
 70
     8
 71
     3
 72
    28
 73
    24
 74
     0
 42
0.0000000001
 43
0.0000000001
 40
0.000131371382778
 40
0.000131371382778
 40
0.000131371382778
 40
0.000131371382778
 40
0.169982343597392
 40
0.169982343597392
 40
0.2359852913257936
 40
0.2359852913257936
 40
0.2509416450213089
 40
0.2509416450213089
 40
0.2577210618608663
 40
0.2577210618608663
 40
0.2621161837141739
 40
0.2621161837141739
 40
0.2660500458197111
 40
0.2660500458197111
 40
0.2708764225580294
 40
0.2708764225580294
 40
0.2794527665908004
 40
0.2794527665908004
 40
0.3006598919678226
 40
0.3006598919678226
 40
0.3800224291952978
 40
0.3800224291952978
 40
0.5638716632781922
 40
0.5638716632781922
 40
0.5638716632781922
 40
0.5638716632781922
 10
-71.95079893841174
 20
32.95015215580398
 30
0.0
 10
-71.96756559972081
 20
33.28014247151808
 30
0.0
 10
-72.00246127275568
 20
33.54177996220088
 30
0.0
 10
-72.07349033751578
 20
33.79297195875836
 30
0.0
 10
-72.10630028626008
 20
33.88792222479546
 30
0.0
 10
-72.1649172155578
 20
33.95737799286067
 30
0.0
 10
-72.17811183461359
 20
33.97015835555513
 30
0.0
 10
-72.20057506046277
 20
33.98353990205376
 30
0.0
 10
-72.20880732282754
 20
33.98743129866392
 30
0.0
 10
-72.22416355111653
 20
33.9916065306187
 30
0.0
 10
-72.23059765012087
 20
33.99266221940909
 30
0.0
 10
-72.24351056969888
 20
33.99309911446883
 30
0.0
 10
-72.24951134867089
 20
33.99263086004367
 30
0.0
 10
-72.26262108712055
 20
33.99029554220175
 30
0.0
 10
-72.2693559286767
 20
33.98819115642917
 30
0.0
 10
-72.28640737451138
 20
33.98126751043887
 30
0.0
 10
-72.29616882480488
 20
33.97530896891266
 30
0.0
 10
-72.32465048552945
 20
33.95476006859067
 30
0.0
 10
-72.34259713029167
 20
33.9351931759376
 30
0.0
 10
-72.41282777628803
 20
33.8451915730146
 30
0.0
 10
-72.45762266722275
 20
33.73909592694636
 30
0.0
 10
-72.55138459064141
 20
33.48588044144626
 30
0.0
 10
-72.61152876328759
 20
33.2452692225088
 30
0.0
 10
-72.6622872861258
 20
32.95015215580398
 30
0.0
  0
SPLINE
  5
D9
330
2
100
AcDbEntity
  8
GEB-VERDECKT
 48
25.0
100
AcDbSpline
210
0.0
220
0.0
230
1.0
 70
     8
 71
     3
 72
    18
 73
    14
 74
     0
 42
0.0000000001
 43
0.0000000001
 40
3.852716598000137
 40
3.852716598000137
 40
3.852716598000137
 40
3.852716598000137
 40
4.038372487232973
 40
4.038372487232973
 40
4.368138376595207
 40
4.368138376595207
 40
5.010916804788372
 40
5.010916804788372
 40
5.870434557512497
 40
5.870434557512497
 40
6.913880305412788
 40
6.913880305412788
 40
7.695197836018965
 40
7.695197836018965
 40
7.695197836018965
 40
7.695197836018965
 10
-72.0437818072333
 20
-0.0000000000436557
 30
0.0
 10
-72.0437818072333
 20
0.6198751367579121
 30
0.0
 10
-72.04316122808467
 20
1.239699456702595
 30
0.0
 10
-72.03973879536338
 20
2.958973737825516
 30
0.0
 10
-72.03561040980227
 20
4.056455513953835
 30
0.0
 10
-72.01824781524766
 20
7.277721484824155
 30
0.0
 10
-71.99999441916393
 20
9.381794397506979
 30
0.0
 10
-71.94862628932103
 20
14.19483748339229
 30
0.0
 10
-71.9125795577815
 20
16.85498193385899
 30
0.0
 10
-71.84582125138906
 20
22.43830880766922
 30
0.0
 10
-71.81776303958961
 20
25.27234765327799
 30
0.0
 10
-71.84082856335516
 20
29.70832636741432
 30
0.0
 10
-71.87356342044163
 20
31.43005387926408
 30
0.0
 10
-71.95079893841174
 20
32.95015215580398
 30
0.0
  0
SPLINE
  5
DA
330
2
100
AcDbEntity
  8
GEB-VERDECKT
 48
25.0
100
AcDbSpline
210
0.0
220
0.0
230
1.0
 70
     8
 71
     3
 72
    16
 73
    12
 74
     0
 42
0.0000000001
 43
0.0000000001
 40
0.0029989623155942
 40
0.0029989623155942
 40
0.0029989623155942
 40
0.0029989623155942
 40
1.5931714554199
 40
1.5931714554199
 40
3.043278655103506
 40
3.043278655103506
 40
3.502361017653702
 40
3.502361017653702
 40
3.78315527300635
 40
3.78315527300635
 40
3.852716598000137
 40
3.852716598000137
 40
3.852716598000137
 40
3.852716598000137
 10
-71.95079893841174
 20
-32.95015215588123
 30
0.0
 10
-71.79378973707182
 20
-29.86000111358535
 30
0.0
 10
-71.81217376689301
 20
-25.9523630676126
 30
0.0
 10
-71.90189988381894
 20
-17.33464611817311
 30
0.0
 10
-71.97158832092364
 20
-12.7991414777268
 30
0.0
 10
-72.02221457899992
 20
-6.550735586052127
 30
0.0
 10
-72.03153822133367
 20
-5.03222819337364
 30
0.0
 10
-72.04069742909505
 20
-2.570880901467262
 30
0.0
 10
-72.04281963084813
 20
-1.634238835776017
 30
0.0
 10
-72.04369485029113
 20
-0.4645152734194653
 30
0.0
 10
-72.0437818072333
 20
-0.2322540697896045
 30
0.0
 10
-72.0437818072333
 20
-0.0000000000436557
 30
0.0
  0
LINE
  5
DB
330
2
100
AcDbEntity
  8
GEB-VERDECKT
 48
25.0
100
AcDbLine
 10
-98.54380050705714
 20
-38.93725722239168
 30
0.0
 11
-99.54704641645987
 21
-38.93725722239168
 31
0.0
  0
ELLIPSE
  5
DC
330
2
100
AcDbEntity
  8
GEB-VERDECKT
 48
25.0
100
AcDbEllipse
 10
-60.28235246438194
 20
-0.0000000000317186
 30
0.0
 11
0.0000000000005278
 21
40.59999999999992
 31
0.0
210
0.0
220
0.0
230
1.0
 40
0.0436193873653362
 41
0.2871824895285231
 42
2.854410164062267
  0
ELLIPSE
  5
DD
330
2
100
AcDbEntity
  8
GEB-VERDECKT
 48
25.0
100
AcDbEllipse
 10
-60.28235246438194
 20
-0.0000000000317186
 30
0.0
 11
0.0000000000003447
 21
40.59999999999992
 31
0.0
210
0.0
220
0.0
230
1.0
 40
0.0436193873653361
 41
4.043413479926735
 42
5.381364480759977
  0
LINE
  5
DE
330
2
100
AcDbEntity
  8
GEB-VERDECKT
 48
25.0
100
AcDbLine
 10
-98.54380050705714
 20
-38.93725722238483
 30
0.0
 11
-98.07895130338579
 21
-38.93725722238486
 31
0.0
  0
SPLINE
  5
DF
330
2
100
AcDbEntity
  8
GEB-VERDECKT
 48
25.0
100
AcDbSpline
210
0.0
220
0.0
230
1.0
 70
     8
 71
     3
 72
    12
 73
     8
 74
     0
 42
0.0000000001
 43
0.0000000001
 40
3.852716598000161
 40
3.852716598000161
 40
3.852716598000161
 40
3.852716598000161
 40
4.038372487233206
 40
4.038372487233206
 40
4.368138376595831
 40
4.368138376595831
 40
4.937154559511226
 40
4.937154559511226
 40
4.937154559511226
 40
4.937154559511226
 10
-68.50188755316802
 20
-0.0000000000194973
 30
0.0
 10
-68.50188755316802
 20
-0.6198751368213778
 30
0.0
 10
-68.50250543760433
 20
-1.239699456765976
 30
0.0
 10
-68.50595780967785
 20
-2.95897373788884
 30
0.0
 10
-68.51013006332067
 20
-4.056455514017159
 30
0.0
 10
-68.52728706816652
 20
-7.033405820951742
 30
0.0
 10
-68.54435011357594
 20
-8.898558828607775
 30
0.0
 10
-68.5694805824692
 20
-10.73042792802852
 30
0.0
  0
SPLINE
  5
E0
330
2
100
AcDbEntity
  8
GEB-VERDECKT
 48
25.0
100
AcDbSpline
210
0.0
220
0.0
230
1.0
 70
     8
 71
     3
 72
    14
 73
    10
 74
     0
 42
0.0000000001
 43
0.0000000001
 40
2.768143133386469
 40
2.768143133386469
 40
2.768143133386469
 40
2.768143133386469
 40
3.043278655103556
 40
3.043278655103556
 40
3.50236101765371
 40
3.50236101765371
 40
3.783155273006349
 40
3.783155273006349
 40
3.852716598000161
 40
3.852716598000161
 40
3.852716598000161
 40
3.852716598000161
 10
-68.56922774084657
 20
10.7304269073559
 30
0.0
 10
-68.55724498351674
 20
9.846578113546939
 30
0.0
 10
-68.54712548627452
 20
8.953687835769869
 30
0.0
 10
-68.52417055621174
 20
6.550735585988746
 30
0.0
 10
-68.51441245882776
 20
5.032228193310373
 30
0.0
 10
-68.50496499223343
 20
2.570880901403853
 30
0.0
 10
-68.50285074765975
 20
1.634238835712523
 30
0.0
 10
-68.50197445693265
 20
0.4645152733561986
 30
0.0
 10
-68.50188755316802
 20
0.2322540697263093
 30
0.0
 10
-68.50188755316802
 20
-0.0000000000194973
 30
0.0
  0
SPLINE
  5
E1
330
2
100
AcDbEntity
  8
GEB-VERDECKT
 48
25.0
100
AcDbSpline
210
0.0
220
0.0
230
1.0
 70
     8
 71
     3
 72
    12
 73
     8
 74
     0
 42
0.0000000001
 43
0.0000000001
 40
3.852716598000162
 40
3.852716598000162
 40
3.852716598000162
 40
3.852716598000162
 40
4.038372487233207
 40
4.038372487233207
 40
4.368138376595832
 40
4.368138376595832
 40
4.937154559511268
 40
4.937154559511268
 40
4.937154559511268
 40
4.937154559511268
 10
-75.49522510424111
 20
-0.0000000000194404
 30
0.0
 10
-75.49522510424111
 20
-0.6198751368212641
 30
0.0
 10
-75.49584298867745
 20
-1.239699456765919
 30
0.0
 10
-75.49929536075097
 20
-2.958973737888726
 30
0.0
 10
-75.50346761439374
 20
-4.056455514017045
 30
0.0
 10
-75.52062461923958
 20
-7.03340582095177
 30
0.0
 10
-75.53768766464902
 20
-8.898558828607974
 30
0.0
 10
-75.56281813354229
 20
-10.7304279280288
 30
0.0
  0
SPLINE
  5
E2
330
2
100
AcDbEntity
  8
GEB-VERDECKT
 48
25.0
100
AcDbSpline
210
0.0
220
0.0
230
1.0
 70
     8
 71
     3
 72
    14
 73
    10
 74
     0
 42
0.0000000001
 43
0.0000000001
 40
2.768143133386484
 40
2.768143133386484
 40
2.768143133386484
 40
2.768143133386484
 40
3.043278655103556
 40
3.043278655103556
 40
3.50236101765371
 40
3.50236101765371
 40
3.78315527300635
 40
3.78315527300635
 40
3.852716598000162
 40
3.852716598000162
 40
3.852716598000162
 40
3.852716598000162
 10
-75.56256529191966
 20
10.73042690735587
 30
0.0
 10
-75.55058253458986
 20
9.846578113546939
 30
0.0
 10
-75.54046303734764
 20
8.953687835769898
 30
0.0
 10
-75.51750810728484
 20
6.550735585988832
 30
0.0
 10
-75.5077500099008
 20
5.03222819331043
 30
0.0
 10
-75.49830254330649
 20
2.570880901403967
 30
0.0
 10
-75.49618829873285
 20
1.634238835712636
 30
0.0
 10
-75.49531200800578
 20
0.4645152733562839
 30
0.0
 10
-75.49522510424111
 20
0.232254069726423
 30
0.0
 10
-75.49522510424111
 20
-0.0000000000194404
 30
0.0
  0
SPLINE
  5
E3
330
2
100
AcDbEntity
  8
GEB-VERDECKT
 48
25.0
100
AcDbSpline
210
0.0
220
0.0
230
1.0
 70
     8
 71
     3
 72
    12
 73
     8
 74
     0
 42
0.0000000001
 43
0.0000000001
 40
3.852716598000162
 40
3.852716598000162
 40
3.852716598000162
 40
3.852716598000162
 40
4.038372487233207
 40
4.038372487233207
 40
4.368138376595832
 40
4.368138376595832
 40
4.937154559511249
 40
4.937154559511249
 40
4.937154559511249
 40
4.937154559511249
 10
-82.4885626553142
 20
-0.0000000000193268
 30
0.0
 10
-82.4885626553142
 20
-0.6198751368212072
 30
0.0
 10
-82.48918053975051
 20
-1.239699456765805
 30
0.0
 10
-82.49263291182405
 20
-2.958973737888641
 30
0.0
 10
-82.4968051654668
 20
-4.05645551401696
 30
0.0
 10
-82.51396217031265
 20
-7.033405820951628
 30
0.0
 10
-82.53102521572211
 20
-8.898558828607747
 30
0.0
 10
-82.55615568461541
 20
-10.73042792802854
 30
0.0
  0
SPLINE
  5
E4
330
2
100
AcDbEntity
  8
GEB-VERDECKT
 48
25.0
100
AcDbSpline
210
0.0
220
0.0
230
1.0
 70
     8
 71
     3
 72
    14
 73
    10
 74
     0
 42
0.0000000001
 43
0.0000000001
 40
2.768143133386502
 40
2.768143133386502
 40
2.768143133386502
 40
2.768143133386502
 40
3.043278655103556
 40
3.043278655103556
 40
3.50236101765371
 40
3.50236101765371
 40
3.78315527300635
 40
3.78315527300635
 40
3.852716598000162
 40
3.852716598000162
 40
3.852716598000162
 40
3.852716598000162
 10
-82.55590284299277
 20
10.73042690735576
 30
0.0
 10
-82.54392008566298
 20
9.846578113546911
 30
0.0
 10
-82.53380058842072
 20
8.953687835769954
 30
0.0
 10
-82.51084565835794
 20
6.550735585988917
 30
0.0
 10
-82.50108756097393
 20
5.032228193310544
 30
0.0
 10
-82.4916400943796
 20
2.570880901404024
 30
0.0
 10
-82.48952584980591
 20
1.634238835712693
 30
0.0
 10
-82.48864955907885
 20
0.4645152733563407
 30
0.0
 10
-82.4885626553142
 20
0.2322540697265083
 30
0.0
 10
-82.4885626553142
 20
-0.0000000000193268
 30
0.0
  0
SPLINE
  5
E5
330
2
100
AcDbEntity
  8
GEB-VERDECKT
 48
25.0
100
AcDbSpline
210
0.0
220
0.0
230
1.0
 70
     8
 71
     3
 72
    12
 73
     8
 74
     0
 42
0.0000000001
 43
0.0000000001
 40
3.852716598000162
 40
3.852716598000162
 40
3.852716598000162
 40
3.852716598000162
 40
4.038372487233207
 40
4.038372487233207
 40
4.368138376595832
 40
4.368138376595832
 40
4.937154559511303
 40
4.937154559511303
 40
4.937154559511303
 40
4.937154559511303
 10
-89.48190020638728
 20
-0.0000000000192415
 30
0.0
 10
-89.48190020638728
 20
-0.619875136821122
 30
0.0
 10
-89.48251809082359
 20
-1.239699456765748
 30
0.0
 10
-89.48597046289711
 20
-2.958973737888555
 30
0.0
 10
-89.49014271653993
 20
-4.056455514016874
 30
0.0
 10
-89.50729972138578
 20
-7.033405820951742
 30
0.0
 10
-89.5243627667952
 20
-8.898558828608031
 30
0.0
 10
-89.54949323568849
 20
-10.73042792802897
 30
0.0
  0
SPLINE
  5
E6
330
2
100
AcDbEntity
  8
GEB-VERDECKT
 48
25.0
100
AcDbSpline
210
0.0
220
0.0
230
1.0
 70
     8
 71
     3
 72
    14
 73
    10
 74
     0
 42
0.0000000001
 43
0.0000000001
 40
2.768143133386447
 40
2.768143133386447
 40
2.768143133386447
 40
2.768143133386447
 40
3.043278655103556
 40
3.043278655103556
 40
3.50236101765371
 40
3.50236101765371
 40
3.78315527300635
 40
3.78315527300635
 40
3.852716598000162
 40
3.852716598000162
 40
3.852716598000162
 40
3.852716598000162
 10
-89.54924039406586
 20
10.73042690735642
 30
0.0
 10
-89.53725763673606
 20
9.846578113547366
 30
0.0
 10
-89.52713813949381
 20
8.953687835770182
 30
0.0
 10
-89.50418320943104
 20
6.550735585989002
 30
0.0
 10
-89.49442511204699
 20
5.032228193310601
 30
0.0
 10
-89.48497764545271
 20
2.570880901404137
 30
0.0
 10
-89.48286340087902
 20
1.634238835712807
 30
0.0
 10
-89.48198711015193
 20
0.4645152733564544
 30
0.0
 10
-89.48190020638728
 20
0.2322540697265936
 30
0.0
 10
-89.48190020638728
 20
-0.0000000000192415
 30
0.0
  0
ELLIPSE
  5
E7
330
2
100
AcDbEntity
  8
GEB-VERDECKT
 48
25.0
100
AcDbEllipse
 10
-99.04542346175853
 20
-0.0000000000312355
 30
0.0
 11
-0.000000000000533
 21
-40.59999999999992
 31
0.0
210
0.0
220
0.0
230
1.0
 40
0.0436193873653363
 41
0.2871824895285223
 42
2.854410164062267
  0
LINE
  5
E8
330
2
100
AcDbEntity
  8
GEB-VERDECKT
 48
25.0
100
AcDbLine
 10
-98.54380050705714
 20
-40.6000000000277
 30
0.0
 11
-98.54380050705714
 21
-38.93725722238483
 31
0.0
  0
LINE
  5
E9
330
2
100
AcDbEntity
  8
GEB-VERDECKT
 48
25.0
100
AcDbLine
 10
-99.54704641645987
 20
-40.60000000003455
 30
0.0
 11
-98.54380050705714
 21
-40.60000000002773
 31
0.0
  0
LINE
  5
EA
330
2
100
AcDbEntity
  8
GEB-VERDECKT
 48
25.0
100
AcDbLine
 10
-99.54704641645987
 20
-38.93725722239168
 30
0.0
 11
-99.54704641645987
 21
-40.60000000003455
 31
0.0
  0
ELLIPSE
  5
EB
330
2
100
AcDbEntity
  8
GEB-VERDECKT
 48
25.0
100
AcDbEllipse
 10
-99.04542346175853
 20
-0.0000000000312355
 30
0.0
 11
0.000000000000533
 21
40.59999999999992
 31
0.0
210
0.0
220
0.0
230
1.0
 40
0.0436193873653363
 41
0.2871824895285223
 42
2.854410164062267
  0
ELLIPSE
  5
EC
330
2
100
AcDbEntity
  8
GEB-VERDECKT
 48
25.0
100
AcDbEllipse
 10
-99.04542346175853
 20
-0.0000000000312355
 30
0.0
 11
0.0000000000000019
 21
44.79999999999989
 31
0.0
210
0.0
220
0.0
230
1.0
 40
0.0436193873653362
 41
0.0
 42
3.141592653278365
  0
LINE
  5
ED
330
2
100
AcDbEntity
  8
GEB-VERDECKT
 48
25.0
100
AcDbLine
 10
-98.54380050705714
 20
40.59999999997214
 30
0.0
 11
-99.54704641645987
 21
40.59999999996526
 31
0.0
  0
LINE
  5
EE
330
2
100
AcDbEntity
  8
GEB-VERDECKT
 48
25.0
100
AcDbLine
 10
-60.78397541908334
 20
38.9372572223219
 30
0.0
 11
-60.78397541908334
 21
37.63206744250641
 31
0.0
  0
LINE
  5
EF
330
2
100
AcDbEntity
  8
GEB-VERDECKT
 48
25.0
100
AcDbLine
 10
-60.78397541908334
 20
37.63206744250641
 30
0.0
 11
-59.78072950968059
 21
37.63206744250638
 31
0.0
  0
LINE
  5
F0
330
2
100
AcDbEntity
  8
GEB-VERDECKT
 48
25.0
100
AcDbLine
 10
-57.58702111002134
 20
37.63206744250638
 30
0.0
 11
-57.58702111002134
 21
36.32299547115352
 31
0.0
  0
LINE
  5
F1
330
2
100
AcDbEntity
  8
GEB-VERDECKT
 48
25.0
100
AcDbLine
 10
-99.54704641645987
 20
40.59999999996526
 30
0.0
 11
-99.54704641645987
 21
38.93725722232242
 31
0.0
  0
LINE
  5
F2
330
2
100
AcDbEntity
  8
GEB-VERDECKT
 48
25.0
100
AcDbLine
 10
-99.54704641645987
 20
38.93725722232242
 30
0.0
 11
-98.54380050705708
 21
38.93725722232236
 31
0.0
  0
LINE
  5
F3
330
2
100
AcDbEntity
  8
GEB-VERDECKT
 48
25.0
100
AcDbLine
 10
-42.51138344635092
 20
40.59999999996458
 30
0.0
 11
-42.51138344635092
 21
36.32299547115335
 31
0.0
  0
ELLIPSE
  5
F4
330
2
100
AcDbEntity
  8
GEB-VERDECKT
 48
25.0
100
AcDbEllipse
 10
-42.00976049164956
 20
-0.0000000000319176
 30
0.0
 11
0.000000000000495
 21
38.0999999999999
 31
0.0
210
0.0
220
0.0
230
1.0
 40
0.0436193873653363
 41
5.97656608570137
 42
6.589804528658434
  0
LINE
  5
F5
330
2
100
AcDbEntity
  8
GEB-VERDECKT
 48
25.0
100
AcDbLine
 10
-56.58377520061861
 20
36.32299547115352
 30
0.0
 11
-57.58702111002134
 21
36.32299547115352
 31
0.0
  0
ELLIPSE
  5
F6
330
2
100
AcDbEntity
  8
GEB-VERDECKT
 48
25.0
100
AcDbEllipse
 10
-57.08539815531998
 20
-0.0000000000317186
 30
0.0
 11
0.0000000000004949
 21
38.09999999999991
 31
0.0
210
0.0
220
0.0
230
1.0
 40
0.0436193873653362
 41
5.97656608570137
 42
6.589804528658456
  0
LINE
  5
F7
330
2
100
AcDbEntity
  8
GEB-VERDECKT
 48
25.0
100
AcDbLine
 10
-98.54380050705714
 20
38.93725722232924
 30
0.0
 11
-98.54380050705714
 21
40.59999999997214
 31
0.0
  0
LINE
  5
F8
330
2
100
AcDbEntity
  8
GEB-VERDECKT
 48
25.0
100
AcDbLine
 10
-98.21932247263772
 20
40.59999999997214
 30
0.0
 11
-98.54380050705714
 21
40.59999999997214
 31
0.0
  0
LINE
  5
F9
330
2
100
AcDbEntity
  8
GEB-VERDECKT
 48
25.0
100
AcDbLine
 10
-41.50813753694819
 20
40.5999999999714
 30
0.0
 11
-49.53829326894475
 21
40.59999999997148
 31
0.0
  0
LINE
  5
FA
330
2
100
AcDbEntity
  8
GEB-VERDECKT
 48
25.0
100
AcDbLine
 10
-41.50813753694819
 20
40.5999999999714
 30
0.0
 11
-41.50813753694819
 21
36.3229954711602
 31
0.0
  0
LINE
  5
FB
330
2
100
AcDbEntity
  8
GEB-VERDECKT
 48
25.0
100
AcDbLine
 10
-52.7545495668382
 20
36.32299547116034
 30
0.0
 11
-41.50813753694822
 21
36.3229954711602
 31
0.0
  0
LINE
  5
FC
330
2
100
AcDbEntity
  8
GEB-VERDECKT
 48
25.0
100
AcDbLine
 10
-56.58377520061861
 20
36.32299547116037
 30
0.0
 11
-56.42522697738221
 21
36.32299547116037
 31
0.0
  0
LINE
  5
FD
330
2
100
AcDbEntity
  8
GEB-VERDECKT
 48
25.0
100
AcDbLine
 10
-56.58377520061861
 20
36.32299547116037
 30
0.0
 11
-56.58377520061861
 21
37.6320674425132
 31
0.0
  0
LINE
  5
FE
330
2
100
AcDbEntity
  8
GEB-VERDECKT
 48
25.0
100
AcDbLine
 10
-59.61769332737157
 20
37.63206744251323
 30
0.0
 11
-59.78072950968059
 21
37.63206744251323
 31
0.0
  0
LINE
  5
FF
330
2
100
AcDbEntity
  8
GEB-VERDECKT
 48
25.0
100
AcDbLine
 10
-59.78072950968061
 20
37.63206744251323
 30
0.0
 11
-59.78072950968059
 21
38.93725722232872
 31
0.0
  0
LINE
  5
100
330
2
100
AcDbEntity
  8
GEB-VERDECKT
 48
25.0
100
AcDbLine
 10
-98.07895130338579
 20
38.93725722232924
 30
0.0
 11
-98.54380050705714
 21
38.93725722232924
 31
0.0
  0
LINE
  5
101
330
2
100
AcDbEntity
  8
GEB-KONTUR-A
 48
25.0
100
AcDbLine
 10
-112.7323840974301
 20
40.59999999996884
 30
0.0
 11
-116.2290528729666
 21
40.5999999999689
 31
0.0
  0
LINE
  5
102
330
2
100
AcDbEntity
  8
GEB-KONTUR-A
 48
25.0
100
AcDbLine
 10
-112.7323840974301
 20
-40.60000000003092
 30
0.0
 11
-116.2290528729666
 21
-40.60000000003088
 31
0.0
  0
LINE
  5
103
330
2
100
AcDbEntity
  8
GEB-KONTUR-A
 48
25.0
100
AcDbLine
 10
-99.04542346175853
 20
44.79999999996866
 30
0.0
 11
-112.7323840974301
 21
44.79999999996883
 31
0.0
  0
LINE
  5
104
330
2
100
AcDbEntity
  8
GEB-KONTUR-A
 48
25.0
100
AcDbLine
 10
-99.04542346175853
 20
-44.80000000003108
 30
0.0
 11
-112.7323840974301
 21
-44.8000000000309
 31
0.0
  0
SPLINE
  5
105
330
2
100
AcDbEntity
  8
GEB-KONTUR-A
 48
25.0
100
AcDbSpline
210
0.0
220
0.0
230
1.0
 70
     8
 71
     3
 72
    16
 73
    12
 74
     0
 42
0.0000000001
 43
0.0000000001
 40
5.978742060017339
 40
5.978742060017339
 40
5.978742060017339
 40
5.978742060017339
 40
6.100519358882238
 40
6.100519358882238
 40
6.222296657747138
 40
6.222296657747138
 40
6.344073956612038
 40
6.344073956612038
 40
6.465851255476938
 40
6.465851255476938
 40
6.587628554341838
 40
6.587628554341838
 40
6.587628554341838
 40
6.587628554341838
 10
-89.54949845637347
 20
10.73042792711649
 30
0.0
 10
-89.53048839037956
 20
9.343409833471696
 30
0.0
 10
-89.51517314769441
 20
7.930318363198296
 30
0.0
 10
-89.49214586310791
 20
5.072482636675687
 30
0.0
 10
-89.4844339794921
 20
3.627749998056145
 30
0.0
 10
-89.47672204630825
 20
0.7276686137168725
 30
0.0
 10
-89.47672204630825
 20
-0.7276686137553554
 30
0.0
 10
-89.4844339794921
 20
-3.62774999809477
 30
0.0
 10
-89.49214586310791
 20
-5.072482636714397
 30
0.0
 10
-89.51517314769441
 20
-7.930318363237319
 30
0.0
 10
-89.53048839037961
 20
-9.343409833510946
 30
0.0
 10
-89.54949845637347
 20
-10.730427927156
 30
0.0
  0
SPLINE
  5
106
330
2
100
AcDbEntity
  8
GEB-KONTUR-A
 48
25.0
100
AcDbSpline
210
0.0
220
0.0
230
1.0
 70
     8
 71
     3
 72
    16
 73
    12
 74
     0
 42
0.0000000001
 43
0.0000000001
 40
5.978742060017355
 40
5.978742060017355
 40
5.978742060017355
 40
5.978742060017355
 40
6.100519358882248
 40
6.100519358882248
 40
6.222296657747142
 40
6.222296657747142
 40
6.344073956612035
 40
6.344073956612035
 40
6.465851255476929
 40
6.465851255476929
 40
6.587628554341822
 40
6.587628554341822
 40
6.587628554341822
 40
6.587628554341822
 10
-82.55616090530034
 20
10.73042792711587
 30
0.0
 10
-82.53715083930647
 20
9.343409833471127
 30
0.0
 10
-82.52183559662126
 20
7.930318363197812
 30
0.0
 10
-82.49880831203475
 20
5.072482636675346
 30
0.0
 10
-82.49109642841895
 20
3.627749998055861
 30
0.0
 10
-82.48338449523515
 20
0.7276686137167303
 30
0.0
 10
-82.48338449523515
 20
-0.7276686137554123
 30
0.0
 10
-82.49109642841895
 20
-3.627749998094714
 30
0.0
 10
-82.49880831203475
 20
-5.072482636714255
 30
0.0
 10
-82.52183559662126
 20
-7.930318363237034
 30
0.0
 10
-82.53715083930647
 20
-9.343409833510548
 30
0.0
 10
-82.55616090530034
 20
-10.73042792715554
 30
0.0
  0
SPLINE
  5
107
330
2
100
AcDbEntity
  8
GEB-KONTUR-A
 48
25.0
100
AcDbSpline
210
0.0
220
0.0
230
1.0
 70
     8
 71
     3
 72
    16
 73
    12
 74
     0
 42
0.0000000001
 43
0.0000000001
 40
5.978742060017349
 40
5.978742060017349
 40
5.978742060017349
 40
5.978742060017349
 40
6.100519358882245
 40
6.100519358882245
 40
6.22229665774714
 40
6.22229665774714
 40
6.344073956612035
 40
6.344073956612035
 40
6.46585125547693
 40
6.46585125547693
 40
6.587628554341828
 40
6.587628554341828
 40
6.587628554341828
 40
6.587628554341828
 10
-75.56282335422725
 20
10.73042792711598
 30
0.0
 10
-75.54381328823336
 20
9.343409833471213
 30
0.0
 10
-75.52849804554819
 20
7.930318363197841
 30
0.0
 10
-75.50547076096169
 20
5.072482636675346
 30
0.0
 10
-75.49775887734591
 20
3.627749998055861
 30
0.0
 10
-75.49004694416203
 20
0.7276686137166451
 30
0.0
 10
-75.49004694416203
 20
-0.7276686137554691
 30
0.0
 10
-75.49775887734591
 20
-3.627749998094799
 30
0.0
 10
-75.50547076096169
 20
-5.072482636714397
 30
0.0
 10
-75.52849804554819
 20
-7.930318363237205
 30
0.0
 10
-75.54381328823336
 20
-9.343409833510776
 30
0.0
 10
-75.56282335422728
 20
-10.73042792715583
 30
0.0
  0
SPLINE
  5
108
330
2
100
AcDbEntity
  8
GEB-KONTUR-A
 48
25.0
100
AcDbSpline
210
0.0
220
0.0
230
1.0
 70
     8
 71
     3
 72
    16
 73
    12
 74
     0
 42
0.0000000001
 43
0.0000000001
 40
5.978742060017345
 40
5.978742060017345
 40
5.978742060017345
 40
5.978742060017345
 40
6.100519358882239
 40
6.100519358882239
 40
6.222296657747134
 40
6.222296657747134
 40
6.344073956612028
 40
6.344073956612028
 40
6.465851255476922
 40
6.465851255476922
 40
6.587628554341817
 40
6.587628554341817
 40
6.587628554341817
 40
6.587628554341817
 10
-68.56948580315412
 20
10.73042792711604
 30
0.0
 10
-68.55047573716027
 20
9.34340983347127
 30
0.0
 10
-68.5351604944751
 20
7.930318363197955
 30
0.0
 10
-68.51213320988859
 20
5.072482636675459
 30
0.0
 10
-68.50442132627282
 20
3.627749998055975
 30
0.0
 10
-68.4967093930889
 20
0.7276686137167872
 30
0.0
 10
-68.4967093930889
 20
-0.7276686137553554
 30
0.0
 10
-68.50442132627282
 20
-3.627749998094628
 30
0.0
 10
-68.51213320988859
 20
-5.072482636714227
 30
0.0
 10
-68.5351604944751
 20
-7.930318363236978
 30
0.0
 10
-68.55047573716027
 20
-9.34340983351052
 30
0.0
 10
-68.56948580315417
 20
-10.73042792715554
 30
0.0
  0
ELLIPSE
  5
109
330
2
100
AcDbEntity
  8
GEB-KONTUR-A
 48
25.0
100
AcDbEllipse
 10
-116.2290528729666
 20
-0.0000000000310081
 30
0.0
 11
-0.0000000000000002
 21
38.09999999999993
 31
0.0
210
0.0
220
0.0
230
1.0
 40
0.0436193873653362
 41
0.0
 42
6.28318530717958
  0
ELLIPSE
  5
10A
330
2
100
AcDbEntity
  8
GEB-KONTUR-A
 48
25.0
100
AcDbEllipse
 10
-116.2290528729666
 20
-0.0000000000310081
 30
0.0
 11
-0.0000000000000002
 21
40.5999999999999
 31
0.0
210
0.0
220
0.0
230
1.0
 40
0.0436193873653362
 41
0.0
 42
6.28318530717958
  0
ELLIPSE
  5
10B
330
2
100
AcDbEntity
  8
GEB-KONTUR-A
 48
25.0
100
AcDbEllipse
 10
-112.7323840974301
 20
-0.0000000000310649
 30
0.0
 11
-0.0000000000000031
 21
-40.59999999999992
 31
0.0
210
0.0
220
0.0
230
1.0
 40
0.0436193873653362
 41
0.0
 42
3.141592653279177
  0
ELLIPSE
  5
10C
330
2
100
AcDbEntity
  8
GEB-KONTUR-A
 48
25.0
100
AcDbEllipse
 10
-112.7323840974301
 20
-0.0000000000310649
 30
0.0
 11
-0.0000000000005813
 21
-44.79999999999988
 31
0.0
210
0.0
220
0.0
230
1.0
 40
0.0436193873653362
 41
5.84671627844503
 42
9.861246989504657
  0
ELLIPSE
  5
10D
330
2
100
AcDbEntity
  8
GEB-KONTUR-A
 48
25.0
100
AcDbEllipse
 10
-57.08539815531998
 20
-0.0000000000318039
 30
0.0
 11
0.0000000000005117
 21
39.35
 31
0.0
210
0.0
220
0.0
230
1.0
 40
0.0436193873653362
 41
5.620977051030646
 42
5.986607593981444
  0
ELLIPSE
  5
10E
330
2
100
AcDbEntity
  8
GEB-KONTUR-A
 48
25.0
100
AcDbEllipse
 10
-57.08539815531998
 20
-0.0000000000319176
 30
0.0
 11
-0.0000000000005109
 21
-39.34999999999975
 31
0.0
210
0.0
220
0.0
230
1.0
 40
0.0436193873653362
 41
0.2965777131987858
 42
0.6622082561495811
  0
LINE
  5
10F
330
2
100
AcDbEntity
  8
GEB-KONTUR-A
 48
25.0
100
AcDbLine
 10
-59.61769332737157
 20
-37.63206744256982
 30
0.0
 11
-56.58377520061865
 21
-37.63206744256988
 31
0.0
  0
LINE
  5
110
330
2
100
AcDbEntity
  8
GEB-KONTUR-A
 48
25.0
100
AcDbLine
 10
-98.21932247263772
 20
-40.60000000002773
 30
0.0
 11
-49.53829326894504
 21
-40.60000000002832
 31
0.0
  0
LINE
  5
111
330
2
100
AcDbEntity
  8
GEB-KONTUR-A
 48
25.0
100
AcDbLine
 10
-52.75454956683839
 20
-36.32299547121707
 30
0.0
 11
-56.42522697738221
 21
-36.32299547121704
 31
0.0
  0
ELLIPSE
  5
112
330
2
100
AcDbEntity
  8
GEB-KONTUR-A
 48
25.0
100
AcDbEllipse
 10
-60.28235246438194
 20
-0.0000000000316902
 30
0.0
 11
0.0000000000005221
 21
40.59999999999988
 31
0.0
210
0.0
220
0.0
230
1.0
 40
0.0436193873653361
 41
5.381364480801645
 42
5.996002817651922
  0
ELLIPSE
  5
113
330
2
100
AcDbEntity
  8
GEB-KONTUR-A
 48
25.0
100
AcDbEllipse
 10
-60.28235246438194
 20
-0.0000000000316902
 30
0.0
 11
-0.0000000000005334
 21
-40.59999999999994
 31
0.0
210
0.0
220
0.0
230
1.0
 40
0.0436193873653361
 41
0.287182489528361
 42
0.9018208263786053
  0
LINE
  5
114
330
2
100
AcDbEntity
  8
GEB-KONTUR-A
 48
25.0
100
AcDbLine
 10
-98.07895130338582
 20
-38.93725722238486
 30
0.0
 11
-59.78072950968061
 21
-38.93725722238531
 31
0.0
  0
SPLINE
  5
115
330
2
100
AcDbEntity
  8
GEB-KONTUR-A
 48
25.0
100
AcDbSpline
210
0.0
220
0.0
230
1.0
 70
     8
 71
     3
 72
    28
 73
    24
 74
     0
 42
0.0000000001
 43
0.0000000001
 40
0.000131371382778
 40
0.000131371382778
 40
0.000131371382778
 40
0.000131371382778
 40
0.1699823435973507
 40
0.1699823435973507
 40
0.2359852913250708
 40
0.2359852913250708
 40
0.2509416450211804
 40
0.2509416450211804
 40
0.2577210618612661
 40
0.2577210618612661
 40
0.2621161837149482
 40
0.2621161837149482
 40
0.2660500458207986
 40
0.2660500458207986
 40
0.2708764225594155
 40
0.2708764225594155
 40
0.2794527665927058
 40
0.2794527665927058
 40
0.3006598919705631
 40
0.3006598919705631
 40
0.3800224291993486
 40
0.3800224291993486
 40
0.5638716632853738
 40
0.5638716632853738
 40
0.5638716632853738
 40
0.5638716632853738
 10
-70.59296686515333
 20
32.9501521558181
 30
0.0
 10
-70.57620020384425
 20
33.28014247153181
 30
0.0
 10
-70.54130453080944
 20
33.54177996221447
 30
0.0
 10
-70.47027546604948
 20
33.79297195877106
 30
0.0
 10
-70.43746551730516
 20
33.88792222480854
 30
0.0
 10
-70.37884858800663
 20
33.9573779928746
 30
0.0
 10
-70.36565396895099
 20
33.97015835556866
 30
0.0
 10
-70.34319074310227
 20
33.98353990206698
 30
0.0
 10
-70.33495848073755
 20
33.98743129867714
 30
0.0
 10
-70.3196022524485
 20
33.99160653063189
 30
0.0
 10
-70.31316815344417
 20
33.9926622194223
 30
0.0
 10
-70.30025523386626
 20
33.99309911448199
 30
0.0
 10
-70.29425445489429
 20
33.99263086005689
 30
0.0
 10
-70.28114471644451
 20
33.99029554221497
 30
0.0
 10
-70.27440987488836
 20
33.98819115644235
 30
0.0
 10
-70.25735842905368
 20
33.98126751045209
 30
0.0
 10
-70.24759697876027
 20
33.97530896892593
 30
0.0
 10
-70.2191153180359
 20
33.95476006860409
 30
0.0
 10
-70.20116867327374
 20
33.9351931759513
 30
0.0
 10
-70.13093802727701
 20
33.8451915730279
 30
0.0
 10
-70.08614313634229
 20
33.73909592695972
 30
0.0
 10
-69.9923812129237
 20
33.48588044145998
 30
0.0
 10
-69.9322370402775
 20
33.24526922252275
 30
0.0
 10
-69.88147851743923
 20
32.9501521558181
 30
0.0
  0
SPLINE
  5
116
330
2
100
AcDbEntity
  8
GEB-KONTUR-A
 48
25.0
100
AcDbSpline
210
0.0
220
0.0
230
1.0
 70
     8
 71
     3
 72
    18
 73
    14
 74
     0
 42
0.0000000001
 43
0.0000000001
 40
3.852716598000057
 40
3.852716598000057
 40
3.852716598000057
 40
3.852716598000057
 40
4.038372487232973
 40
4.038372487232973
 40
4.368138376595388
 40
4.368138376595388
 40
5.010916804788964
 40
5.010916804788964
 40
5.870434557513595
 40
5.870434557513595
 40
6.913880305414467
 40
6.913880305414467
 40
7.695197836021181
 40
7.695197836021181
 40
7.695197836021181
 40
7.695197836021181
 10
-70.49998399633176
 20
-0.0000000000194689
 30
0.0
 10
-70.49998399633176
 20
0.6198751367822695
 30
0.0
 10
-70.50060457548034
 20
1.239699456726924
 30
0.0
 10
-70.50402700820163
 20
2.958973737849817
 30
0.0
 10
-70.5081553937627
 20
4.056455513977994
 30
0.0
 10
-70.52551798831737
 20
7.277721484847944
 30
0.0
 10
-70.54377138440111
 20
9.381794397530455
 30
0.0
 10
-70.59513951424401
 20
14.19483748341466
 30
0.0
 10
-70.63118624578351
 20
16.85498193388073
 30
0.0
 10
-70.69794455217598
 20
22.43830880768914
 30
0.0
 10
-70.72600276397543
 20
25.27234765329666
 30
0.0
 10
-70.70293724020988
 20
29.70832636743072
 30
0.0
 10
-70.67020238312344
 20
31.43005387927943
 30
0.0
 10
-70.59296686515333
 20
32.9501521558181
 30
0.0
  0
SPLINE
  5
117
330
2
100
AcDbEntity
  8
GEB-KONTUR-A
 48
25.0
100
AcDbSpline
210
0.0
220
0.0
230
1.0
 70
     8
 71
     3
 72
    16
 73
    12
 74
     0
 42
0.0000000001
 43
0.0000000001
 40
0.0029989623155371
 40
0.0029989623155371
 40
0.0029989623155371
 40
0.0029989623155371
 40
1.593171455419912
 40
1.593171455419912
 40
3.04327865510351
 40
3.04327865510351
 40
3.502361017653664
 40
3.502361017653664
 40
3.783155273006279
 40
3.783155273006279
 40
3.852716598000057
 40
3.852716598000057
 40
3.852716598000057
 40
3.852716598000057
 10
-70.59296686515333
 20
-32.95015215586713
 30
0.0
 10
-70.74997606649327
 20
-29.86000111356856
 30
0.0
 10
-70.73159203667199
 20
-25.95236306759336
 30
0.0
 10
-70.6418659197461
 20
-17.33464611815046
 30
0.0
 10
-70.5721774826414
 20
-12.7991414777031
 30
0.0
 10
-70.52155122456508
 20
-6.550735586027798
 30
0.0
 10
-70.51222758223133
 20
-5.032228193349254
 30
0.0
 10
-70.50306837446999
 20
-2.570880901442961
 30
0.0
 10
-70.50094617271688
 20
-1.634238835751773
 30
0.0
 10
-70.50007095327391
 20
-0.4645152733951648
 30
0.0
 10
-70.49998399633176
 20
-0.2322540697653324
 30
0.0
 10
-70.49998399633176
 20
-0.0000000000194689
 30
0.0
  0
SPLINE
  5
118
330
2
100
AcDbEntity
  8
GEB-KONTUR-A
 48
25.0
100
AcDbSpline
210
0.0
220
0.0
230
1.0
 70
     8
 71
     3
 72
    28
 73
    24
 74
     0
 42
0.0000000001
 43
0.0000000001
 40
0.0001313713827752
 40
0.0001313713827752
 40
0.0001313713827752
 40
0.0001313713827752
 40
0.169982343597343
 40
0.169982343597343
 40
0.2359852913255565
 40
0.2359852913255565
 40
0.2509416450157996
 40
0.2509416450157996
 40
0.2577210618515501
 40
0.2577210618515501
 40
0.2621161837024098
 40
0.2621161837024098
 40
0.2660500458057591
 40
0.2660500458057591
 40
0.2708764225414193
 40
0.2708764225414193
 40
0.279452766569665
 40
0.279452766569665
 40
0.300659891936877
 40
0.300659891936877
 40
0.3800224291376095
 40
0.3800224291376095
 40
0.56387166315858
 40
0.56387166315858
 40
0.56387166315858
 40
0.56387166315858
 10
-69.88147851743923
 20
-32.95015215586713
 30
0.0
 10
-69.93823504854598
 20
-33.28014247158112
 30
0.0
 10
-70.00659038749017
 20
-33.541779962264
 30
0.0
 10
-70.11030584559165
 20
-33.79297195882137
 30
0.0
 10
-70.15562220438835
 20
-33.88792222485859
 30
0.0
 10
-70.22347316054354
 20
-33.95737799291939
 30
0.0
 10
-70.23837062732159
 20
-33.97015835561632
 30
0.0
 10
-70.26261899205971
 20
-33.98353990211689
 30
0.0
 10
-70.27137076291063
 20
-33.98743129872705
 30
0.0
 10
-70.28728456039686
 20
-33.99160653068182
 30
0.0
 10
-70.29385968574948
 20
-33.99266221947224
 30
0.0
 10
-70.30683096601677
 20
-33.99309911453193
 30
0.0
 10
-70.31276918852274
 20
-33.99263086010677
 30
0.0
 10
-70.32556701411493
 20
-33.99029554226485
 30
0.0
 10
-70.33202082160406
 20
-33.98819115649218
 30
0.0
 10
-70.34814805712091
 20
-33.98126751050197
 30
0.0
 10
-70.35711460374187
 20
-33.97530896897581
 30
0.0
 10
-70.38285766241472
 20
-33.95476006865275
 30
0.0
 10
-70.39820187729287
 20
-33.93519317599837
 30
0.0
 10
-70.45650004830822
 20
-33.84519157307776
 30
0.0
 10
-70.48739320612631
 20
-33.73909592700957
 30
0.0
 10
-70.54839315126708
 20
-33.48588044150924
 30
0.0
 10
-70.57797209813035
 20
-33.24526922257164
 30
0.0
 10
-70.59296686515333
 20
-32.95015215586713
 30
0.0
  0
SPLINE
  5
119
330
2
100
AcDbEntity
  8
GEB-KONTUR-A
 48
25.0
100
AcDbSpline
210
0.0
220
0.0
230
1.0
 70
     8
 71
     3
 72
    14
 73
    10
 74
     0
 42
0.0000000001
 43
0.0000000001
 40
4.937154559511226
 40
4.937154559511226
 40
4.937154559511226
 40
4.937154559511226
 40
5.010916804789732
 40
5.010916804789732
 40
5.870434557514797
 40
5.870434557514797
 40
6.913880305416185
 40
6.913880305416185
 40
7.695197836023214
 40
7.695197836023214
 40
7.695197836023214
 40
7.695197836023214
 10
-68.5694805824692
 20
-10.73042792802852
 30
0.0
 10
-68.57273827507291
 20
-10.96789530046294
 30
0.0
 10
-68.57613153464206
 20
-11.2048033619294
 30
0.0
 10
-68.62083160686376
 20
-14.19483748345555
 30
0.0
 10
-68.68061531290163
 20
-16.85498193392232
 30
0.0
 10
-68.87839509568656
 20
-22.43830880773245
 30
0.0
 10
-69.02913709218677
 20
-25.2723476533412
 30
0.0
 10
-69.41601217928601
 20
-29.70832636747758
 30
0.0
 10
-69.62002992028553
 20
-31.43005387932729
 30
0.0
 10
-69.88147851743923
 20
-32.95015215586713
 30
0.0
  0
SPLINE
  5
11A
330
2
100
AcDbEntity
  8
GEB-KONTUR-A
 48
25.0
100
AcDbSpline
210
0.0
220
0.0
230
1.0
 70
     8
 71
     3
 72
    10
 73
     6
 74
     0
 42
0.0000000001
 43
0.0000000001
 40
0.0029989623155932
 40
0.0029989623155932
 40
0.0029989623155932
 40
0.0029989623155932
 40
1.593171455419905
 40
1.593171455419905
 40
2.768143133386469
 40
2.768143133386469
 40
2.768143133386469
 40
2.768143133386469
 10
-69.88147851743923
 20
32.9501521558181
 30
0.0
 10
-69.34998942395703
 20
29.8600011135222
 30
0.0
 10
-69.04928889554895
 20
25.95236306754933
 30
0.0
 10
-68.70555385005059
 20
18.11452175077574
 30
0.0
 10
-68.62040034261974
 20
14.50492063266367
 30
0.0
 10
-68.56922774084657
 20
10.7304269073559
 30
0.0
  0
SPLINE
  5
11B
330
2
100
AcDbEntity
  8
GEB-KONTUR-A
 48
25.0
100
AcDbSpline
210
0.0
220
0.0
230
1.0
 70
     8
 71
     3
 72
    28
 73
    24
 74
     0
 42
0.0000000001
 43
0.0000000001
 40
0.000131371382778
 40
0.000131371382778
 40
0.000131371382778
 40
0.000131371382778
 40
0.1699823435974038
 40
0.1699823435974038
 40
0.2359852913253754
 40
0.2359852913253754
 40
0.2509416450220895
 40
0.2509416450220895
 40
0.2577210618626646
 40
0.2577210618626646
 40
0.2621161837166742
 40
0.2621161837166742
 40
0.2660500458228199
 40
0.2660500458228199
 40
0.2708764225618075
 40
0.2708764225618075
 40
0.2794527665957558
 40
0.2794527665957558
 40
0.3006598919750579
 40
0.3006598919750579
 40
0.3800224292087483
 40
0.3800224292087483
 40
0.5638716633062723
 40
0.5638716633062723
 40
0.5638716633062723
 40
0.5638716633062723
 10
-77.58630441622642
 20
32.95015215581819
 30
0.0
 10
-77.56953775491732
 20
33.28014247153203
 30
0.0
 10
-77.53464208188245
 20
33.54177996221458
 30
0.0
 10
-77.4636130171225
 20
33.79297195877135
 30
0.0
 10
-77.43080306837817
 20
33.88792222480865
 30
0.0
 10
-77.37218613907933
 20
33.95737799287514
 30
0.0
 10
-77.35899152002372
 20
33.97015835556897
 30
0.0
 10
-77.33652829417528
 20
33.98353990206712
 30
0.0
 10
-77.32829603181056
 20
33.98743129867722
 30
0.0
 10
-77.31293980352157
 20
33.99160653063197
 30
0.0
 10
-77.30650570451723
 20
33.99266221942239
 30
0.0
 10
-77.29359278493934
 20
33.99309911448211
 30
0.0
 10
-77.28759200596735
 20
33.99263086005695
 30
0.0
 10
-77.27448226751761
 20
33.99029554221502
 30
0.0
 10
-77.26774742596143
 20
33.98819115644244
 30
0.0
 10
-77.2506959801268
 20
33.98126751045214
 30
0.0
 10
-77.24093452983339
 20
33.97530896892604
 30
0.0
 10
-77.21245286910906
 20
33.95476006860426
 30
0.0
 10
-77.19450622434692
 20
33.93519317595153
 30
0.0
 10
-77.12427557835013
 20
33.84519157302805
 30
0.0
 10
-77.07948068741538
 20
33.73909592695984
 30
0.0
 10
-76.98571876399682
 20
33.48588044146016
 30
0.0
 10
-76.92557459135059
 20
33.24526922252292
 30
0.0
 10
-76.87481606851235
 20
32.95015215581816
 30
0.0
  0
SPLINE
  5
11C
330
2
100
AcDbEntity
  8
GEB-KONTUR-A
 48
25.0
100
AcDbSpline
210
0.0
220
0.0
230
1.0
 70
     8
 71
     3
 72
    18
 73
    14
 74
     0
 42
0.0000000001
 43
0.0000000001
 40
3.852716598000055
 40
3.852716598000055
 40
3.852716598000055
 40
3.852716598000055
 40
4.038372487232971
 40
4.038372487232971
 40
4.368138376595386
 40
4.368138376595386
 40
5.010916804788961
 40
5.010916804788961
 40
5.870434557513592
 40
5.870434557513592
 40
6.913880305414465
 40
6.913880305414465
 40
7.695197836021178
 40
7.695197836021178
 40
7.695197836021178
 40
7.695197836021178
 10
-77.49332154740483
 20
-0.000000000019412
 30
0.0
 10
-77.49332154740483
 20
0.6198751367823548
 30
0.0
 10
-77.49394212655346
 20
1.239699456727009
 30
0.0
 10
-77.49736455927473
 20
2.958973737849902
 30
0.0
 10
-77.50149294483583
 20
4.056455513978079
 30
0.0
 10
-77.51885553939047
 20
7.277721484848058
 30
0.0
 10
-77.53710893547424
 20
9.381794397530541
 30
0.0
 10
-77.58847706531708
 20
14.19483748341477
 30
0.0
 10
-77.62452379685661
 20
16.85498193388085
 30
0.0
 10
-77.69128210324907
 20
22.43830880768923
 30
0.0
 10
-77.7193403150485
 20
25.27234765329678
 30
0.0
 10
-77.69627479128295
 20
29.70832636743083
 30
0.0
 10
-77.66353993419651
 20
31.43005387927948
 30
0.0
 10
-77.58630441622642
 20
32.95015215581819
 30
0.0
  0
SPLINE
  5
11D
330
2
100
AcDbEntity
  8
GEB-KONTUR-A
 48
25.0
100
AcDbSpline
210
0.0
220
0.0
230
1.0
 70
     8
 71
     3
 72
    16
 73
    12
 74
     0
 42
0.0000000001
 43
0.0000000001
 40
0.002998962315537
 40
0.002998962315537
 40
0.002998962315537
 40
0.002998962315537
 40
1.593171455419912
 40
1.593171455419912
 40
3.043278655103509
 40
3.043278655103509
 40
3.502361017653663
 40
3.502361017653663
 40
3.783155273006277
 40
3.783155273006277
 40
3.852716598000055
 40
3.852716598000055
 40
3.852716598000055
 40
3.852716598000055
 10
-77.58630441622642
 20
-32.95015215586702
 30
0.0
 10
-77.74331361756634
 20
-29.86000111356844
 30
0.0
 10
-77.72492958774512
 20
-25.95236306759327
 30
0.0
 10
-77.63520347081916
 20
-17.33464611815037
 30
0.0
 10
-77.56551503371446
 20
-12.79914147770299
 30
0.0
 10
-77.51488877563819
 20
-6.550735586027684
 30
0.0
 10
-77.50556513330443
 20
-5.032228193349197
 30
0.0
 10
-77.49640592554309
 20
-2.570880901442848
 30
0.0
 10
-77.49428372378997
 20
-1.634238835751659
 30
0.0
 10
-77.493408504347
 20
-0.4645152733951079
 30
0.0
 10
-77.49332154740483
 20
-0.2322540697652471
 30
0.0
 10
-77.49332154740483
 20
-0.000000000019412
 30
0.0
  0
SPLINE
  5
11E
330
2
100
AcDbEntity
  8
GEB-KONTUR-A
 48
25.0
100
AcDbSpline
210
0.0
220
0.0
230
1.0
 70
     8
 71
     3
 72
    28
 73
    24
 74
     0
 42
0.0000000001
 43
0.0000000001
 40
0.0001313713827752
 40
0.0001313713827752
 40
0.0001313713827752
 40
0.0001313713827752
 40
0.1699823435972259
 40
0.1699823435972259
 40
0.2359852913245822
 40
0.2359852913245822
 40
0.2509416450188038
 40
0.2509416450188038
 40
0.2577210618576808
 40
0.2577210618576808
 40
0.2621161837105964
 40
0.2621161837105964
 40
0.2660500458157879
 40
0.2660500458157879
 40
0.2708764225537337
 40
0.2708764225537337
 40
0.2794527665861169
 40
0.2794527665861169
 40
0.3006598919641251
 40
0.3006598919641251
 40
0.3800224292098393
 40
0.3800224292098393
 40
0.5638716633352173
 40
0.5638716633352173
 40
0.5638716633352173
 40
0.5638716633352173
 10
-76.87481606851235
 20
-32.95015215586705
 30
0.0
 10
-76.93157259961907
 20
-33.2801424715808
 30
0.0
 10
-76.99992793856324
 20
-33.5417799622638
 30
0.0
 10
-77.10364339666438
 20
-33.79297195882049
 30
0.0
 10
-77.14895975546122
 20
-33.88792222485822
 30
0.0
 10
-77.21681071162018
 20
-33.95737799292291
 30
0.0
 10
-77.23170817839752
 20
-33.97015835561783
 30
0.0
 10
-77.25595654313301
 20
-33.98353990211689
 30
0.0
 10
-77.26470831398379
 20
-33.98743129872699
 30
0.0
 10
-77.28062211146997
 20
-33.99160653068171
 30
0.0
 10
-77.28719723682255
 20
-33.99266221947212
 30
0.0
 10
-77.30016851708985
 20
-33.99309911453187
 30
0.0
 10
-77.30610673959583
 20
-33.99263086010669
 30
0.0
 10
-77.31890456518804
 20
-33.99029554226476
 30
0.0
 10
-77.32535837267722
 20
-33.98819115649207
 30
0.0
 10
-77.341485608194
 20
-33.98126751050185
 30
0.0
 10
-77.35045215481489
 20
-33.97530896897578
 30
0.0
 10
-77.37619521348841
 20
-33.95476006865218
 30
0.0
 10
-77.39153942836669
 20
-33.93519317599723
 30
0.0
 10
-77.44983759938131
 20
-33.84519157307764
 30
0.0
 10
-77.48073075719947
 20
-33.73909592700935
 30
0.0
 10
-77.54173070234014
 20
-33.48588044150929
 30
0.0
 10
-77.57130964920341
 20
-33.24526922257187
 30
0.0
 10
-77.58630441622642
 20
-32.95015215586702
 30
0.0
  0
SPLINE
  5
11F
330
2
100
AcDbEntity
  8
GEB-KONTUR-A
 48
25.0
100
AcDbSpline
210
0.0
220
0.0
230
1.0
 70
     8
 71
     3
 72
    14
 73
    10
 74
     0
 42
0.0000000001
 43
0.0000000001
 40
4.937154559511268
 40
4.937154559511268
 40
4.937154559511268
 40
4.937154559511268
 40
5.010916804789735
 40
5.010916804789735
 40
5.8704345575148
 40
5.8704345575148
 40
6.913880305416191
 40
6.913880305416191
 40
7.695197836023223
 40
7.695197836023223
 40
7.695197836023223
 40
7.695197836023223
 10
-75.56281813354229
 20
-10.7304279280288
 30
0.0
 10
-75.566075826146
 20
-10.96789530046311
 30
0.0
 10
-75.56946908571513
 20
-11.20480336192943
 30
0.0
 10
-75.61416915793683
 20
-14.19483748345547
 30
0.0
 10
-75.67395286397474
 20
-16.8549819339222
 30
0.0
 10
-75.87173264675965
 20
-22.43830880773234
 30
0.0
 10
-76.0224746432599
 20
-25.27234765334112
 30
0.0
 10
-76.40934973035911
 20
-29.70832636747747
 30
0.0
 10
-76.61336747135862
 20
-31.43005387932721
 30
0.0
 10
-76.87481606851235
 20
-32.95015215586705
 30
0.0
  0
SPLINE
  5
120
330
2
100
AcDbEntity
  8
GEB-KONTUR-A
 48
25.0
100
AcDbSpline
210
0.0
220
0.0
230
1.0
 70
     8
 71
     3
 72
    10
 73
     6
 74
     0
 42
0.0000000001
 43
0.0000000001
 40
0.0029989623155932
 40
0.0029989623155932
 40
0.0029989623155932
 40
0.0029989623155932
 40
1.593171455419905
 40
1.593171455419905
 40
2.768143133386484
 40
2.768143133386484
 40
2.768143133386484
 40
2.768143133386484
 10
-76.87481606851235
 20
32.95015215581816
 30
0.0
 10
-76.34332697503015
 20
29.86000111352229
 30
0.0
 10
-76.04262644662203
 20
25.95236306754944
 30
0.0
 10
-75.69889140112372
 20
18.11452175077576
 30
0.0
 10
-75.61373789369287
 20
14.50492063266367
 30
0.0
 10
-75.56256529191966
 20
10.73042690735587
 30
0.0
  0
SPLINE
  5
121
330
2
100
AcDbEntity
  8
GEB-KONTUR-A
 48
25.0
100
AcDbSpline
210
0.0
220
0.0
230
1.0
 70
     8
 71
     3
 72
    28
 73
    24
 74
     0
 42
0.0000000001
 43
0.0000000001
 40
0.0001313713827781
 40
0.0001313713827781
 40
0.0001313713827781
 40
0.0001313713827781
 40
0.1699823435975302
 40
0.1699823435975302
 40
0.2359852913256318
 40
0.2359852913256318
 40
0.2509416450236358
 40
0.2509416450236358
 40
0.257721061865188
 40
0.257721061865188
 40
0.2621161837198194
 40
0.2621161837198194
 40
0.2660500458265647
 40
0.2660500458265647
 40
0.2708764225664946
 40
0.2708764225664946
 40
0.279452766602463
 40
0.279452766602463
 40
0.3006598919874288
 40
0.3006598919874288
 40
0.3800224292458948
 40
0.3800224292458948
 40
0.5638716634004349
 40
0.5638716634004349
 40
0.5638716634004349
 40
0.5638716634004349
 10
-84.5796419672995
 20
32.95015215581827
 30
0.0
 10
-84.56287530599041
 20
33.28014247153234
 30
0.0
 10
-84.52797963295552
 20
33.5417799622148
 30
0.0
 10
-84.45695056819557
 20
33.79297195877152
 30
0.0
 10
-84.42414061945129
 20
33.88792222480876
 30
0.0
 10
-84.36552369015151
 20
33.9573779928763
 30
0.0
 10
-84.35232907109602
 20
33.97015835556954
 30
0.0
 10
-84.32986584524831
 20
33.98353990206727
 30
0.0
 10
-84.32163358288363
 20
33.98743129867731
 30
0.0
 10
-84.3062773545947
 20
33.99160653063205
 30
0.0
 10
-84.29984325559036
 20
33.9926622194225
 30
0.0
 10
-84.28693033601234
 20
33.99309911448219
 30
0.0
 10
-84.28092955704025
 20
33.99263086005703
 30
0.0
 10
-84.26781981859059
 20
33.99029554221511
 30
0.0
 10
-84.26108497703429
 20
33.98819115644241
 30
0.0
 10
-84.24403353119988
 20
33.98126751045223
 30
0.0
 10
-84.23427208090641
 20
33.97530896892607
 30
0.0
 10
-84.20579042018159
 20
33.95476006860392
 30
0.0
 10
-84.18784377541934
 20
33.93519317595073
 30
0.0
 10
-84.11761312942321
 20
33.84519157302808
 30
0.0
 10
-84.07281823848851
 20
33.73909592696
 30
0.0
 10
-83.97905631506985
 20
33.48588044146016
 30
0.0
 10
-83.91891214242367
 20
33.24526922252298
 30
0.0
 10
-83.86815361958543
 20
32.95015215581827
 30
0.0
  0
SPLINE
  5
122
330
2
100
AcDbEntity
  8
GEB-KONTUR-A
 48
25.0
100
AcDbSpline
210
0.0
220
0.0
230
1.0
 70
     8
 71
     3
 72
    18
 73
    14
 74
     0
 42
0.0000000001
 43
0.0000000001
 40
3.852716598000055
 40
3.852716598000055
 40
3.852716598000055
 40
3.852716598000055
 40
4.038372487232971
 40
4.038372487232971
 40
4.368138376595386
 40
4.368138376595386
 40
5.010916804788961
 40
5.010916804788961
 40
5.870434557513592
 40
5.870434557513592
 40
6.913880305414465
 40
6.913880305414465
 40
7.695197836021178
 40
7.695197836021178
 40
7.695197836021178
 40
7.695197836021178
 10
-84.48665909847793
 20
-0.0000000000193268
 30
0.0
 10
-84.48665909847793
 20
0.61987513678244
 30
0.0
 10
-84.48727967762653
 20
1.239699456727095
 30
0.0
 10
-84.49070211034783
 20
2.958973737849987
 30
0.0
 10
-84.4948304959089
 20
4.056455513978193
 30
0.0
 10
-84.51219309046356
 20
7.277721484848143
 30
0.0
 10
-84.5304464865473
 20
9.381794397530626
 30
0.0
 10
-84.5818146163902
 20
14.19483748341483
 30
0.0
 10
-84.61786134792971
 20
16.85498193388091
 30
0.0
 10
-84.68461965432217
 20
22.43830880768931
 30
0.0
 10
-84.71267786612157
 20
25.27234765329684
 30
0.0
 10
-84.68961234235605
 20
29.70832636743089
 30
0.0
 10
-84.6568774852696
 20
31.43005387927957
 30
0.0
 10
-84.5796419672995
 20
32.95015215581827
 30
0.0
  0
SPLINE
  5
123
330
2
100
AcDbEntity
  8
GEB-KONTUR-A
 48
25.0
100
AcDbSpline
210
0.0
220
0.0
230
1.0
 70
     8
 71
     3
 72
    16
 73
    12
 74
     0
 42
0.0000000001
 43
0.0000000001
 40
0.002998962315537
 40
0.002998962315537
 40
0.002998962315537
 40
0.002998962315537
 40
1.593171455419912
 40
1.593171455419912
 40
3.043278655103509
 40
3.043278655103509
 40
3.502361017653663
 40
3.502361017653663
 40
3.783155273006277
 40
3.783155273006277
 40
3.852716598000055
 40
3.852716598000055
 40
3.852716598000055
 40
3.852716598000055
 10
-84.57964196729951
 20
-32.95015215586696
 30
0.0
 10
-84.73665116863944
 20
-29.86000111356836
 30
0.0
 10
-84.71826713881819
 20
-25.95236306759318
 30
0.0
 10
-84.62854102189226
 20
-17.33464611815026
 30
0.0
 10
-84.55885258478758
 20
-12.79914147770293
 30
0.0
 10
-84.50822632671124
 20
-6.550735586027627
 30
0.0
 10
-84.4989026843775
 20
-5.032228193349084
 30
0.0
 10
-84.48974347661618
 20
-2.570880901442791
 30
0.0
 10
-84.48762127486308
 20
-1.634238835751602
 30
0.0
 10
-84.48674605542009
 20
-0.4645152733949942
 30
0.0
 10
-84.48665909847793
 20
-0.2322540697651618
 30
0.0
 10
-84.48665909847793
 20
-0.0000000000193268
 30
0.0
  0
SPLINE
  5
124
330
2
100
AcDbEntity
  8
GEB-KONTUR-A
 48
25.0
100
AcDbSpline
210
0.0
220
0.0
230
1.0
 70
     8
 71
     3
 72
    28
 73
    24
 74
     0
 42
0.0000000001
 43
0.0000000001
 40
0.0001313713827752
 40
0.0001313713827752
 40
0.0001313713827752
 40
0.0001313713827752
 40
0.1699823435973016
 40
0.1699823435973016
 40
0.2359852913252929
 40
0.2359852913252929
 40
0.2509416450192121
 40
0.2509416450192121
 40
0.2577210618577408
 40
0.2577210618577408
 40
0.2621161837104208
 40
0.2621161837104208
 40
0.2660500458153987
 40
0.2660500458153987
 40
0.2708764225530578
 40
0.2708764225530578
 40
0.2794527665848558
 40
0.2794527665848558
 40
0.3006598919607264
 40
0.3006598919607264
 40
0.3800224291930622
 40
0.3800224291930622
 40
0.563871663287074
 40
0.563871663287074
 40
0.563871663287074
 40
0.563871663287074
 10
-83.86815361958543
 20
-32.95015215586696
 30
0.0
 10
-83.92491015069216
 20
-33.28014247158089
 30
0.0
 10
-83.99326548963633
 20
-33.54177996226375
 30
0.0
 10
-84.09698094773776
 20
-33.792971958821
 30
0.0
 10
-84.14229730653449
 20
-33.8879222248583
 30
0.0
 10
-84.21014826269283
 20
-33.95737799292238
 30
0.0
 10
-84.22504572947024
 20
-33.97015835561755
 30
0.0
 10
-84.24929409420602
 20
-33.98353990211675
 30
0.0
 10
-84.25804586505689
 20
-33.98743129872688
 30
0.0
 10
-84.27395966254303
 20
-33.99160653068165
 30
0.0
 10
-84.28053478789568
 20
-33.99266221947204
 30
0.0
 10
-84.29350606816294
 20
-33.99309911453176
 30
0.0
 10
-84.29944429066893
 20
-33.99263086010663
 30
0.0
 10
-84.31224211626107
 20
-33.99029554226465
 30
0.0
 10
-84.31869592375026
 20
-33.98819115649201
 30
0.0
 10
-84.3348231592671
 20
-33.9812675105018
 30
0.0
 10
-84.34378970588804
 20
-33.97530896897564
 30
0.0
 10
-84.3695327645608
 20
-33.95476006865263
 30
0.0
 10
-84.38487697943893
 20
-33.93519317599839
 30
0.0
 10
-84.4431751504544
 20
-33.84519157307759
 30
0.0
 10
-84.47406830827251
 20
-33.7390959270094
 30
0.0
 10
-84.53506825341321
 20
-33.48588044150929
 30
0.0
 10
-84.56464720027648
 20
-33.24526922257187
 30
0.0
 10
-84.57964196729951
 20
-32.95015215586696
 30
0.0
  0
SPLINE
  5
125
330
2
100
AcDbEntity
  8
GEB-KONTUR-A
 48
25.0
100
AcDbSpline
210
0.0
220
0.0
230
1.0
 70
     8
 71
     3
 72
    14
 73
    10
 74
     0
 42
0.0000000001
 43
0.0000000001
 40
4.937154559511249
 40
4.937154559511249
 40
4.937154559511249
 40
4.937154559511249
 40
5.010916804789735
 40
5.010916804789735
 40
5.8704345575148
 40
5.8704345575148
 40
6.913880305416191
 40
6.913880305416191
 40
7.695197836023223
 40
7.695197836023223
 40
7.695197836023223
 40
7.695197836023223
 10
-82.55615568461541
 20
-10.73042792802854
 30
0.0
 10
-82.5594133772191
 20
-10.96789530046291
 30
0.0
 10
-82.56280663678825
 20
-11.20480336192929
 30
0.0
 10
-82.60750670900993
 20
-14.19483748345539
 30
0.0
 10
-82.66729041504779
 20
-16.85498193392212
 30
0.0
 10
-82.86507019783275
 20
-22.43830880773229
 30
0.0
 10
-83.01581219433296
 20
-25.27234765334103
 30
0.0
 10
-83.4026872814322
 20
-29.70832636747741
 30
0.0
 10
-83.60670502243172
 20
-31.43005387932712
 30
0.0
 10
-83.86815361958543
 20
-32.95015215586696
 30
0.0
  0
SPLINE
  5
126
330
2
100
AcDbEntity
  8
GEB-KONTUR-A
 48
25.0
100
AcDbSpline
210
0.0
220
0.0
230
1.0
 70
     8
 71
     3
 72
    10
 73
     6
 74
     0
 42
0.0000000001
 43
0.0000000001
 40
0.0029989623155932
 40
0.0029989623155932
 40
0.0029989623155932
 40
0.0029989623155932
 40
1.593171455419905
 40
1.593171455419905
 40
2.768143133386502
 40
2.768143133386502
 40
2.768143133386502
 40
2.768143133386502
 10
-83.86815361958543
 20
32.95015215581827
 30
0.0
 10
-83.33666452610321
 20
29.86000111352237
 30
0.0
 10
-83.03596399769508
 20
25.95236306754955
 30
0.0
 10
-82.69222895219678
 20
18.11452175077579
 30
0.0
 10
-82.60707544476593
 20
14.50492063266367
 30
0.0
 10
-82.55590284299277
 20
10.73042690735576
 30
0.0
  0
SPLINE
  5
127
330
2
100
AcDbEntity
  8
GEB-KONTUR-A
 48
25.0
100
AcDbSpline
210
0.0
220
0.0
230
1.0
 70
     8
 71
     3
 72
    28
 73
    24
 74
     0
 42
0.0000000001
 43
0.0000000001
 40
0.000131371382778
 40
0.000131371382778
 40
0.000131371382778
 40
0.000131371382778
 40
0.1699823435976068
 40
0.1699823435976068
 40
0.2359852913261083
 40
0.2359852913261083
 40
0.2509416450231195
 40
0.2509416450231195
 40
0.2577210618638121
 40
0.2577210618638121
 40
0.2621161837178669
 40
0.2621161837178669
 40
0.2660500458240963
 40
0.2660500458240963
 40
0.2708764225633938
 40
0.2708764225633938
 40
0.2794527665982388
 40
0.2794527665982388
 40
0.3006598919804268
 40
0.3006598919804268
 40
0.3800224292284974
 40
0.3800224292284974
 40
0.563871663358956
 40
0.563871663358956
 40
0.563871663358956
 40
0.563871663358956
 10
-91.57297951837255
 20
32.95015215581836
 30
0.0
 10
-91.55621285706343
 20
33.2801424715326
 30
0.0
 10
-91.52131718402859
 20
33.54177996221495
 30
0.0
 10
-91.45028811926854
 20
33.79297195877189
 30
0.0
 10
-91.41747817052424
 20
33.88792222480899
 30
0.0
 10
-91.3588612412254
 20
33.95737799287545
 30
0.0
 10
-91.34566662216981
 20
33.97015835556917
 30
0.0
 10
-91.32320339632149
 20
33.98353990206727
 30
0.0
 10
-91.31497113395676
 20
33.98743129867739
 30
0.0
 10
-91.29961490566779
 20
33.99160653063217
 30
0.0
 10
-91.29318080666346
 20
33.99266221942256
 30
0.0
 10
-91.28026788708542
 20
33.99309911448228
 30
0.0
 10
-91.27426710811334
 20
33.99263086005712
 30
0.0
 10
-91.26115736966369
 20
33.99029554221517
 30
0.0
 10
-91.25442252810737
 20
33.98819115644247
 30
0.0
 10
-91.23737108227294
 20
33.98126751045229
 30
0.0
 10
-91.22760963197951
 20
33.97530896892616
 30
0.0
 10
-91.1991279712547
 20
33.95476006860403
 30
0.0
 10
-91.18118132649243
 20
33.93519317595082
 30
0.0
 10
-91.11095068049626
 20
33.84519157302819
 30
0.0
 10
-91.06615578956157
 20
33.73909592696009
 30
0.0
 10
-90.97239386614296
 20
33.48588044146027
 30
0.0
 10
-90.91224969349672
 20
33.24526922252303
 30
0.0
 10
-90.86149117065849
 20
32.95015215581836
 30
0.0
  0
SPLINE
  5
128
330
2
100
AcDbEntity
  8
GEB-KONTUR-A
 48
25.0
100
AcDbSpline
210
0.0
220
0.0
230
1.0
 70
     8
 71
     3
 72
    18
 73
    14
 74
     0
 42
0.0000000001
 43
0.0000000001
 40
3.852716598000055
 40
3.852716598000055
 40
3.852716598000055
 40
3.852716598000055
 40
4.038372487232971
 40
4.038372487232971
 40
4.368138376595386
 40
4.368138376595386
 40
5.010916804788961
 40
5.010916804788961
 40
5.870434557513592
 40
5.870434557513592
 40
6.913880305414465
 40
6.913880305414465
 40
7.695197836021178
 40
7.695197836021178
 40
7.695197836021178
 40
7.695197836021178
 10
-91.47999664955099
 20
-0.0000000000192131
 30
0.0
 10
-91.47999664955099
 20
0.6198751367825537
 30
0.0
 10
-91.48061722869959
 20
1.239699456727208
 30
0.0
 10
-91.48403966142089
 20
2.958973737850072
 30
0.0
 10
-91.48816804698197
 20
4.056455513978249
 30
0.0
 10
-91.50553064153664
 20
7.277721484848228
 30
0.0
 10
-91.52378403762037
 20
9.381794397530711
 30
0.0
 10
-91.57515216746327
 20
14.19483748341494
 30
0.0
 10
-91.6111988990028
 20
16.85498193388102
 30
0.0
 10
-91.67795720539528
 20
22.43830880768939
 30
0.0
 10
-91.70601541719468
 20
25.27234765329695
 30
0.0
 10
-91.68294989342914
 20
29.708326367431
 30
0.0
 10
-91.65021503634262
 20
31.43005387927968
 30
0.0
 10
-91.57297951837255
 20
32.95015215581836
 30
0.0
  0
SPLINE
  5
129
330
2
100
AcDbEntity
  8
GEB-KONTUR-A
 48
25.0
100
AcDbSpline
210
0.0
220
0.0
230
1.0
 70
     8
 71
     3
 72
    16
 73
    12
 74
     0
 42
0.0000000001
 43
0.0000000001
 40
0.0029989623155369
 40
0.0029989623155369
 40
0.0029989623155369
 40
0.0029989623155369
 40
1.593171455419912
 40
1.593171455419912
 40
3.043278655103509
 40
3.043278655103509
 40
3.502361017653663
 40
3.502361017653663
 40
3.783155273006277
 40
3.783155273006277
 40
3.852716598000055
 40
3.852716598000055
 40
3.852716598000055
 40
3.852716598000055
 10
-91.57297951837259
 20
-32.95015215586687
 30
0.0
 10
-91.7299887197125
 20
-29.8600011135683
 30
0.0
 10
-91.71160468989127
 20
-25.9523630675931
 30
0.0
 10
-91.62187857296535
 20
-17.33464611815017
 30
0.0
 10
-91.55219013586068
 20
-12.79914147770282
 30
0.0
 10
-91.50156387778435
 20
-6.550735586027514
 30
0.0
 10
-91.49224023545059
 20
-5.032228193349027
 30
0.0
 10
-91.48308102768925
 20
-2.570880901442677
 30
0.0
 10
-91.48095882593617
 20
-1.634238835751489
 30
0.0
 10
-91.48008360649319
 20
-0.4645152733949374
 30
0.0
 10
-91.47999664955099
 20
-0.2322540697650766
 30
0.0
 10
-91.47999664955099
 20
-0.0000000000192131
 30
0.0
  0
SPLINE
  5
12A
330
2
100
AcDbEntity
  8
GEB-KONTUR-A
 48
25.0
100
AcDbSpline
210
0.0
220
0.0
230
1.0
 70
     8
 71
     3
 72
    28
 73
    24
 74
     0
 42
0.0000000001
 43
0.0000000001
 40
0.0001313713827752
 40
0.0001313713827752
 40
0.0001313713827752
 40
0.0001313713827752
 40
0.1699823435973895
 40
0.1699823435973895
 40
0.2359852913262174
 40
0.2359852913262174
 40
0.250941645016928
 40
0.250941645016928
 40
0.2577210618529833
 40
0.2577210618529833
 40
0.2621161837040419
 40
0.2621161837040419
 40
0.2660500458075715
 40
0.2660500458075715
 40
0.2708764225434817
 40
0.2708764225434817
 40
0.2794527665722739
 40
0.2794527665722739
 40
0.3006598919422287
 40
0.3006598919422287
 40
0.3800224291630683
 40
0.3800224291630683
 40
0.5638716632309625
 40
0.5638716632309625
 40
0.5638716632309625
 40
0.5638716632309625
 10
-90.86149117065849
 20
-32.95015215586687
 30
0.0
 10
-90.91824770176524
 20
-33.28014247158094
 30
0.0
 10
-90.9866030407095
 20
-33.54177996226375
 30
0.0
 10
-91.0903184988112
 20
-33.79297195882174
 30
0.0
 10
-91.13563485760781
 20
-33.8879222248585
 30
0.0
 10
-91.20348581376305
 20
-33.95737799291936
 30
0.0
 10
-91.21838328054105
 20
-33.97015835561618
 30
0.0
 10
-91.24263164527901
 20
-33.9835399021166
 30
0.0
 10
-91.25138341612995
 20
-33.98743129872676
 30
0.0
 10
-91.26729721361613
 20
-33.99160653068154
 30
0.0
 10
-91.27387233896874
 20
-33.99266221947196
 30
0.0
 10
-91.28684361923603
 20
-33.99309911453165
 30
0.0
 10
-91.29278184174202
 20
-33.99263086010652
 30
0.0
 10
-91.30557966733423
 20
-33.99029554226459
 30
0.0
 10
-91.3120334748234
 20
-33.98819115649189
 30
0.0
 10
-91.32816071034017
 20
-33.98126751050168
 30
0.0
 10
-91.33712725696108
 20
-33.97530896897555
 30
0.0
 10
-91.36287031563529
 20
-33.95476006865141
 30
0.0
 10
-91.37821453051367
 20
-33.93519317599581
 30
0.0
 10
-91.43651270152748
 20
-33.8451915730775
 30
0.0
 10
-91.46740585934566
 20
-33.73909592700917
 30
0.0
 10
-91.5284058044863
 20
-33.48588044150924
 30
0.0
 10
-91.55798475134961
 20
-33.24526922257169
 30
0.0
 10
-91.57297951837259
 20
-32.95015215586687
 30
0.0
  0
SPLINE
  5
12B
330
2
100
AcDbEntity
  8
GEB-KONTUR-A
 48
25.0
100
AcDbSpline
210
0.0
220
0.0
230
1.0
 70
     8
 71
     3
 72
    14
 73
    10
 74
     0
 42
0.0000000001
 43
0.0000000001
 40
4.937154559511303
 40
4.937154559511303
 40
4.937154559511303
 40
4.937154559511303
 40
5.010916804789735
 40
5.010916804789735
 40
5.8704345575148
 40
5.8704345575148
 40
6.913880305416191
 40
6.913880305416191
 40
7.695197836023223
 40
7.695197836023223
 40
7.695197836023223
 40
7.695197836023223
 10
-89.54949323568849
 20
-10.73042792802897
 30
0.0
 10
-89.5527509282922
 20
-10.96789530046314
 30
0.0
 10
-89.55614418786135
 20
-11.20480336192938
 30
0.0
 10
-89.60084426008302
 20
-14.1948374834553
 30
0.0
 10
-89.6606279661209
 20
-16.85498193392203
 30
0.0
 10
-89.85840774890585
 20
-22.43830880773217
 30
0.0
 10
-90.00914974540604
 20
-25.27234765334092
 30
0.0
 10
-90.39602483250527
 20
-29.7083263674773
 30
0.0
 10
-90.60004257350479
 20
-31.43005387932703
 30
0.0
 10
-90.86149117065849
 20
-32.95015215586687
 30
0.0
  0
SPLINE
  5
12C
330
2
100
AcDbEntity
  8
GEB-KONTUR-A
 48
25.0
100
AcDbSpline
210
0.0
220
0.0
230
1.0
 70
     8
 71
     3
 72
    10
 73
     6
 74
     0
 42
0.0000000001
 43
0.0000000001
 40
0.0029989623155932
 40
0.0029989623155932
 40
0.0029989623155932
 40
0.0029989623155932
 40
1.593171455419905
 40
1.593171455419905
 40
2.768143133386447
 40
2.768143133386447
 40
2.768143133386447
 40
2.768143133386447
 10
-90.86149117065849
 20
32.95015215581836
 30
0.0
 10
-90.33000207717629
 20
29.86000111352249
 30
0.0
 10
-90.02930154876816
 20
25.95236306754961
 30
0.0
 10
-89.68556650326991
 20
18.11452175077605
 30
0.0
 10
-89.60041299583906
 20
14.50492063266409
 30
0.0
 10
-89.54924039406586
 20
10.73042690735642
 30
0.0
  0
ELLIPSE
  5
12D
330
2
100
AcDbEntity
  8
GEB-KONTUR-A
 48
25.0
100
AcDbEllipse
 10
-99.04542346175853
 20
-0.0000000000312355
 30
0.0
 11
-0.0000000000000032
 21
-44.79999999999989
 31
0.0
210
0.0
220
0.0
230
1.0
 40
0.0436193873653363
 41
0.0
 42
3.141592653279092
  0
LINE
  5
12E
330
2
100
AcDbEntity
  8
GEB-KONTUR-A
 48
25.0
100
AcDbLine
 10
-49.53829326894475
 20
40.59999999997152
 30
0.0
 11
-98.21932247263772
 21
40.59999999997214
 31
0.0
  0
LINE
  5
12F
330
2
100
AcDbEntity
  8
GEB-KONTUR-A
 48
25.0
100
AcDbLine
 10
-56.42522697738221
 20
36.32299547116037
 30
0.0
 11
-52.7545495668382
 21
36.32299547116034
 31
0.0
  0
LINE
  5
130
330
2
100
AcDbEntity
  8
GEB-KONTUR-A
 48
25.0
100
AcDbLine
 10
-56.58377520061861
 20
37.6320674425132
 30
0.0
 11
-59.61769332737157
 21
37.63206744251323
 31
0.0
  0
LINE
  5
131
330
2
100
AcDbEntity
  8
GEB-KONTUR-A
 48
25.0
100
AcDbLine
 10
-59.78072950968061
 20
38.93725722232872
 30
0.0
 11
-98.07895130338579
 21
38.93725722232924
 31
0.0
  0
LINE
  5
132
330
2
100
AcDbEntity
  8
GEB-VERDECKT
 48
25.0
100
AcDbLine
 10
-57.08539815531998
 20
-37.60000000003166
 30
0.0
 11
-54.08825349057434
 21
-37.60000000003171
 31
0.0
  0
LINE
  5
133
330
2
100
AcDbEntity
  8
GEB-VERDECKT
 48
25.0
100
AcDbLine
 10
-57.08539815531998
 20
37.59999999996819
 30
0.0
 11
-54.08825349057434
 21
37.59999999996816
 31
0.0
  0
ELLIPSE
  5
134
330
2
100
AcDbEntity
  8
GEB-VERDECKT
 48
25.0
100
AcDbEllipse
 10
-54.08825349057434
 20
-0.0000000000318039
 30
0.0
 11
-0.0000000000000002
 21
35.09999999999993
 31
0.0
210
0.0
220
0.0
230
1.0
 40
0.0436193873653362
 41
0.0
 42
6.28318530717958
  0
ELLIPSE
  5
135
330
2
100
AcDbEntity
  8
GEB-VERDECKT
 48
25.0
100
AcDbEllipse
 10
-57.08539815531998
 20
-0.000000000031747
 30
0.0
 11
-0.0000000000000002
 21
37.59999999999993
 31
0.0
210
0.0
220
0.0
230
1.0
 40
0.0436193873653362
 41
0.0
 42
6.28318530717958
  0
ELLIPSE
  5
136
330
2
100
AcDbEntity
  8
GEB-VERDECKT
 48
25.0
100
AcDbEllipse
 10
-54.08825349057434
 20
-0.0000000000318039
 30
0.0
 11
0.0000000000004884
 21
37.59999999999993
 31
0.0
210
0.0
220
0.0
230
1.0
 40
0.0436193873653362
 41
6.021816246080115
 42
9.686147021869563
  0
ELLIPSE
  5
137
330
2
100
AcDbEntity
  8
GEB-VERDECKT
 48
25.0
100
AcDbEllipse
 10
-54.08825349057434
 20
-0.0000000000318039
 30
0.0
 11
-0.0000000000004886
 21
-37.59999999999993
 31
0.0
210
0.0
220
0.0
230
1.0
 40
0.0436193873653362
 41
0.3593490968781788
 42
2.782243556712212
  0
ELLIPSE
  5
138
330
2
100
AcDbEntity
  8
GEB-KONTUR-A
 48
25.0
100
AcDbEllipse
 10
-54.0882534905744
 20
-0.0000000000329976
 30
0.0
 11
0.0000000000004938
 21
37.6000000000012
 31
0.0
210
0.0
220
0.0
230
1.0
 40
0.0436193873653362
 41
5.923836210302139
 42
6.021816246080212
  0
ELLIPSE
  5
139
330
2
100
AcDbEntity
  8
GEB-KONTUR-A
 48
25.0
100
AcDbEllipse
 10
-54.08825349057434
 20
-0.000000000032685
 30
0.0
 11
-0.0000000000004832
 21
-37.599999999999
 31
0.0
210
0.0
220
0.0
230
1.0
 40
0.0436193873653362
 41
0.2613690611002582
 42
0.35934909687831
  0
CIRCLE
  5
13A
330
2
100
AcDbEntity
  8
GEB-VERDECKT
 48
25.0
100
AcDbCircle
 10
0.0000000000015348
 20
-0.0000000000198099
 30
0.0
 40
55.10000000000001
  0
LINE
  5
13B
330
2
100
AcDbEntity
  8
GEB-VERDECKT
 48
25.0
100
AcDbLine
 10
-58.14460649606258
 20
-37.60000000003174
 30
0.0
 11
-40.2771647462911
 21
-37.600000000032
 31
0.0
  0
LINE
  5
13C
330
2
100
AcDbEntity
  8
GEB-VERDECKT
 48
25.0
100
AcDbLine
 10
-58.14460649606258
 20
37.59999999996825
 30
0.0
 11
-40.2771647462911
 21
37.59999999996799
 31
0.0
  0
LINE
  5
13D
330
2
100
AcDbEntity
  8
GEB-VERDECKT
 48
25.0
100
AcDbLine
 10
-37.88001907559794
 20
34.999999999968
 30
0.0
 11
-58.14460649606258
 21
34.99999999996826
 31
0.0
  0
LINE
  5
13E
330
2
100
AcDbEntity
  8
GEB-VERDECKT
 48
25.0
100
AcDbLine
 10
-37.88001907559792
 20
-35.000000000032
 30
0.0
 11
-58.14460649606258
 21
-35.00000000003175
 31
0.0
  0
CIRCLE
  5
13F
330
2
100
AcDbEntity
  8
GEB-VERDECKT
 48
25.0
100
AcDbCircle
 10
0.0000000000015348
 20
-0.0000000000436842
 30
0.0
 40
57.85
  0
ELLIPSE
  5
140
330
2
100
AcDbEntity
  8
GEB-VERDECKT
 48
25.0
100
AcDbEllipse
 10
-58.14460649606258
 20
-0.000000000031747
 30
0.0
 11
0.0
 21
37.6
 31
0.0
210
0.0
220
0.0
230
1.0
 40
0.0436193873653358
 41
0.0
 42
6.28318530717958
  0
ELLIPSE
  5
141
330
2
100
AcDbEntity
  8
GEB-VERDECKT
 48
25.0
100
AcDbEllipse
 10
-58.14460649606258
 20
-0.000000000031747
 30
0.0
 11
0.0
 21
35.0
 31
0.0
210
0.0
220
0.0
230
1.0
 40
0.0436193873653358
 41
0.0
 42
6.28318530717958
  0
CIRCLE
  5
142
330
2
100
AcDbEntity
  8
GEB-VERDECKT
 48
25.0
100
AcDbCircle
 10
0.0000000000015348
 20
-0.0000000000646878
 30
0.0
 40
54.48853863708269
  0
CIRCLE
  5
143
330
2
100
AcDbEntity
  8
GEB-KONTUR-A
 48
25.0
100
AcDbCircle
 10
0.0000000000015348
 20
-0.0000000000646878
 30
0.0
 40
51.5
  0
SPLINE
  5
144
330
2
100
AcDbEntity
  8
GEB-KONTUR-A
 48
25.0
100
AcDbSpline
210
0.0
220
0.0
230
1.0
 70
    11
 71
     3
 72
    70
 73
    66
 74
     0
 42
0.0000000001
 43
0.0000000001
 40
0.0
 40
0.0
 40
0.0
 40
0.0
 40
0.6989914083550135
 40
0.6989914083550135
 40
1.397982816710026
 40
1.397982816710026
 40
2.09697422506504
 40
2.09697422506504
 40
2.795965633420053
 40
2.795965633420053
 40
3.483678924125876
 40
3.483678924125876
 40
4.171392214831699
 40
4.171392214831699
 40
4.859105505537522
 40
4.859105505537522
 40
5.546818796243345
 40
5.546818796243345
 40
6.234532086949168
 40
6.234532086949168
 40
6.922245377654991
 40
6.922245377654991
 40
7.609958668360815
 40
7.609958668360815
 40
8.297671959066638
 40
8.297671959066638
 40
8.996663367421652
 40
8.996663367421652
 40
9.695654775776665
 40
9.695654775776665
 40
10.39464618413168
 40
10.39464618413168
 40
11.09363759248669
 40
11.09363759248669
 40
11.77704024923156
 40
11.77704024923156
 40
12.46044290597642
 40
12.46044290597642
 40
13.14384556272128
 40
13.14384556272128
 40
13.82724821946615
 40
13.82724821946615
 40
14.51040058699163
 40
14.51040058699163
 40
15.19355295451712
 40
15.19355295451712
 40
15.87670532204261
 40
15.87670532204261
 40
16.55985768956809
 40
16.55985768956809
 40
17.24301005709358
 40
17.24301005709358
 40
17.92616242461906
 40
17.92616242461906
 40
18.60931479214455
 40
18.60931479214455
 40
19.29246715967004
 40
19.29246715967004
 40
19.9758698164149
 40
19.9758698164149
 40
20.65927247315977
 40
20.65927247315977
 40
21.34267512990463
 40
21.34267512990463
 40
22.0260777866495
 40
22.0260777866495
 40
22.0260777866495
 40
22.0260777866495
 10
-37.88000777372429
 20
34.99999634072131
 30
0.0
 10
-37.88115975779346
 20
35.0010607396114
 30
0.0
 10
-38.10323853737637
 20
34.76715027482223
 30
0.0
 10
-38.93720244537039
 20
33.83530080271027
 30
0.0
 10
-39.54629448502226
 20
33.13795775376557
 30
0.0
 10
-40.99187458098612
 20
31.33688191979761
 30
0.0
 10
-41.82737949493153
 20
30.23170167122905
 30
0.0
 10
-43.54799462353162
 20
27.7005827247477
 30
0.0
 10
-44.43212181276613
 20
26.27390305253598
 30
0.0
 10
-46.08307877988656
 20
23.25940432216061
 30
0.0
 10
-46.91466576964086
 20
21.56235428320485
 30
0.0
 10
-48.45759100654425
 20
17.83154900891293
 30
0.0
 10
-49.16807728034786
 20
15.79751904681851
 30
0.0
 10
-50.34708849417135
 20
11.50487497142873
 30
0.0
 10
-50.81617745457527
 20
9.241521158528797
 30
0.0
 10
-51.44190784863829
 20
4.635342258710863
 30
0.0
 10
-51.59816431017583
 20
2.292377635664621
 30
0.0
 10
-51.59816431017583
 20
-2.292377635707509
 30
0.0
 10
-51.44190784863827
 20
-4.635342258753865
 30
0.0
 10
-50.81617745457524
 20
-9.241521158572396
 30
0.0
 10
-50.34708849417135
 20
-11.50487497147278
 30
0.0
 10
-49.1680772803478
 20
-15.79751904686364
 30
0.0
 10
-48.45759100654425
 20
-17.83154900895872
 30
0.0
 10
-46.91466576964086
 20
-21.56235428325221
 30
0.0
 10
-46.08307877988656
 20
-23.25940432220884
 30
0.0
 10
-44.43212181276606
 20
-26.27390305258604
 30
0.0
 10
-43.54799462353159
 20
-27.70058272479884
 30
0.0
 10
-41.82737949493151
 20
-30.23170167128242
 30
0.0
 10
-40.99187458098612
 20
-31.33688191985218
 30
0.0
 10
-39.54629448502223
 20
-33.13795775382269
 30
0.0
 10
-38.93720244537036
 20
-33.83530080276873
 30
0.0
 10
-38.10323853737634
 20
-34.76715027488345
 30
0.0
 10
-37.8811597577934
 20
-35.00106073967405
 30
0.0
 10
-37.87888148094874
 20
-34.99895567988497
 30
0.0
 10
-38.08948826879487
 20
-34.77270723912324
 30
0.0
 10
-38.90139270124345
 20
-33.85731209883517
 30
0.0
 10
-39.50010769047964
 20
-33.16866864404591
 30
0.0
 10
-40.93123528837037
 20
-31.38090013779436
 30
0.0
 10
-41.76263827081936
 20
-30.28015069621896
 30
0.0
 10
-43.4778981987528
 20
-27.75649506798331
 30
0.0
 10
-44.36057508911065
 20
-26.33294217497195
 30
0.0
 10
-46.02003007732633
 20
-23.3073532628969
 30
0.0
 10
-46.86040923572059
 20
-21.59270646388026
 30
0.0
 10
-48.41489315201503
 20
-17.83164767255752
 30
0.0
 10
-49.12814821814126
 20
-15.7850110928118
 30
0.0
 10
-50.30807888046232
 20
-11.47674846734446
 30
0.0
 10
-50.77532613323191
 20
-9.210603313124636
 30
0.0
 10
-51.3969486170607
 20
-4.610873273011321
 30
0.0
 10
-51.5509968482674
 20
-2.277174558460501
 30
0.0
 10
-51.5509968482674
 20
2.27717455837606
 30
0.0
 10
-51.3969486170607
 20
4.610873272926994
 30
0.0
 10
-50.77532613323194
 20
9.21060331304082
 30
0.0
 10
-50.30807888046235
 20
11.47674846726101
 30
0.0
 10
-49.12814821814129
 20
15.78501109272946
 30
0.0
 10
-48.41489315201505
 20
17.83164767247581
 30
0.0
 10
-46.86040923572062
 20
21.59270646380006
 30
0.0
 10
-46.02003007732636
 20
23.30735326281754
 30
0.0
 10
-44.36057508911068
 20
26.33294217489436
 30
0.0
 10
-43.47789819875282
 20
27.75649506790669
 30
0.0
 10
-41.76263827081936
 20
30.28015069614452
 30
0.0
 10
-40.93123528837046
 20
31.38090013772111
 30
0.0
 10
-39.50010769047967
 20
33.16866864397517
 30
0.0
 10
-38.90139270124345
 20
33.85731209876573
 30
0.0
 10
-38.0894882687949
 20
34.77270723905647
 30
0.0
 10
-37.87888148094879
 20
34.9989556798196
 30
0.0
 10
-37.88000777372429
 20
34.99999634072131
 30
0.0
  0
CIRCLE
  5
145
330
2
100
AcDbEntity
  8
GEB-KONTUR-A
 48
25.0
100
AcDbCircle
 10
0.0000000000015348
 20
-0.0000000000206057
 30
0.0
 40
51.59999999999997
  0
CIRCLE
  5
146
330
2
100
AcDbEntity
  8
GEB-KONTUR-A
 48
25.0
100
AcDbCircle
 10
0.0000000000015348
 20
-0.0000000000198099
 30
0.0
 40
53.15125736871053
  0
TEXT
  5
147
330
2
100
AcDbEntity
  8
GEB-TEXT
100
AcDbText
 10
-60.73857145694682
 20
-77.05000000000009
 30
0.0
 40
3.5
  1
Abzweig PP-MD 87.5G d110/75
 72
     1
 11
-26.08952643648297
 21
-77.05000000000009
 31
0.0
100
AcDbText
  0
TEXT
  5
149
330
2
100
AcDbEntity
  8
GEB-TEXT
100
AcDbText
 10
-44.84174335326332
 20
-71.5500000000001
 30
0.0
 40
3.5
  1
Geberit Silent PP
 72
     1
 11
-26.08952643648297
 21
-71.5500000000001
 31
0.0
100
AcDbText
  0
TEXT
  5
14A
330
2
100
AcDbEntity
  8
GEB-ART-NR
100
AcDbText
 10
-50.26497123612856
 20
-83.39278125428032
 30
0.0
 40
3.5
  1
GEB-ART-NR 390.549
 72
     1
 11
-25.53696987187209
 21
-83.39278125428032
 31
0.0
100
AcDbText
  0
ENDSEC
  0
SECTION
  2
OBJECTS
  0
DICTIONARY
  5
9
330
0
100
AcDbDictionary
281
     1
  3
ACAD_2007HEADERVARS_RT
350
179
  3
ACAD_COLOR
350
44
  3
ACAD_GROUP
350
31
  3
ACAD_LAYOUT
350
16
  3
ACAD_MATERIAL
350
B
  3
ACAD_MLEADERSTYLE
350
47
  3
ACAD_MLINESTYLE
350
32
  3
ACAD_PLOTSETTINGS
350
33
  3
ACAD_PLOTSTYLENAME
350
8
  3
ACAD_SCALELIST
350
45
  3
ACAD_TABLESTYLE
350
46
  3
ACAD_VISUALSTYLE
350
2B
  3
ACDB_RECOMPOSE_DATA
350
178
  3
AcDbVariableDictionary
350
14E
  0
DICTIONARY
  5
2C
330
28
100
AcDbDictionary
280
     1
281
     1
  0
DICTIONARY
  5
1C
330
1B
100
AcDbDictionary
280
     1
281
     1
  3
ACAD_LAYERFILTERS
360
1D
  3
ACLYDICTIONARY
360
1E
  0
DICTIONARY
  5
3
330
2
100
AcDbDictionary
280
     1
281
     1
  3
ACAD_SORTENTS
360
14C
  0
DICTIONARY
  5
179
102
{ACAD_REACTORS
330
9
102
}
330
9
100
AcDbDictionary
281
     1
  3
DIMARCSYM
350
17A
  3
DIMLTEX1
350
17C
  3
DIMLTEX2
350
17D
  3
DIMLTYPE
350
17B
  0
DICTIONARY
  5
44
102
{ACAD_REACTORS
330
9
102
}
330
9
100
AcDbDictionary
281
     1
  0
DICTIONARY
  5
31
102
{ACAD_REACTORS
330
9
102
}
330
9
100
AcDbDictionary
281
     1
  0
DICTIONARY
  5
16
102
{ACAD_REACTORS
330
9
102
}
330
9
100
AcDbDictionary
281
     1
  3
Layout1
350
1A
  3
Model
350
15
  0
DICTIONARY
  5
B
102
{ACAD_REACTORS
330
9
102
}
330
9
100
AcDbDictionary
281
     1
  3
ByBlock
350
3C
  3
ByLayer
350
34
  3
Global
350
A
  0
DICTIONARY
  5
47
102
{ACAD_REACTORS
330
9
102
}
330
9
100
AcDbDictionary
281
     1
  3
Standard
350
16C
  0
DICTIONARY
  5
32
102
{ACAD_REACTORS
330
9
102
}
330
9
100
AcDbDictionary
281
     1
  3
Standard
350
48
  0
DICTIONARY
  5
33
102
{ACAD_REACTORS
330
9
102
}
330
9
100
AcDbDictionary
281
     1
  0
ACDBDICTIONARYWDFLT
  5
8
102
{ACAD_REACTORS
330
9
102
}
330
9
100
AcDbDictionary
281
     1
  3
Normal
350
7
100
AcDbDictionaryWithDefault
340
7
  0
DICTIONARY
  5
45
102
{ACAD_REACTORS
330
9
102
}
330
9
100
AcDbDictionary
281
     1
  3
A0
350
4D
  3
A1
350
4E
  3
A2
350
4F
  3
A3
350
50
  3
A4
350
51
  3
A5
350
52
  3
A6
350
53
  3
A7
350
54
  3
A8
350
55
  3
A9
350
56
  3
B0
350
57
  3
B1
350
58
  3
B2
350
59
  3
B3
350
5A
  3
B4
350
5B
  3
B5
350
5C
  3
B6
350
5D
  3
B7
350
5E
  3
B8
350
5F
  3
B9
350
60
  3
C0
350
61
  3
C1
350
62
  3
C2
350
63
  3
C3
350
64
  3
C4
350
65
  3
C5
350
66
  3
C6
350
67
  3
C7
350
68
  3
C8
350
69
  3
C9
350
6A
  3
D0
350
6B
  3
D1
350
6C
  3
D2
350
6D
  0
DICTIONARY
  5
46
102
{ACAD_REACTORS
330
9
102
}
330
9
100
AcDbDictionary
281
     1
  3
Standard
350
49
  0
DICTIONARY
  5
2B
102
{ACAD_REACTORS
330
9
102
}
330
9
100
AcDbDictionary
281
     1
  3
2dWireframe
350
2A
  3
Basic
350
15B
  3
Brighten
350
15F
  3
ColorChange
350
163
  3
Conceptual
350
15D
  3
Dim
350
15E
  3
EdgeColorOff
350
16B
  3
Facepattern
350
162
  3
Flat
350
157
  3
FlatWithEdges
350
158
  3
Gouraud
350
159
  3
GouraudWithEdges
350
15A
  3
Hidden
350
15C
  3
JitterOff
350
169
  3
Linepattern
350
161
  3
OverhangOff
350
16A
  3
Realistic
350
4B
  3
Shaded
350
168
  3
Shaded with edges
350
167
  3
Shades of Gray
350
164
  3
Sketchy
350
165
  3
Thicken
350
160
  3
Wireframe
350
4C
  3
X-Ray
350
166
  0
XRECORD
  5
178
102
{ACAD_REACTORS
330
9
102
}
330
9
100
AcDbXrecord
280
     1
 90
        1
330
49
  0
DICTIONARY
  5
14E
102
{ACAD_REACTORS
330
9
102
}
330
9
100
AcDbDictionary
281
     1
  3
CANNOSCALE
350
152
  3
CMLEADERSTYLE
350
150
  3
CTABLESTYLE
350
14F
  3
DIMASSOC
350
175
  3
HIDETEXT
350
174
  3
INDEXCTL
350
173
  3
LAYEREVAL
350
154
  3
LAYERNOTIFY
350
155
  3
LIGHTINGUNITS
350
153
  3
MSLTSCALE
350
151
  3
SORTENTS
350
172
  3
XCLIPFRAME
350
176
  0
DICTIONARY
  5
1D
102
{ACAD_REACTORS
330
1C
102
}
330
1C
100
AcDbDictionary
281
     1
  0
DICTIONARY
  5
1E
102
{ACAD_REACTORS
330
1C
102
}
330
1C
100
AcDbDictionary
281
     1
1001
ACAD
1000
<All
  0
SORTENTSTABLE
  5
14C
102
{ACAD_REACTORS
330
3
102
}
330
3
100
AcDbSortentsTable
330
2
331
132
  5
8E
331
BC
  5
104
331
7D
  5
140
331
F3
  5
CD
331
13A
  5
86
331
FB
  5
C5
331
85
  5
13B
331
C4
  5
FC
331
103
  5
BD
331
CC
  5
F4
331
8D
  5
133
331
142
  5
7B
331
14A
  5
147
331
D4
  5
EC
331
95
  5
12B
331
10B
  5
B5
331
DC
  5
E4
331
9D
  5
123
331
113
  5
AD
331
11B
  5
A5
331
A5
  5
11B
331
E4
  5
DC
331
123
  5
9D
331
EC
  5
D4
331
AD
  5
113
331
12B
  5
95
331
B5
  5
10B
331
F4
  5
CC
331
BD
  5
103
331
133
  5
8D
331
13B
  5
85
331
C5
  5
FB
331
86
  5
13A
331
FC
  5
C4
331
143
  5
7A
331
CD
  5
F3
331
8E
  5
132
331
104
  5
BC
331
10C
  5
B4
331
96
  5
12A
331
D5
  5
EB
331
114
  5
AC
331
DD
  5
E3
331
9E
  5
122
331
E5
  5
DB
331
A6
  5
11A
331
11C
  5
A4
331
ED
  5
D3
331
AE
  5
112
331
124
  5
9C
331
B6
  5
10A
331
12C
  5
94
331
134
  5
8C
331
F5
  5
CB
331
7F
  5
13F
331
BE
  5
102
331
13C
  5
84
331
FD
  5
C3
331
87
  5
139
331
C6
  5
FA
331
105
  5
BB
331
CE
  5
F2
331
8F
  5
131
331
144
  5
79
331
D6
  5
EA
331
97
  5
129
331
10D
  5
B3
331
DE
  5
E2
331
9F
  5
121
331
115
  5
AB
331
11D
  5
A3
331
A7
  5
119
331
E6
  5
DA
331
125
  5
9B
331
EE
  5
D2
331
AF
  5
111
331
B7
  5
109
331
12D
  5
93
331
F6
  5
CA
331
BF
  5
101
331
80
  5
13E
331
135
  5
8B
331
13D
  5
81
331
C7
  5
F9
331
88
  5
138
331
FE
  5
C2
331
145
  5
75
331
106
  5
BA
331
90
  5
130
331
CF
  5
F1
331
10E
  5
B2
331
D7
  5
E9
331
75
  5
145
331
98
  5
128
331
116
  5
AA
331
DF
  5
E1
331
A0
  5
120
331
E7
  5
D9
331
A8
  5
118
331
11E
  5
A2
331
EF
  5
D1
331
B0
  5
110
331
126
  5
9A
331
12E
  5
92
331
B8
  5
108
331
79
  5
144
331
136
  5
8A
331
F7
  5
C9
331
81
  5
13D
331
C0
  5
100
331
FF
  5
C1
331
89
  5
137
331
C8
  5
F8
331
13E
  5
80
331
107
  5
B9
331
D0
  5
F0
331
91
  5
12F
331
146
  5
6E
331
10F
  5
B1
331
6E
  5
146
331
D8
  5
E8
331
99
  5
127
331
A1
  5
11F
331
117
  5
A9
331
11F
  5
A1
331
A9
  5
117
331
E8
  5
D8
331
127
  5
99
331
B1
  5
10F
331
12F
  5
91
331
F0
  5
D0
331
B9
  5
107
331
7A
  5
143
331
F8
  5
C8
331
C1
  5
FF
331
137
  5
89
331
13F
  5
7F
331
C9
  5
F7
331
8A
  5
136
331
100
  5
C0
331
147
  5
14A
331
108
  5
B8
331
92
  5
12E
331
D1
  5
EF
331
110
  5
B0
331
9A
  5
126
331
D9
  5
E7
331
118
  5
A8
331
E1
  5
DF
331
A2
  5
11E
331
E9
  5
D7
331
AA
  5
116
331
120
  5
A0
331
B2
  5
10E
331
128
  5
98
331
130
  5
90
331
BA
  5
106
331
7B
  5
142
331
F1
  5
CF
331
138
  5
88
331
F9
  5
C7
331
C2
  5
FE
331
101
  5
BF
331
CA
  5
F6
331
8B
  5
135
331
140
  5
7D
331
109
  5
B7
331
D2
  5
EE
331
93
  5
12D
331
DA
  5
E6
331
9B
  5
125
331
111
  5
AF
331
119
  5
A7
331
A3
  5
11D
331
E2
  5
DE
331
121
  5
9F
331
AB
  5
115
331
EA
  5
D6
331
129
  5
97
331
B3
  5
10D
331
F2
  5
CE
331
BB
  5
105
331
7C
  5
141
331
131
  5
8F
331
139
  5
87
331
C3
  5
FD
331
84
  5
13C
331
FA
  5
C6
331
141
  5
7C
331
CB
  5
F5
331
8C
  5
134
331
102
  5
BE
331
10A
  5
B6
331
94
  5
12C
331
D3
  5
ED
331
112
  5
AE
331
DB
  5
E5
331
9C
  5
124
331
11A
  5
A6
331
E3
  5
DD
331
A4
  5
11C
331
EB
  5
D5
331
AC
  5
114
331
122
  5
9E
331
B4
  5
10C
331
12A
  5
96
  0
XRECORD
  5
17A
102
{ACAD_REACTORS
330
179
102
}
330
179
100
AcDbXrecord
280
     1
 70
     1
  0
XRECORD
  5
17C
102
{ACAD_REACTORS
330
179
102
}
330
179
100
AcDbXrecord
280
     1
340
24
  0
XRECORD
  5
17D
102
{ACAD_REACTORS
330
179
102
}
330
179
100
AcDbXrecord
280
     1
340
24
  0
XRECORD
  5
17B
102
{ACAD_REACTORS
330
179
102
}
330
179
100
AcDbXrecord
280
     1
340
24
  0
LAYOUT
  5
1A
102
{ACAD_XDICTIONARY
360
181
102
}
102
{ACAD_REACTORS
330
16
102
}
330
16
100
AcDbPlotSettings
  1

  2
\\le-server\HP LaserJet 2100
  4

  6

 40
0.0
 41
0.0
 42
0.0
 43
0.0
 44
0.0
 45
0.0
 46
0.0
 47
0.0
 48
0.0
 49
0.0
140
0.0
141
0.0
142
1.0
143
1.0
 70
   688
 72
     0
 73
     0
 74
     5
  7

 75
    16
147
1.0
148
0.0
149
0.0
100
AcDbLayout
  1
Layout1
 70
     1
 71
     1
 10
0.0
 20
0.0
 11
1189.0
 21
840.9999999999998
 12
0.0
 22
0.0
 32
0.0
 14
0.0
 24
0.0
 34
0.0
 15
1189.0
 25
840.9999999999998
 35
0.0
146
0.0
 13
0.0
 23
0.0
 33
0.0
 16
1.0
 26
0.0
 36
0.0
 17
0.0
 27
1.0
 37
0.0
 76
     0
330
17
  0
LAYOUT
  5
15
102
{ACAD_XDICTIONARY
360
17F
102
}
102
{ACAD_REACTORS
330
16
102
}
330
16
100
AcDbPlotSettings
  1

  2
\\le-server\HP LaserJet 2100
  4

  6

 40
0.0
 41
0.0
 42
0.0
 43
0.0
 44
0.0
 45
0.0
 46
0.0
 47
0.0
 48
0.0
 49
0.0
140
0.0
141
0.0
142
1.0
143
1.0
 70
  1712
 72
     0
 73
     0
 74
     0
  7

 75
     0
147
1.0
148
0.0
149
0.0
100
AcDbLayout
  1
Model
 70
     1
 71
     0
 10
0.0
 20
0.0
 11
12.0
 21
9.0
 12
0.0
 22
0.0
 32
0.0
 14
0.0
 24
0.0
 34
0.0
 15
0.0
 25
0.0
 35
0.0
146
0.0
 13
0.0
 23
0.0
 33
0.0
 16
1.0
 26
0.0
 36
0.0
 17
0.0
 27
1.0
 37
0.0
 76
     0
330
2
331
29
  0
MATERIAL
  5
3C
102
{ACAD_XDICTIONARY
360
3D
102
}
102
{ACAD_REACTORS
330
B
102
}
330
B
100
AcDbMaterial
  1
ByBlock
 72
     0
 43
0.0208333333333333
 43
0.0
 43
0.0
 43
0.0
 43
0.0
 43
0.0208333333333333
 43
0.0
 43
0.0
 43
0.0
 43
0.0
 43
1.0
 43
0.0
 43
0.0
 43
0.0
 43
0.0
 43
1.0
 77
     0
 47
0.0208333333333333
 47
0.0
 47
0.0
 47
0.0
 47
0.0
 47
0.0208333333333333
 47
0.0
 47
0.0
 47
0.0
 47
0.0
 47
1.0
 47
0.0
 47
0.0
 47
0.0
 47
0.0
 47
1.0
171
     0
 49
0.0208333333333333
 49
0.0
 49
0.0
 49
0.0
 49
0.0
 49
0.0208333333333333
 49
0.0
 49
0.0
 49
0.0
 49
0.0
 49
1.0
 49
0.0
 49
0.0
 49
0.0
 49
0.0
 49
1.0
175
     0
142
0.0208333333333333
142
0.0
142
0.0
142
0.0
142
0.0
142
0.0208333333333333
142
0.0
142
0.0
142
0.0
142
0.0
142
1.0
142
0.0
142
0.0
142
0.0
142
0.0
142
1.0
179
     0
144
0.0208333333333333
144
0.0
144
0.0
144
0.0
144
0.0
144
0.0208333333333333
144
0.0
144
0.0
144
0.0
144
0.0
144
1.0
144
0.0
144
0.0
144
0.0
144
0.0
144
1.0
147
0.0208333333333333
147
0.0
147
0.0
147
0.0
147
0.0
147
0.0208333333333333
147
0.0
147
0.0
147
0.0
147
0.0
147
1.0
147
0.0
147
0.0
147
0.0
147
0.0
147
1.0
  0
MATERIAL
  5
34
102
{ACAD_XDICTIONARY
360
35
102
}
102
{ACAD_REACTORS
330
B
102
}
330
B
100
AcDbMaterial
  1
ByLayer
 72
     0
 43
0.0208333333333333
 43
0.0
 43
0.0
 43
0.0
 43
0.0
 43
0.0208333333333333
 43
0.0
 43
0.0
 43
0.0
 43
0.0
 43
1.0
 43
0.0
 43
0.0
 43
0.0
 43
0.0
 43
1.0
 77
     0
 47
0.0208333333333333
 47
0.0
 47
0.0
 47
0.0
 47
0.0
 47
0.0208333333333333
 47
0.0
 47
0.0
 47
0.0
 47
0.0
 47
1.0
 47
0.0
 47
0.0
 47
0.0
 47
0.0
 47
1.0
171
     0
 49
0.0208333333333333
 49
0.0
 49
0.0
 49
0.0
 49
0.0
 49
0.0208333333333333
 49
0.0
 49
0.0
 49
0.0
 49
0.0
 49
1.0
 49
0.0
 49
0.0
 49
0.0
 49
0.0
 49
1.0
175
     0
142
0.0208333333333333
142
0.0
142
0.0
142
0.0
142
0.0
142
0.0208333333333333
142
0.0
142
0.0
142
0.0
142
0.0
142
1.0
142
0.0
142
0.0
142
0.0
142
0.0
142
1.0
179
     0
144
0.0208333333333333
144
0.0
144
0.0
144
0.0
144
0.0
144
0.0208333333333333
144
0.0
144
0.0
144
0.0
144
0.0
144
1.0
144
0.0
144
0.0
144
0.0
144
0.0
144
1.0
147
0.0208333333333333
147
0.0
147
0.0
147
0.0
147
0.0
147
0.0208333333333333
147
0.0
147
0.0
147
0.0
147
0.0
147
1.0
147
0.0
147
0.0
147
0.0
147
0.0
147
1.0
  0
MATERIAL
  5
A
102
{ACAD_XDICTIONARY
360
C
102
}
102
{ACAD_REACTORS
330
B
102
}
330
B
100
AcDbMaterial
  1
Global
 72
     0
 43
0.0208333333333333
 43
0.0
 43
0.0
 43
0.0
 43
0.0
 43
0.0208333333333333
 43
0.0
 43
0.0
 43
0.0
 43
0.0
 43
1.0
 43
0.0
 43
0.0
 43
0.0
 43
0.0
 43
1.0
 77
     0
 47
0.0208333333333333
 47
0.0
 47
0.0
 47
0.0
 47
0.0
 47
0.0208333333333333
 47
0.0
 47
0.0
 47
0.0
 47
0.0
 47
1.0
 47
0.0
 47
0.0
 47
0.0
 47
0.0
 47
1.0
171
     0
 49
0.0208333333333333
 49
0.0
 49
0.0
 49
0.0
 49
0.0
 49
0.0208333333333333
 49
0.0
 49
0.0
 49
0.0
 49
0.0
 49
1.0
 49
0.0
 49
0.0
 49
0.0
 49
0.0
 49
1.0
175
     0
142
0.0208333333333333
142
0.0
142
0.0
142
0.0
142
0.0
142
0.0208333333333333
142
0.0
142
0.0
142
0.0
142
0.0
142
1.0
142
0.0
142
0.0
142
0.0
142
0.0
142
1.0
179
     0
144
0.0208333333333333
144
0.0
144
0.0
144
0.0
144
0.0
144
0.0208333333333333
144
0.0
144
0.0
144
0.0
144
0.0
144
1.0
144
0.0
144
0.0
144
0.0
144
0.0
144
1.0
147
0.0208333333333333
147
0.0
147
0.0
147
0.0
147
0.0
147
0.0208333333333333
147
0.0
147
0.0
147
0.0
147
0.0
147
1.0
147
0.0
147
0.0
147
0.0
147
0.0
147
1.0
  0
MLEADERSTYLE
  5
16C
102
{ACAD_REACTORS
330
47
102
}
330
47
100
AcDbMLeaderStyle
170
     2
171
     1
172
     0
 90
        2
 40
0.0
 41
0.0
173
     1
 91
-1056964608
340
24
 92
       -2
290
     1
 42
2.0
291
     1
 43
0.36
  3
Standard
 44
4.0
300

342
21
174
     1
178
     6
175
     1
176
     0
 93
-1056964608
 45
4.0
292
     0
297
     0
 46
4.0
 94
-1056964608
 47
1.0
 49
1.0
140
1.0
293
     1
141
0.0
294
     1
177
     0
142
1.0
295
     0
296
     0
143
0.125
1001
ACAD_MLEADERVER
1070
     2
  0
MLINESTYLE
  5
48
102
{ACAD_REACTORS
330
32
102
}
330
32
100
AcDbMlineStyle
  2
STANDARD
 70
     0
  3

 62
   256
 51
90.0
 52
90.0
 71
     2
 49
0.5
 62
   256
  6
BYLAYER
 49
-0.5
 62
   256
  6
BYLAYER
  0
ACDBPLACEHOLDER
  5
7
102
{ACAD_REACTORS
330
8
102
}
330
8
  0
SCALE
  5
4D
102
{ACAD_REACTORS
330
45
102
}
330
45
100
AcDbScale
 70
     0
300
1:1
140
1.0
141
1.0
290
     1
  0
SCALE
  5
4E
102
{ACAD_REACTORS
330
45
102
}
330
45
100
AcDbScale
 70
     0
300
1:2
140
1.0
141
2.0
290
     0
  0
SCALE
  5
4F
102
{ACAD_REACTORS
330
45
102
}
330
45
100
AcDbScale
 70
     0
300
1:4
140
1.0
141
4.0
290
     0
  0
SCALE
  5
50
102
{ACAD_REACTORS
330
45
102
}
330
45
100
AcDbScale
 70
     0
300
1:5
140
1.0
141
5.0
290
     0
  0
SCALE
  5
51
102
{ACAD_REACTORS
330
45
102
}
330
45
100
AcDbScale
 70
     0
300
1:8
140
1.0
141
8.0
290
     0
  0
SCALE
  5
52
102
{ACAD_REACTORS
330
45
102
}
330
45
100
AcDbScale
 70
     0
300
1:10
140
1.0
141
10.0
290
     0
  0
SCALE
  5
53
102
{ACAD_REACTORS
330
45
102
}
330
45
100
AcDbScale
 70
     0
300
1:16
140
1.0
141
16.0
290
     0
  0
SCALE
  5
54
102
{ACAD_REACTORS
330
45
102
}
330
45
100
AcDbScale
 70
     0
300
1:20
140
1.0
141
20.0
290
     0
  0
SCALE
  5
55
102
{ACAD_REACTORS
330
45
102
}
330
45
100
AcDbScale
 70
     0
300
1:30
140
1.0
141
30.0
290
     0
  0
SCALE
  5
56
102
{ACAD_REACTORS
330
45
102
}
330
45
100
AcDbScale
 70
     0
300
1:40
140
1.0
141
40.0
290
     0
  0
SCALE
  5
57
102
{ACAD_REACTORS
330
45
102
}
330
45
100
AcDbScale
 70
     0
300
1:50
140
1.0
141
50.0
290
     0
  0
SCALE
  5
58
102
{ACAD_REACTORS
330
45
102
}
330
45
100
AcDbScale
 70
     0
300
1:100
140
1.0
141
100.0
290
     0
  0
SCALE
  5
59
102
{ACAD_REACTORS
330
45
102
}
330
45
100
AcDbScale
 70
     0
300
2:1
140
2.0
141
1.0
290
     0
  0
SCALE
  5
5A
102
{ACAD_REACTORS
330
45
102
}
330
45
100
AcDbScale
 70
     0
300
4:1
140
4.0
141
1.0
290
     0
  0
SCALE
  5
5B
102
{ACAD_REACTORS
330
45
102
}
330
45
100
AcDbScale
 70
     0
300
8:1
140
8.0
141
1.0
290
     0
  0
SCALE
  5
5C
102
{ACAD_REACTORS
330
45
102
}
330
45
100
AcDbScale
 70
     0
300
10:1
140
10.0
141
1.0
290
     0
  0
SCALE
  5
5D
102
{ACAD_REACTORS
330
45
102
}
330
45
100
AcDbScale
 70
     0
300
100:1
140
100.0
141
1.0
290
     0
  0
SCALE
  5
5E
102
{ACAD_REACTORS
330
45
102
}
330
45
100
AcDbScale
 70
     0
300
1/128" = 1'-0"
140
0.0078125
141
12.0
290
     0
  0
SCALE
  5
5F
102
{ACAD_REACTORS
330
45
102
}
330
45
100
AcDbScale
 70
     0
300
1/64" = 1'-0"
140
0.015625
141
12.0
290
     0
  0
SCALE
  5
60
102
{ACAD_REACTORS
330
45
102
}
330
45
100
AcDbScale
 70
     0
300
1/32" = 1'-0"
140
0.03125
141
12.0
290
     0
  0
SCALE
  5
61
102
{ACAD_REACTORS
330
45
102
}
330
45
100
AcDbScale
 70
     0
300
1/16" = 1'-0"
140
0.0625
141
12.0
290
     0
  0
SCALE
  5
62
102
{ACAD_REACTORS
330
45
102
}
330
45
100
AcDbScale
 70
     0
300
3/32" = 1'-0"
140
0.09375
141
12.0
290
     0
  0
SCALE
  5
63
102
{ACAD_REACTORS
330
45
102
}
330
45
100
AcDbScale
 70
     0
300
1/8" = 1'-0"
140
0.125
141
12.0
290
     0
  0
SCALE
  5
64
102
{ACAD_REACTORS
330
45
102
}
330
45
100
AcDbScale
 70
     0
300
3/16" = 1'-0"
140
0.1875
141
12.0
290
     0
  0
SCALE
  5
65
102
{ACAD_REACTORS
330
45
102
}
330
45
100
AcDbScale
 70
     0
300
1/4" = 1'-0"
140
0.25
141
12.0
290
     0
  0
SCALE
  5
66
102
{ACAD_REACTORS
330
45
102
}
330
45
100
AcDbScale
 70
     0
300
3/8" = 1'-0"
140
0.375
141
12.0
290
     0
  0
SCALE
  5
67
102
{ACAD_REACTORS
330
45
102
}
330
45
100
AcDbScale
 70
     0
300
1/2" = 1'-0"
140
0.5
141
12.0
290
     0
  0
SCALE
  5
68
102
{ACAD_REACTORS
330
45
102
}
330
45
100
AcDbScale
 70
     0
300
3/4" = 1'-0"
140
0.75
141
12.0
290
     0
  0
SCALE
  5
69
102
{ACAD_REACTORS
330
45
102
}
330
45
100
AcDbScale
 70
     0
300
1" = 1'-0"
140
1.0
141
12.0
290
     0
  0
SCALE
  5
6A
102
{ACAD_REACTORS
330
45
102
}
330
45
100
AcDbScale
 70
     0
300
1-1/2" = 1'-0"
140
1.5
141
12.0
290
     0
  0
SCALE
  5
6B
102
{ACAD_REACTORS
330
45
102
}
330
45
100
AcDbScale
 70
     0
300
3" = 1'-0"
140
3.0
141
12.0
290
     0
  0
SCALE
  5
6C
102
{ACAD_REACTORS
330
45
102
}
330
45
100
AcDbScale
 70
     0
300
6" = 1'-0"
140
6.0
141
12.0
290
     0
  0
SCALE
  5
6D
102
{ACAD_REACTORS
330
45
102
}
330
45
100
AcDbScale
 70
     0
300
1'-0" = 1'-0"
140
12.0
141
12.0
290
     0
  0
TABLESTYLE
  5
49
102
{ACAD_XDICTIONARY
360
4A
102
}
102
{ACAD_REACTORS
330
46
102
}
330
46
100
AcDbTableStyle
  3
Standard
 70
     0
 71
     0
 40
0.06
 41
0.06
280
     0
281
     0
  7
STANDARD
140
0.18
170
     2
 62
     0
 63
     7
283
     0
274
    -2
284
     1
 64
     0
275
    -2
285
     1
 65
     0
276
    -2
286
     1
 66
     0
277
    -2
287
     1
 67
     0
278
    -2
288
     1
 68
     0
279
    -2
289
     1
 69
     0
  7
STANDARD
140
0.25
170
     5
 62
     0
 63
     7
283
     0
274
    -2
284
     1
 64
     0
275
    -2
285
     1
 65
     0
276
    -2
286
     1
 66
     0
277
    -2
287
     1
 67
     0
278
    -2
288
     1
 68
     0
279
    -2
289
     1
 69
     0
  7
STANDARD
140
0.18
170
     5
 62
     0
 63
     7
283
     0
274
    -2
284
     1
 64
     0
275
    -2
285
     1
 65
     0
276
    -2
286
     1
 66
     0
277
    -2
287
     1
 67
     0
278
    -2
288
     1
 68
     0
279
    -2
289
     1
 69
     0
  0
VISUALSTYLE
  5
2A
102
{ACAD_XDICTIONARY
360
183
102
}
102
{ACAD_REACTORS
330
2B
102
}
330
2B
100
AcDbVisualStyle
  2
2dWireframe
 70
     4
 71
     0
 72
     2
 73
     0
 90
        0
 40
-0.6
 41
-30.0
 62
     5
 63
     7
 74
     1
 91
        4
 64
     7
 65
   257
 75
     1
175
     1
 42
1.0
 92
        0
 66
   257
 43
1.0
 76
     1
 77
     6
 78
     2
 67
     7
 79
     5
170
     0
171
     0
290
     0
174
     0
 93
        1
 44
0.0
173
     0
291
     0
 45
0.0
1001
ACAD
1000
AcDbSavedByObjectVersion
1070
     0
  0
VISUALSTYLE
  5
15B
102
{ACAD_XDICTIONARY
360
194
102
}
102
{ACAD_REACTORS
330
2B
102
}
330
2B
100
AcDbVisualStyle
  2
Basic
 70
     7
 71
     1
 72
     0
 73
     1
 90
        0
 40
-0.6
 41
-30.0
 62
     5
 63
     7
 74
     0
 91
        4
 64
     7
 65
   257
 75
     1
175
     1
 42
1.0
 92
        8
 66
     7
 43
1.0
 76
     1
 77
     6
 78
     2
 67
     7
 79
     5
170
     0
171
     0
290
     0
174
     0
 93
        1
 44
0.0
173
     0
291
     1
 45
0.0
1001
ACAD
1000
AcDbSavedByObjectVersion
1070
     0
  0
VISUALSTYLE
  5
15F
102
{ACAD_XDICTIONARY
360
19C
102
}
102
{ACAD_REACTORS
330
2B
102
}
330
2B
100
AcDbVisualStyle
  2
Brighten
 70
    12
 71
     2
 72
     2
 73
     0
 90
        0
 40
-0.6
 41
-30.0
 62
     5
 63
     7
 74
     1
 91
        4
 64
     7
 65
   257
 75
     1
175
     1
 42
1.0
 92
        8
 66
     7
 43
1.0
 76
     1
 77
     6
 78
     2
 67
     7
 79
     5
170
     0
171
     0
290
     0
174
     0
 93
        1
 44
50.0
173
     0
291
     1
 45
0.0
1001
ACAD
1000
AcDbSavedByObjectVersion
1070
     0
  0
VISUALSTYLE
  5
163
102
{ACAD_XDICTIONARY
360
1A4
102
}
102
{ACAD_REACTORS
330
2B
102
}
330
2B
100
AcDbVisualStyle
  2
ColorChange
 70
    16
 71
     2
 72
     2
 73
     3
 90
        0
 40
-0.6
 41
-30.0
 62
     5
 63
     8
 74
     1
 91
        4
 64
     7
 65
   257
 75
     1
175
     1
 42
1.0
 92
        8
 66
     8
 43
1.0
 76
     1
 77
     6
 78
     2
 67
     7
 79
     5
170
     0
171
     0
290
     0
174
     0
 93
        1
 44
0.0
173
     0
291
     1
 45
0.0
1001
ACAD
1000
AcDbSavedByObjectVersion
1070
     0
  0
VISUALSTYLE
  5
15D
102
{ACAD_XDICTIONARY
360
198
102
}
102
{ACAD_REACTORS
330
2B
102
}
330
2B
100
AcDbVisualStyle
  2
Conceptual
 70
     9
 71
     3
 72
     2
 73
     0
 90
        0
 40
-0.6
 41
-30.0
 62
     5
 63
     7
 74
     2
 91
        2
 64
     7
 65
   257
 75
     1
175
     1
 42
179.0
 92
        8
 66
     7
 43
1.0
 76
     1
 77
     6
 78
     2
 67
     7
 79
     3
170
     0
171
     0
290
     0
174
     0
 93
        1
 44
0.0
173
     0
291
     0
 45
0.0
1001
ACAD
1000
AcDbSavedByObjectVersion
1070
     0
  0
VISUALSTYLE
  5
15E
102
{ACAD_XDICTIONARY
360
19A
102
}
102
{ACAD_REACTORS
330
2B
102
}
330
2B
100
AcDbVisualStyle
  2
Dim
 70
    11
 71
     2
 72
     2
 73
     0
 90
        0
 40
-0.6
 41
-30.0
 62
     5
 63
     7
 74
     1
 91
        4
 64
     7
 65
   257
 75
     1
175
     1
 42
1.0
 92
        8
 66
     7
 43
1.0
 76
     1
 77
     6
 78
     2
 67
     7
 79
     5
170
     0
171
     0
290
     0
174
     0
 93
        1
 44
-50.0
173
     0
291
     1
 45
0.0
1001
ACAD
1000
AcDbSavedByObjectVersion
1070
     0
  0
VISUALSTYLE
  5
16B
102
{ACAD_XDICTIONARY
360
1B4
102
}
102
{ACAD_REACTORS
330
2B
102
}
330
2B
100
AcDbVisualStyle
  2
EdgeColorOff
 70
    22
 71
     2
 72
     2
 73
     0
 90
        0
 40
-0.6
 41
-30.0
 62
     5
 63
     7
 74
     1
 91
        4
 64
     7
 65
   257
 75
     1
175
     1
 42
1.0
 92
        8
 66
     7
 43
1.0
 76
     1
 77
     6
 78
     2
 67
     7
 79
     5
170
     0
171
     0
290
     0
174
     0
 93
        1
 44
0.0
173
     0
291
     1
 45
0.0
1001
ACAD
1000
AcDbSavedByObjectVersion
1070
     0
  0
VISUALSTYLE
  5
162
102
{ACAD_XDICTIONARY
360
1A2
102
}
102
{ACAD_REACTORS
330
2B
102
}
330
2B
100
AcDbVisualStyle
  2
Facepattern
 70
    15
 71
     2
 72
     2
 73
     0
 90
        0
 40
-0.6
 41
-30.0
 62
     5
 63
     7
 74
     1
 91
        4
 64
     7
 65
   257
 75
     1
175
     1
 42
1.0
 92
        8
 66
     7
 43
1.0
 76
     1
 77
     6
 78
     2
 67
     7
 79
     5
170
     0
171
     0
290
     0
174
     0
 93
        1
 44
0.0
173
     0
291
     1
 45
0.0
1001
ACAD
1000
AcDbSavedByObjectVersion
1070
     0
  0
VISUALSTYLE
  5
157
102
{ACAD_XDICTIONARY
360
18C
102
}
102
{ACAD_REACTORS
330
2B
102
}
330
2B
100
AcDbVisualStyle
  2
Flat
 70
     0
 71
     2
 72
     1
 73
     1
 90
        2
 40
-0.6
 41
30.0
 62
     5
 63
     7
 74
     0
 91
        0
 64
     7
 65
   257
 75
     1
175
     1
 42
1.0
 92
        8
 66
     7
 43
1.0
 76
     1
 77
     6
 78
     2
 67
     7
 79
     5
170
     0
171
     0
290
     0
174
     0
 93
       13
 44
0.0
173
     0
291
     1
 45
0.0
1001
ACAD
1000
AcDbSavedByObjectVersion
1070
     0
  0
VISUALSTYLE
  5
158
102
{ACAD_XDICTIONARY
360
18E
102
}
102
{ACAD_REACTORS
330
2B
102
}
330
2B
100
AcDbVisualStyle
  2
FlatWithEdges
 70
     1
 71
     2
 72
     1
 73
     1
 90
        2
 40
-0.6
 41
30.0
 62
     5
 63
     7
 74
     1
 91
        0
 64
     7
 65
   257
 75
     1
175
     1
 42
1.0
 92
        0
 66
   257
 43
1.0
 76
     1
 77
     6
 78
     2
 67
     7
 79
     5
170
     0
171
     0
290
     0
174
     0
 93
       13
 44
0.0
173
     0
291
     1
 45
0.0
1001
ACAD
1000
AcDbSavedByObjectVersion
1070
     0
  0
VISUALSTYLE
  5
159
102
{ACAD_XDICTIONARY
360
190
102
}
102
{ACAD_REACTORS
330
2B
102
}
330
2B
100
AcDbVisualStyle
  2
Gouraud
 70
     2
 71
     2
 72
     2
 73
     1
 90
        2
 40
-0.6
 41
30.0
 62
     5
 63
     7
 74
     0
 91
        0
 64
     7
 65
   257
 75
     1
175
     1
 42
1.0
 92
        0
 66
     7
 43
1.0
 76
     1
 77
     6
 78
     2
 67
     7
 79
     5
170
     0
171
     0
290
     0
174
     0
 93
       13
 44
0.0
173
     0
291
     1
 45
0.0
1001
ACAD
1000
AcDbSavedByObjectVersion
1070
     0
  0
VISUALSTYLE
  5
15A
102
{ACAD_XDICTIONARY
360
192
102
}
102
{ACAD_REACTORS
330
2B
102
}
330
2B
100
AcDbVisualStyle
  2
GouraudWithEdges
 70
     3
 71
     2
 72
     2
 73
     1
 90
        2
 40
-0.6
 41
30.0
 62
     5
 63
     7
 74
     1
 91
        0
 64
     7
 65
   257
 75
     1
175
     1
 42
1.0
 92
        0
 66
   257
 43
1.0
 76
     1
 77
     6
 78
     2
 67
     7
 79
     5
170
     0
171
     0
290
     0
174
     0
 93
       13
 44
0.0
173
     0
291
     1
 45
0.0
1001
ACAD
1000
AcDbSavedByObjectVersion
1070
     0
  0
VISUALSTYLE
  5
15C
102
{ACAD_XDICTIONARY
360
196
102
}
102
{ACAD_REACTORS
330
2B
102
}
330
2B
100
AcDbVisualStyle
  2
Hidden
 70
     6
 71
     1
 72
     2
 73
     2
 90
        0
 40
-0.6
 41
-30.0
 62
     5
 63
     7
 74
     2
 91
        2
 64
     7
 65
   257
 75
     2
175
     1
 42
40.0
 92
        0
 66
   257
 43
1.0
 76
     1
 77
     6
 78
     2
 67
     7
 79
     3
170
     0
171
     0
290
     0
174
     0
 93
        1
 44
0.0
173
     0
291
     0
 45
0.0
1001
ACAD
1000
AcDbSavedByObjectVersion
1070
     0
  0
VISUALSTYLE
  5
169
102
{ACAD_XDICTIONARY
360
1B0
102
}
102
{ACAD_REACTORS
330
2B
102
}
330
2B
100
AcDbVisualStyle
  2
JitterOff
 70
    20
 71
     2
 72
     2
 73
     0
 90
        0
 40
-0.6
 41
-30.0
 62
     5
 63
     7
 74
     1
 91
        4
 64
     7
 65
   257
 75
     1
175
     1
 42
1.0
 92
       10
 66
     7
 43
1.0
 76
     1
 77
     6
 78
     2
 67
     7
 79
     5
170
     0
171
     0
290
     0
174
     0
 93
        1
 44
0.0
173
     0
291
     1
 45
0.0
1001
ACAD
1000
AcDbSavedByObjectVersion
1070
     0
  0
VISUALSTYLE
  5
161
102
{ACAD_XDICTIONARY
360
1A0
102
}
102
{ACAD_REACTORS
330
2B
102
}
330
2B
100
AcDbVisualStyle
  2
Linepattern
 70
    14
 71
     2
 72
     2
 73
     0
 90
        0
 40
-0.6
 41
-30.0
 62
     5
 63
     7
 74
     1
 91
        4
 64
     7
 65
   257
 75
     7
175
     7
 42
1.0
 92
        8
 66
     7
 43
1.0
 76
     1
 77
     6
 78
     2
 67
     7
 79
     5
170
     0
171
     0
290
     0
174
     0
 93
        1
 44
0.0
173
     0
291
     1
 45
0.0
1001
ACAD
1000
AcDbSavedByObjectVersion
1070
     0
  0
VISUALSTYLE
  5
16A
102
{ACAD_XDICTIONARY
360
1B2
102
}
102
{ACAD_REACTORS
330
2B
102
}
330
2B
100
AcDbVisualStyle
  2
OverhangOff
 70
    21
 71
     2
 72
     2
 73
     0
 90
        0
 40
-0.6
 41
-30.0
 62
     5
 63
     7
 74
     1
 91
        4
 64
     7
 65
   257
 75
     1
175
     1
 42
1.0
 92
        9
 66
     7
 43
1.0
 76
     1
 77
     6
 78
     2
 67
     7
 79
     5
170
     0
171
     0
290
     0
174
     0
 93
        1
 44
0.0
173
     0
291
     1
 45
0.0
1001
ACAD
1000
AcDbSavedByObjectVersion
1070
     0
  0
VISUALSTYLE
  5
4B
102
{ACAD_XDICTIONARY
360
188
102
}
102
{ACAD_REACTORS
330
2B
102
}
330
2B
100
AcDbVisualStyle
  2
Realistic
 70
     8
 71
     2
 72
     2
 73
     0
 90
        0
 40
-0.6
 41
-30.0
 62
     5
 63
     7
 74
     1
 91
        0
 64
     7
 65
   257
 75
     1
175
     1
 42
1.0
 92
        8
 66
     8
 43
1.0
 76
     1
 77
     6
 78
     2
 67
     7
 79
     5
170
     0
171
     0
290
     0
174
     0
 93
       13
 44
0.0
173
     0
291
     0
 45
0.0
1001
ACAD
1000
AcDbSavedByObjectVersion
1070
     0
  0
VISUALSTYLE
  5
168
102
{ACAD_XDICTIONARY
360
1AE
102
}
102
{ACAD_REACTORS
330
2B
102
}
330
2B
100
AcDbVisualStyle
  2
Shaded
 70
    27
 71
     2
 72
     2
 73
     1
 90
        2
 40
-0.6
 41
30.0
 62
     5
 63
     7
 74
     0
 91
        4
 64
     7
 65
   257
 75
     1
175
     1
 42
1.0
 92
        8
 66
   257
 43
1.0
 76
     1
 77
     6
 78
     2
 67
     8
 79
     3
170
     0
171
     0
290
     0
174
     0
 93
        5
 44
0.0
173
     0
291
     0
 45
0.0
1001
ACAD
1000
AcDbSavedByObjectVersion
1070
     0
  0
VISUALSTYLE
  5
167
102
{ACAD_XDICTIONARY
360
1AC
102
}
102
{ACAD_REACTORS
330
2B
102
}
330
2B
100
AcDbVisualStyle
  2
Shaded with edges
 70
    26
 71
     2
 72
     2
 73
     1
 90
        2
 40
-0.6
 41
30.0
 62
     5
 63
     7
 74
     1
 91
       10
 64
     7
 65
   257
 75
     2
175
     1
 42
1.0
 92
        8
 66
   257
 43
1.0
 76
     1
 77
     6
 78
     2
 67
     7
 79
     3
170
     0
171
     0
290
     0
174
     0
 93
        5
 44
0.0
173
     0
291
     0
 45
0.0
1001
ACAD
1000
AcDbSavedByObjectVersion
1070
     0
  0
VISUALSTYLE
  5
164
102
{ACAD_XDICTIONARY
360
1A6
102
}
102
{ACAD_REACTORS
330
2B
102
}
330
2B
100
AcDbVisualStyle
  2
Shades of Gray
 70
    23
 71
     2
 72
     2
 73
     3
 90
        0
 40
-0.6
 41
-30.0
 62
     5
 63
     7
 74
     2
 91
        2
 64
     7
 65
     7
 75
     1
175
     1
 42
40.0
 92
        8
 66
     7
 43
1.0
 76
     1
 77
     6
 78
     2
 67
     7
 79
     3
170
     0
171
     0
290
     0
174
     0
 93
        1
 44
0.0
173
     0
291
     0
 45
0.0
1001
ACAD
1000
AcDbSavedByObjectVersion
1070
     0
  0
VISUALSTYLE
  5
165
102
{ACAD_XDICTIONARY
360
1A8
102
}
102
{ACAD_REACTORS
330
2B
102
}
330
2B
100
AcDbVisualStyle
  2
Sketchy
 70
    24
 71
     1
 72
     2
 73
     2
 90
        0
 40
-0.6
 41
-30.0
 62
     5
 63
     7
 74
     2
 91
        2
 64
     7
 65
     7
 75
     1
175
     1
 42
40.0
 92
       11
 66
     7
 43
1.0
 76
     1
 77
     6
 78
     2
 67
     7
 79
     6
170
     0
171
     0
290
     0
174
     0
 93
        1
 44
0.0
173
     0
291
     0
 45
0.0
1001
ACAD
1000
AcDbSavedByObjectVersion
1070
     0
  0
VISUALSTYLE
  5
160
102
{ACAD_XDICTIONARY
360
19E
102
}
102
{ACAD_REACTORS
330
2B
102
}
330
2B
100
AcDbVisualStyle
  2
Thicken
 70
    13
 71
     2
 72
     2
 73
     0
 90
        0
 40
-0.6
 41
-30.0
 62
     5
 63
     7
 74
     1
 91
        4
 64
     7
 65
   257
 75
     1
175
     1
 42
1.0
 92
       12
 66
     7
 43
1.0
 76
     1
 77
     6
 78
     2
 67
     7
 79
     5
170
     0
171
     0
290
     0
174
     0
 93
        1
 44
0.0
173
     0
291
     1
 45
0.0
1001
ACAD
1000
AcDbSavedByObjectVersion
1070
     0
  0
VISUALSTYLE
  5
4C
102
{ACAD_XDICTIONARY
360
18A
102
}
102
{ACAD_REACTORS
330
2B
102
}
330
2B
100
AcDbVisualStyle
  2
Wireframe
 70
     5
 71
     0
 72
     2
 73
     0
 90
        0
 40
-0.6
 41
-30.0
 62
     5
 63
     7
 74
     1
 91
        4
 64
     7
 65
   257
 75
     1
175
     1
 42
1.0
 92
        0
 66
   257
 43
1.0
 76
     1
 77
     6
 78
     2
 67
     7
 79
     3
170
     0
171
     0
290
     0
174
     0
 93
        1
 44
0.0
173
     0
291
     0
 45
0.0
1001
ACAD
1000
AcDbSavedByObjectVersion
1070
     0
  0
VISUALSTYLE
  5
166
102
{ACAD_XDICTIONARY
360
1AA
102
}
102
{ACAD_REACTORS
330
2B
102
}
330
2B
100
AcDbVisualStyle
  2
X-Ray
 70
    25
 71
     2
 72
     2
 73
     1
 90
        1
 40
0.5
 41
-30.0
 62
     5
 63
     7
 74
     1
 91
        0
 64
     7
 65
   257
 75
     1
175
     1
 42
1.0
 92
        8
 66
     7
 43
1.0
 76
     1
 77
     6
 78
     2
 67
     7
 79
     3
170
     0
171
     0
290
     0
174
     0
 93
       13
 44
0.0
173
     0
291
     0
 45
0.0
1001
ACAD
1000
AcDbSavedByObjectVersion
1070
     0
  0
DICTIONARYVAR
  5
152
102
{ACAD_REACTORS
330
14E
102
}
330
14E
100
DictionaryVariables
280
     0
  1
1:1
  0
DICTIONARYVAR
  5
150
102
{ACAD_REACTORS
330
14E
102
}
330
14E
100
DictionaryVariables
280
     0
  1
STANDARD
  0
DICTIONARYVAR
  5
14F
102
{ACAD_REACTORS
330
14E
102
}
330
14E
100
DictionaryVariables
280
     0
  1
STANDARD
  0
DICTIONARYVAR
  5
175
102
{ACAD_REACTORS
330
14E
102
}
330
14E
100
DictionaryVariables
280
     0
  1
1
  0
DICTIONARYVAR
  5
174
102
{ACAD_REACTORS
330
14E
102
}
330
14E
100
DictionaryVariables
280
     0
  1
1
  0
DICTIONARYVAR
  5
173
102
{ACAD_REACTORS
330
14E
102
}
330
14E
100
DictionaryVariables
280
     0
  1
0
  0
DICTIONARYVAR
  5
154
102
{ACAD_REACTORS
330
14E
102
}
330
14E
100
DictionaryVariables
280
     0
  1
1
  0
DICTIONARYVAR
  5
155
102
{ACAD_REACTORS
330
14E
102
}
330
14E
100
DictionaryVariables
280
     0
  1
15
  0
DICTIONARYVAR
  5
153
102
{ACAD_REACTORS
330
14E
102
}
330
14E
100
DictionaryVariables
280
     0
  1
0
  0
DICTIONARYVAR
  5
151
102
{ACAD_REACTORS
330
14E
102
}
330
14E
100
DictionaryVariables
280
     0
  1
0
  0
DICTIONARYVAR
  5
172
102
{ACAD_REACTORS
330
14E
102
}
330
14E
100
DictionaryVariables
280
     0
  1
127
  0
DICTIONARYVAR
  5
176
102
{ACAD_REACTORS
330
14E
102
}
330
14E
100
DictionaryVariables
280
     0
  1
2
  0
DICTIONARY
  5
181
330
1A
100
AcDbDictionary
280
     1
281
     1
  3
ACAD_XREC_ROUNDTRIP
360
182
  0
DICTIONARY
  5
17F
330
15
100
AcDbDictionary
280
     1
281
     1
  3
ACAD_XREC_ROUNDTRIP
360
180
  0
DICTIONARY
  5
3D
330
3C
100
AcDbDictionary
280
     1
281
     1
  3
ACAD_XREC_ROUNDTRIP
360
186
  3
BUMPTILE
360
3E
  3
DIFFUSETILE
360
3F
  3
OPACITYTILE
360
40
  3
REFLECTIONTILE
360
41
  3
REFRACTIONTILE
360
42
  3
SPECULARTILE
360
43
  0
DICTIONARY
  5
35
330
34
100
AcDbDictionary
280
     1
281
     1
  3
ACAD_XREC_ROUNDTRIP
360
185
  3
BUMPTILE
360
36
  3
DIFFUSETILE
360
37
  3
OPACITYTILE
360
38
  3
REFLECTIONTILE
360
39
  3
REFRACTIONTILE
360
3A
  3
SPECULARTILE
360
3B
  0
DICTIONARY
  5
C
330
A
100
AcDbDictionary
280
     1
281
     1
  3
ACAD_XREC_ROUNDTRIP
360
17E
  3
BUMPTILE
360
D
  3
DIFFUSETILE
360
E
  3
OPACITYTILE
360
F
  3
REFLECTIONTILE
360
10
  3
REFRACTIONTILE
360
11
  3
SPECULARTILE
360
12
  0
DICTIONARY
  5
4A
330
49
100
AcDbDictionary
280
     1
281
     1
  3
ACAD_ROUNDTRIP_2008_TABLESTYLE_CELLSTYLEMAP
360
177
  3
ACAD_XREC_ROUNDTRIP
360
187
  0
DICTIONARY
  5
183
330
2A
100
AcDbDictionary
280
     1
281
     1
  3
ACAD_XREC_ROUNDTRIP
360
184
  0
DICTIONARY
  5
194
330
15B
100
AcDbDictionary
280
     1
281
     1
  3
ACAD_XREC_ROUNDTRIP
360
195
  0
DICTIONARY
  5
19C
330
15F
100
AcDbDictionary
280
     1
281
     1
  3
ACAD_XREC_ROUNDTRIP
360
19D
  0
DICTIONARY
  5
1A4
330
163
100
AcDbDictionary
280
     1
281
     1
  3
ACAD_XREC_ROUNDTRIP
360
1A5
  0
DICTIONARY
  5
198
330
15D
100
AcDbDictionary
280
     1
281
     1
  3
ACAD_XREC_ROUNDTRIP
360
199
  0
DICTIONARY
  5
19A
330
15E
100
AcDbDictionary
280
     1
281
     1
  3
ACAD_XREC_ROUNDTRIP
360
19B
  0
DICTIONARY
  5
1B4
330
16B
100
AcDbDictionary
280
     1
281
     1
  3
ACAD_XREC_ROUNDTRIP
360
1B5
  0
DICTIONARY
  5
1A2
330
162
100
AcDbDictionary
280
     1
281
     1
  3
ACAD_XREC_ROUNDTRIP
360
1A3
  0
DICTIONARY
  5
18C
330
157
100
AcDbDictionary
280
     1
281
     1
  3
ACAD_XREC_ROUNDTRIP
360
18D
  0
DICTIONARY
  5
18E
330
158
100
AcDbDictionary
280
     1
281
     1
  3
ACAD_XREC_ROUNDTRIP
360
18F
  0
DICTIONARY
  5
190
330
159
100
AcDbDictionary
280
     1
281
     1
  3
ACAD_XREC_ROUNDTRIP
360
191
  0
DICTIONARY
  5
192
330
15A
100
AcDbDictionary
280
     1
281
     1
  3
ACAD_XREC_ROUNDTRIP
360
193
  0
DICTIONARY
  5
196
330
15C
100
AcDbDictionary
280
     1
281
     1
  3
ACAD_XREC_ROUNDTRIP
360
197
  0
DICTIONARY
  5
1B0
330
169
100
AcDbDictionary
280
     1
281
     1
  3
ACAD_XREC_ROUNDTRIP
360
1B1
  0
DICTIONARY
  5
1A0
330
161
100
AcDbDictionary
280
     1
281
     1
  3
ACAD_XREC_ROUNDTRIP
360
1A1
  0
DICTIONARY
  5
1B2
330
16A
100
AcDbDictionary
280
     1
281
     1
  3
ACAD_XREC_ROUNDTRIP
360
1B3
  0
DICTIONARY
  5
188
330
4B
100
AcDbDictionary
280
     1
281
     1
  3
ACAD_XREC_ROUNDTRIP
360
189
  0
DICTIONARY
  5
1AE
330
168
100
AcDbDictionary
280
     1
281
     1
  3
ACAD_XREC_ROUNDTRIP
360
1AF
  0
DICTIONARY
  5
1AC
330
167
100
AcDbDictionary
280
     1
281
     1
  3
ACAD_XREC_ROUNDTRIP
360
1AD
  0
DICTIONARY
  5
1A6
330
164
100
AcDbDictionary
280
     1
281
     1
  3
ACAD_XREC_ROUNDTRIP
360
1A7
  0
DICTIONARY
  5
1A8
330
165
100
AcDbDictionary
280
     1
281
     1
  3
ACAD_XREC_ROUNDTRIP
360
1A9
  0
DICTIONARY
  5
19E
330
160
100
AcDbDictionary
280
     1
281
     1
  3
ACAD_XREC_ROUNDTRIP
360
19F
  0
DICTIONARY
  5
18A
330
4C
100
AcDbDictionary
280
     1
281
     1
  3
ACAD_XREC_ROUNDTRIP
360
18B
  0
DICTIONARY
  5
1AA
330
166
100
AcDbDictionary
280
     1
281
     1
  3
ACAD_XREC_ROUNDTRIP
360
1AB
  0
XRECORD
  5
182
102
{ACAD_REACTORS
330
181
102
}
330
181
100
AcDbXrecord
280
     1
102
SHADEPLOT
 70
     0
102
SHADEPLOTRESLEVEL
 70
     2
102
SHADEPLOTCUSTOMDPI
 70
   300
  0
XRECORD
  5
180
102
{ACAD_REACTORS
330
17F
102
}
330
17F
100
AcDbXrecord
280
     1
102
SHADEPLOT
 70
     0
102
SHADEPLOTRESLEVEL
 70
     2
102
SHADEPLOTCUSTOMDPI
 70
   300
  0
XRECORD
  5
186
102
{ACAD_REACTORS
330
3D
102
}
330
3D
100
AcDbXrecord
280
     1
102
MATERIAL
148
0.0
149
0.0
149
0.0
 93
        0
 94
      127
282
     0
 72
     0
 77
     0
171
     0
175
     0
179
     0
273
     0
  0
XRECORD
  5
3E
102
{ACAD_REACTORS
330
3D
102
}
330
3D
100
AcDbXrecord
280
     1
270
     1
271
     1
  0
XRECORD
  5
3F
102
{ACAD_REACTORS
330
3D
102
}
330
3D
100
AcDbXrecord
280
     1
270
     1
271
     1
  0
XRECORD
  5
40
102
{ACAD_REACTORS
330
3D
102
}
330
3D
100
AcDbXrecord
280
     1
270
     1
271
     1
  0
XRECORD
  5
41
102
{ACAD_REACTORS
330
3D
102
}
330
3D
100
AcDbXrecord
280
     1
270
     1
271
     1
  0
XRECORD
  5
42
102
{ACAD_REACTORS
330
3D
102
}
330
3D
100
AcDbXrecord
280
     1
270
     1
271
     1
  0
XRECORD
  5
43
102
{ACAD_REACTORS
330
3D
102
}
330
3D
100
AcDbXrecord
280
     1
270
     1
271
     1
  0
XRECORD
  5
185
102
{ACAD_REACTORS
330
35
102
}
330
35
100
AcDbXrecord
280
     1
102
MATERIAL
148
0.0
149
0.0
149
0.0
 93
        0
 94
      127
282
     0
 72
     0
 77
     0
171
     0
175
     0
179
     0
273
     0
  0
XRECORD
  5
36
102
{ACAD_REACTORS
330
35
102
}
330
35
100
AcDbXrecord
280
     1
270
     1
271
     1
  0
XRECORD
  5
37
102
{ACAD_REACTORS
330
35
102
}
330
35
100
AcDbXrecord
280
     1
270
     1
271
     1
  0
XRECORD
  5
38
102
{ACAD_REACTORS
330
35
102
}
330
35
100
AcDbXrecord
280
     1
270
     1
271
     1
  0
XRECORD
  5
39
102
{ACAD_REACTORS
330
35
102
}
330
35
100
AcDbXrecord
280
     1
270
     1
271
     1
  0
XRECORD
  5
3A
102
{ACAD_REACTORS
330
35
102
}
330
35
100
AcDbXrecord
280
     1
270
     1
271
     1
  0
XRECORD
  5
3B
102
{ACAD_REACTORS
330
35
102
}
330
35
100
AcDbXrecord
280
     1
270
     1
271
     1
  0
XRECORD
  5
17E
102
{ACAD_REACTORS
330
C
102
}
330
C
100
AcDbXrecord
280
     1
102
MATERIAL
148
0.0
149
0.0
149
0.0
 93
        0
 94
      127
282
     0
 72
     0
 77
     0
171
     0
175
     0
179
     0
273
     0
  0
XRECORD
  5
D
102
{ACAD_REACTORS
330
C
102
}
330
C
100
AcDbXrecord
280
     1
270
     1
271
     1
  0
XRECORD
  5
E
102
{ACAD_REACTORS
330
C
102
}
330
C
100
AcDbXrecord
280
     1
270
     1
271
     1
  0
XRECORD
  5
F
102
{ACAD_REACTORS
330
C
102
}
330
C
100
AcDbXrecord
280
     1
270
     1
271
     1
  0
XRECORD
  5
10
102
{ACAD_REACTORS
330
C
102
}
330
C
100
AcDbXrecord
280
     1
270
     1
271
     1
  0
XRECORD
  5
11
102
{ACAD_REACTORS
330
C
102
}
330
C
100
AcDbXrecord
280
     1
270
     1
271
     1
  0
XRECORD
  5
12
102
{ACAD_REACTORS
330
C
102
}
330
C
100
AcDbXrecord
280
     1
270
     1
271
     1
  0
CELLSTYLEMAP
  5
177
102
{ACAD_REACTORS
330
4A
102
}
330
4A
100
AcDbCellStyleMap
 90
        3
300
CELLSTYLE
  1
TABLEFORMAT_BEGIN
 90
        5
170
     1
 91
        0
 92
    32768
 62
   257
 93
        1
300
CONTENTFORMAT
  1
CONTENTFORMAT_BEGIN
 90
        0
 91
        0
 92
      512
 93
        0
300

 40
0.0
140
1.0
 94
        5
 62
     0
340
21
144
0.25
309
CONTENTFORMAT_END
171
     0
 94
        0
309
TABLEFORMAT_END
  1
CELLSTYLE_BEGIN
 90
        1
 91
        1
300
_TITLE
309
CELLSTYLE_END
300
CELLSTYLE
  1
TABLEFORMAT_BEGIN
 90
        5
170
     1
 91
        0
 92
        0
 62
   257
 93
        1
300
CONTENTFORMAT
  1
CONTENTFORMAT_BEGIN
 90
        0
 91
        0
 92
      512
 93
        0
300

 40
0.0
140
1.0
 94
        5
 62
     0
340
21
144
0.18
309
CONTENTFORMAT_END
171
     0
 94
        0
309
TABLEFORMAT_END
  1
CELLSTYLE_BEGIN
 90
        2
 91
        1
300
_HEADER
309
CELLSTYLE_END
300
CELLSTYLE
  1
TABLEFORMAT_BEGIN
 90
        5
170
     1
 91
        0
 92
        0
 62
   257
 93
        1
300
CONTENTFORMAT
  1
CONTENTFORMAT_BEGIN
 90
        0
 91
        0
 92
      512
 93
        0
300

 40
0.0
140
1.0
 94
        2
 62
     0
340
21
144
0.18
309
CONTENTFORMAT_END
171
     0
 94
        0
309
TABLEFORMAT_END
  1
CELLSTYLE_BEGIN
 90
        3
 91
        2
300
_DATA
309
CELLSTYLE_END
  0
XRECORD
  5
187
102
{ACAD_REACTORS
330
4A
102
}
330
4A
100
AcDbXrecord
280
     1
102
ACAD_ROUNDTRIP_PRE2007_TABLESTYLE
 90
      512
 91
        0
  1

 92
      512
 93
        0
  2

 94
      512
 95
        0
  3

  0
XRECORD
  5
184
102
{ACAD_REACTORS
330
183
102
}
330
183
100
AcDbXrecord
280
     1
102
RTVSPropertyOp0
 70
     1
102
RTVSPropertyOp1
 70
     1
102
RTVSPropertyOp2
 70
     1
102
RTVSPropertyOp3
 70
     1
102
RTVSPropertyOp4
 70
     1
102
RTVSPropertyOp5
 70
     1
102
RTVSPropertyOp6
 70
     1
102
RTVSPropertyOp7
 70
     1
102
RTVSPropertyOp8
 70
     1
102
RTVSPropertyOp9
 70
     1
102
RTVSPropertyOp10
 70
     1
102
RTVSPropertyOp11
 70
     1
102
RTVSPropertyOp12
 70
     1
102
RTVSPropertyOp13
 70
     1
102
RTVSPropertyOp14
 70
     1
102
RTVSPropertyOp15
 70
     1
102
RTVSPropertyOp16
 70
     1
102
RTVSPropertyOp17
 70
     1
102
RTVSPropertyOp18
 70
     1
102
RTVSPropertyOp19
 70
     1
102
RTVSPropertyOp20
 70
     1
102
RTVSPropertyOp21
 70
     1
102
RTVSPropertyOp22
 70
     1
102
RTVSPropertyOp23
 70
     1
102
RTVSPropertyOp24
 70
     1
102
RTVSPropertyOp25
 70
     1
102
RTVSPropertyOp26
 70
     1
102
RTVSPropertyOp27
 70
     1
102
RTVSPropertyOp28
 70
     1
102
RTVSPropertyOp29
 70
     1
102
RTVSPropertyOp30
 70
     1
102
RTVSPropertyOp31
 70
     1
102
RTVSPropertyOp32
 70
     1
  0
XRECORD
  5
195
102
{ACAD_REACTORS
330
194
102
}
330
194
100
AcDbXrecord
280
     1
102
RTVSPropertyOp0
 70
     1
102
RTVSPropertyOp1
 70
     1
102
RTVSPropertyOp2
 70
     1
102
RTVSPropertyOp3
 70
     1
102
RTVSPropertyOp4
 70
     1
102
RTVSPropertyOp5
 70
     1
102
RTVSPropertyOp6
 70
     1
102
RTVSPropertyOp7
 70
     1
102
RTVSPropertyOp8
 70
     1
102
RTVSPropertyOp9
 70
     1
102
RTVSPropertyOp10
 70
     1
102
RTVSPropertyOp11
 70
     1
102
RTVSPropertyOp12
 70
     1
102
RTVSPropertyOp13
 70
     1
102
RTVSPropertyOp14
 70
     1
102
RTVSPropertyOp15
 70
     1
102
RTVSPropertyOp16
 70
     1
102
RTVSPropertyOp17
 70
     1
102
RTVSPropertyOp18
 70
     1
102
RTVSPropertyOp19
 70
     1
102
RTVSPropertyOp20
 70
     1
102
RTVSPropertyOp21
 70
     1
102
RTVSPropertyOp22
 70
     1
102
RTVSPropertyOp23
 70
     1
102
RTVSPropertyOp24
 70
     1
102
RTVSPropertyOp25
 70
     1
102
RTVSPropertyOp26
 70
     1
102
RTVSPropertyOp27
 70
     1
102
RTVSPropertyOp28
 70
     1
102
RTVSPropertyOp29
 70
     1
102
RTVSPropertyOp30
 70
     1
102
RTVSPropertyOp31
 70
     1
102
RTVSPropertyOp32
 70
     1
  0
XRECORD
  5
19D
102
{ACAD_REACTORS
330
19C
102
}
330
19C
100
AcDbXrecord
280
     1
102
RTVSPropertyOp0
 70
     1
102
RTVSPropertyOp1
 70
     1
102
RTVSPropertyOp2
 70
     1
102
RTVSPropertyOp3
 70
     1
102
RTVSPropertyOp4
 70
     1
102
RTVSPropertyOp5
 70
     1
102
RTVSPropertyOp6
 70
     1
102
RTVSPropertyOp7
 70
     1
102
RTVSPropertyOp8
 70
     1
102
RTVSPropertyOp9
 70
     1
102
RTVSPropertyOp10
 70
     1
102
RTVSPropertyOp11
 70
     1
102
RTVSPropertyOp12
 70
     1
102
RTVSPropertyOp13
 70
     1
102
RTVSPropertyOp14
 70
     1
102
RTVSPropertyOp15
 70
     1
102
RTVSPropertyOp16
 70
     1
102
RTVSPropertyOp17
 70
     1
102
RTVSPropertyOp18
 70
     1
102
RTVSPropertyOp19
 70
     1
102
RTVSPropertyOp20
 70
     1
102
RTVSPropertyOp21
 70
     1
102
RTVSPropertyOp22
 70
     1
102
RTVSPropertyOp23
 70
     1
102
RTVSPropertyOp24
 70
     1
102
RTVSPropertyOp25
 70
     1
102
RTVSPropertyOp26
 70
     1
102
RTVSPropertyOp27
 70
     1
102
RTVSPropertyOp28
 70
     1
102
RTVSPropertyOp29
 70
     1
102
RTVSPropertyOp30
 70
     1
102
RTVSPropertyOp31
 70
     1
102
RTVSPropertyOp32
 70
     1
  0
XRECORD
  5
1A5
102
{ACAD_REACTORS
330
1A4
102
}
330
1A4
100
AcDbXrecord
280
     1
102
RTVSPropertyOp0
 70
     1
102
RTVSPropertyOp1
 70
     1
102
RTVSPropertyOp2
 70
     1
102
RTVSPropertyOp3
 70
     1
102
RTVSPropertyOp4
 70
     1
102
RTVSPropertyOp5
 70
     1
102
RTVSPropertyOp6
 70
     1
102
RTVSPropertyOp7
 70
     1
102
RTVSPropertyOp8
 70
     1
102
RTVSPropertyOp9
 70
     1
102
RTVSPropertyOp10
 70
     1
102
RTVSPropertyOp11
 70
     1
102
RTVSPropertyOp12
 70
     1
102
RTVSPropertyOp13
 70
     1
102
RTVSPropertyOp14
 70
     1
102
RTVSPropertyOp15
 70
     1
102
RTVSPropertyOp16
 70
     1
102
RTVSPropertyOp17
 70
     1
102
RTVSPropertyOp18
 70
     1
102
RTVSPropertyOp19
 70
     1
102
RTVSPropertyOp20
 70
     1
102
RTVSPropertyOp21
 70
     1
102
RTVSPropertyOp22
 70
     1
102
RTVSPropertyOp23
 70
     1
102
RTVSPropertyOp24
 70
     1
102
RTVSPropertyOp25
 70
     1
102
RTVSPropertyOp26
 70
     1
102
RTVSPropertyOp27
 70
     1
102
RTVSPropertyOp28
 70
     1
102
RTVSPropertyOp29
 70
     1
102
RTVSPropertyOp30
 70
     1
102
RTVSPropertyOp31
 70
     1
102
RTVSPropertyOp32
 70
     1
  0
XRECORD
  5
199
102
{ACAD_REACTORS
330
198
102
}
330
198
100
AcDbXrecord
280
     1
102
RTVSPropertyOp0
 70
     1
102
RTVSPropertyOp1
 70
     1
102
RTVSPropertyOp2
 70
     1
102
RTVSPropertyOp3
 70
     1
102
RTVSPropertyOp4
 70
     1
102
RTVSPropertyOp5
 70
     1
102
RTVSPropertyOp6
 70
     1
102
RTVSPropertyOp7
 70
     1
102
RTVSPropertyOp8
 70
     1
102
RTVSPropertyOp9
 70
     1
102
RTVSPropertyOp10
 70
     1
102
RTVSPropertyOp11
 70
     1
102
RTVSPropertyOp12
 70
     1
102
RTVSPropertyOp13
 70
     1
102
RTVSPropertyOp14
 70
     1
102
RTVSPropertyOp15
 70
     1
102
RTVSPropertyOp16
 70
     1
102
RTVSPropertyOp17
 70
     1
102
RTVSPropertyOp18
 70
     1
102
RTVSPropertyOp19
 70
     1
102
RTVSPropertyOp20
 70
     1
102
RTVSPropertyOp21
 70
     1
102
RTVSPropertyOp22
 70
     1
102
RTVSPropertyOp23
 70
     1
102
RTVSPropertyOp24
 70
     1
102
RTVSPropertyOp25
 70
     1
102
RTVSPropertyOp26
 70
     1
102
RTVSPropertyOp27
 70
     1
102
RTVSPropertyOp28
 70
     1
102
RTVSPropertyOp29
 70
     1
102
RTVSPropertyOp30
 70
     1
102
RTVSPropertyOp31
 70
     1
102
RTVSPropertyOp32
 70
     1
  0
XRECORD
  5
19B
102
{ACAD_REACTORS
330
19A
102
}
330
19A
100
AcDbXrecord
280
     1
102
RTVSPropertyOp0
 70
     1
102
RTVSPropertyOp1
 70
     1
102
RTVSPropertyOp2
 70
     1
102
RTVSPropertyOp3
 70
     1
102
RTVSPropertyOp4
 70
     1
102
RTVSPropertyOp5
 70
     1
102
RTVSPropertyOp6
 70
     1
102
RTVSPropertyOp7
 70
     1
102
RTVSPropertyOp8
 70
     1
102
RTVSPropertyOp9
 70
     1
102
RTVSPropertyOp10
 70
     1
102
RTVSPropertyOp11
 70
     1
102
RTVSPropertyOp12
 70
     1
102
RTVSPropertyOp13
 70
     1
102
RTVSPropertyOp14
 70
     1
102
RTVSPropertyOp15
 70
     1
102
RTVSPropertyOp16
 70
     1
102
RTVSPropertyOp17
 70
     1
102
RTVSPropertyOp18
 70
     1
102
RTVSPropertyOp19
 70
     1
102
RTVSPropertyOp20
 70
     1
102
RTVSPropertyOp21
 70
     1
102
RTVSPropertyOp22
 70
     1
102
RTVSPropertyOp23
 70
     1
102
RTVSPropertyOp24
 70
     1
102
RTVSPropertyOp25
 70
     1
102
RTVSPropertyOp26
 70
     1
102
RTVSPropertyOp27
 70
     1
102
RTVSPropertyOp28
 70
     1
102
RTVSPropertyOp29
 70
     1
102
RTVSPropertyOp30
 70
     1
102
RTVSPropertyOp31
 70
     1
102
RTVSPropertyOp32
 70
     1
  0
XRECORD
  5
1B5
102
{ACAD_REACTORS
330
1B4
102
}
330
1B4
100
AcDbXrecord
280
     1
102
RTVSPropertyOp0
 70
     0
102
RTVSPropertyOp1
 70
     0
102
RTVSPropertyOp2
 70
     0
102
RTVSPropertyOp3
 70
     0
102
RTVSPropertyOp4
 70
     0
102
RTVSPropertyOp5
 70
     0
102
RTVSPropertyOp6
 70
     0
102
RTVSPropertyOp7
 70
     0
102
RTVSPropertyOp8
 70
     0
102
RTVSPropertyOp9
 70
     0
102
RTVSPropertyOp10
 70
     0
102
RTVSPropertyOp11
 70
     0
102
RTVSPropertyOp12
 70
     0
102
RTVSPropertyOp13
 70
     0
102
RTVSPropertyOp14
 70
     2
102
RTVSPropertyOp15
 70
     0
102
RTVSPropertyOp16
 70
     0
102
RTVSPropertyOp17
 70
     0
102
RTVSPropertyOp18
 70
     0
102
RTVSPropertyOp19
 70
     0
102
RTVSPropertyOp20
 70
     0
102
RTVSPropertyOp21
 70
     0
102
RTVSPropertyOp22
 70
     0
102
RTVSPropertyOp23
 70
     0
102
RTVSPropertyOp24
 70
     0
102
RTVSPropertyOp25
 70
     0
102
RTVSPropertyOp26
 70
     0
102
RTVSPropertyOp27
 70
     0
102
RTVSPropertyOp28
 70
     0
102
RTVSPropertyOp29
 70
     0
102
RTVSPropertyOp30
 70
     0
102
RTVSPropertyOp31
 70
     0
102
RTVSPropertyOp32
 70
     0
  0
XRECORD
  5
1A3
102
{ACAD_REACTORS
330
1A2
102
}
330
1A2
100
AcDbXrecord
280
     1
102
RTVSPropertyOp0
 70
     1
102
RTVSPropertyOp1
 70
     1
102
RTVSPropertyOp2
 70
     1
102
RTVSPropertyOp3
 70
     1
102
RTVSPropertyOp4
 70
     1
102
RTVSPropertyOp5
 70
     1
102
RTVSPropertyOp6
 70
     1
102
RTVSPropertyOp7
 70
     1
102
RTVSPropertyOp8
 70
     1
102
RTVSPropertyOp9
 70
     1
102
RTVSPropertyOp10
 70
     1
102
RTVSPropertyOp11
 70
     1
102
RTVSPropertyOp12
 70
     1
102
RTVSPropertyOp13
 70
     1
102
RTVSPropertyOp14
 70
     1
102
RTVSPropertyOp15
 70
     1
102
RTVSPropertyOp16
 70
     1
102
RTVSPropertyOp17
 70
     1
102
RTVSPropertyOp18
 70
     1
102
RTVSPropertyOp19
 70
     1
102
RTVSPropertyOp20
 70
     1
102
RTVSPropertyOp21
 70
     1
102
RTVSPropertyOp22
 70
     1
102
RTVSPropertyOp23
 70
     1
102
RTVSPropertyOp24
 70
     1
102
RTVSPropertyOp25
 70
     1
102
RTVSPropertyOp26
 70
     1
102
RTVSPropertyOp27
 70
     1
102
RTVSPropertyOp28
 70
     1
102
RTVSPropertyOp29
 70
     1
102
RTVSPropertyOp30
 70
     1
102
RTVSPropertyOp31
 70
     1
102
RTVSPropertyOp32
 70
     1
  0
XRECORD
  5
18D
102
{ACAD_REACTORS
330
18C
102
}
330
18C
100
AcDbXrecord
280
     1
102
RTVSPropertyOp0
 70
     1
102
RTVSPropertyOp1
 70
     1
102
RTVSPropertyOp2
 70
     1
102
RTVSPropertyOp3
 70
     1
102
RTVSPropertyOp4
 70
     1
102
RTVSPropertyOp5
 70
     1
102
RTVSPropertyOp6
 70
     1
102
RTVSPropertyOp7
 70
     1
102
RTVSPropertyOp8
 70
     1
102
RTVSPropertyOp9
 70
     1
102
RTVSPropertyOp10
 70
     1
102
RTVSPropertyOp11
 70
     1
102
RTVSPropertyOp12
 70
     1
102
RTVSPropertyOp13
 70
     1
102
RTVSPropertyOp14
 70
     1
102
RTVSPropertyOp15
 70
     1
102
RTVSPropertyOp16
 70
     1
102
RTVSPropertyOp17
 70
     1
102
RTVSPropertyOp18
 70
     1
102
RTVSPropertyOp19
 70
     1
102
RTVSPropertyOp20
 70
     1
102
RTVSPropertyOp21
 70
     1
102
RTVSPropertyOp22
 70
     1
102
RTVSPropertyOp23
 70
     1
102
RTVSPropertyOp24
 70
     1
102
RTVSPropertyOp25
 70
     1
102
RTVSPropertyOp26
 70
     1
102
RTVSPropertyOp27
 70
     1
102
RTVSPropertyOp28
 70
     1
102
RTVSPropertyOp29
 70
     1
102
RTVSPropertyOp30
 70
     1
102
RTVSPropertyOp31
 70
     1
102
RTVSPropertyOp32
 70
     1
  0
XRECORD
  5
18F
102
{ACAD_REACTORS
330
18E
102
}
330
18E
100
AcDbXrecord
280
     1
102
RTVSPropertyOp0
 70
     1
102
RTVSPropertyOp1
 70
     1
102
RTVSPropertyOp2
 70
     1
102
RTVSPropertyOp3
 70
     1
102
RTVSPropertyOp4
 70
     1
102
RTVSPropertyOp5
 70
     1
102
RTVSPropertyOp6
 70
     1
102
RTVSPropertyOp7
 70
     1
102
RTVSPropertyOp8
 70
     1
102
RTVSPropertyOp9
 70
     1
102
RTVSPropertyOp10
 70
     1
102
RTVSPropertyOp11
 70
     1
102
RTVSPropertyOp12
 70
     1
102
RTVSPropertyOp13
 70
     1
102
RTVSPropertyOp14
 70
     1
102
RTVSPropertyOp15
 70
     1
102
RTVSPropertyOp16
 70
     1
102
RTVSPropertyOp17
 70
     1
102
RTVSPropertyOp18
 70
     1
102
RTVSPropertyOp19
 70
     1
102
RTVSPropertyOp20
 70
     1
102
RTVSPropertyOp21
 70
     1
102
RTVSPropertyOp22
 70
     1
102
RTVSPropertyOp23
 70
     1
102
RTVSPropertyOp24
 70
     1
102
RTVSPropertyOp25
 70
     1
102
RTVSPropertyOp26
 70
     1
102
RTVSPropertyOp27
 70
     1
102
RTVSPropertyOp28
 70
     1
102
RTVSPropertyOp29
 70
     1
102
RTVSPropertyOp30
 70
     1
102
RTVSPropertyOp31
 70
     1
102
RTVSPropertyOp32
 70
     1
  0
XRECORD
  5
191
102
{ACAD_REACTORS
330
190
102
}
330
190
100
AcDbXrecord
280
     1
102
RTVSPropertyOp0
 70
     1
102
RTVSPropertyOp1
 70
     1
102
RTVSPropertyOp2
 70
     1
102
RTVSPropertyOp3
 70
     1
102
RTVSPropertyOp4
 70
     1
102
RTVSPropertyOp5
 70
     1
102
RTVSPropertyOp6
 70
     1
102
RTVSPropertyOp7
 70
     1
102
RTVSPropertyOp8
 70
     1
102
RTVSPropertyOp9
 70
     1
102
RTVSPropertyOp10
 70
     1
102
RTVSPropertyOp11
 70
     1
102
RTVSPropertyOp12
 70
     1
102
RTVSPropertyOp13
 70
     1
102
RTVSPropertyOp14
 70
     1
102
RTVSPropertyOp15
 70
     1
102
RTVSPropertyOp16
 70
     1
102
RTVSPropertyOp17
 70
     1
102
RTVSPropertyOp18
 70
     1
102
RTVSPropertyOp19
 70
     1
102
RTVSPropertyOp20
 70
     1
102
RTVSPropertyOp21
 70
     1
102
RTVSPropertyOp22
 70
     1
102
RTVSPropertyOp23
 70
     1
102
RTVSPropertyOp24
 70
     1
102
RTVSPropertyOp25
 70
     1
102
RTVSPropertyOp26
 70
     1
102
RTVSPropertyOp27
 70
     1
102
RTVSPropertyOp28
 70
     1
102
RTVSPropertyOp29
 70
     1
102
RTVSPropertyOp30
 70
     1
102
RTVSPropertyOp31
 70
     1
102
RTVSPropertyOp32
 70
     1
  0
XRECORD
  5
193
102
{ACAD_REACTORS
330
192
102
}
330
192
100
AcDbXrecord
280
     1
102
RTVSPropertyOp0
 70
     1
102
RTVSPropertyOp1
 70
     1
102
RTVSPropertyOp2
 70
     1
102
RTVSPropertyOp3
 70
     1
102
RTVSPropertyOp4
 70
     1
102
RTVSPropertyOp5
 70
     1
102
RTVSPropertyOp6
 70
     1
102
RTVSPropertyOp7
 70
     1
102
RTVSPropertyOp8
 70
     1
102
RTVSPropertyOp9
 70
     1
102
RTVSPropertyOp10
 70
     1
102
RTVSPropertyOp11
 70
     1
102
RTVSPropertyOp12
 70
     1
102
RTVSPropertyOp13
 70
     1
102
RTVSPropertyOp14
 70
     1
102
RTVSPropertyOp15
 70
     1
102
RTVSPropertyOp16
 70
     1
102
RTVSPropertyOp17
 70
     1
102
RTVSPropertyOp18
 70
     1
102
RTVSPropertyOp19
 70
     1
102
RTVSPropertyOp20
 70
     1
102
RTVSPropertyOp21
 70
     1
102
RTVSPropertyOp22
 70
     1
102
RTVSPropertyOp23
 70
     1
102
RTVSPropertyOp24
 70
     1
102
RTVSPropertyOp25
 70
     1
102
RTVSPropertyOp26
 70
     1
102
RTVSPropertyOp27
 70
     1
102
RTVSPropertyOp28
 70
     1
102
RTVSPropertyOp29
 70
     1
102
RTVSPropertyOp30
 70
     1
102
RTVSPropertyOp31
 70
     1
102
RTVSPropertyOp32
 70
     1
  0
XRECORD
  5
197
102
{ACAD_REACTORS
330
196
102
}
330
196
100
AcDbXrecord
280
     1
102
RTVSPropertyOp0
 70
     1
102
RTVSPropertyOp1
 70
     1
102
RTVSPropertyOp2
 70
     1
102
RTVSPropertyOp3
 70
     1
102
RTVSPropertyOp4
 70
     1
102
RTVSPropertyOp5
 70
     1
102
RTVSPropertyOp6
 70
     1
102
RTVSPropertyOp7
 70
     1
102
RTVSPropertyOp8
 70
     1
102
RTVSPropertyOp9
 70
     1
102
RTVSPropertyOp10
 70
     1
102
RTVSPropertyOp11
 70
     1
102
RTVSPropertyOp12
 70
     1
102
RTVSPropertyOp13
 70
     1
102
RTVSPropertyOp14
 70
     1
102
RTVSPropertyOp15
 70
     1
102
RTVSPropertyOp16
 70
     1
102
RTVSPropertyOp17
 70
     1
102
RTVSPropertyOp18
 70
     1
102
RTVSPropertyOp19
 70
     1
102
RTVSPropertyOp20
 70
     1
102
RTVSPropertyOp21
 70
     1
102
RTVSPropertyOp22
 70
     1
102
RTVSPropertyOp23
 70
     1
102
RTVSPropertyOp24
 70
     1
102
RTVSPropertyOp25
 70
     1
102
RTVSPropertyOp26
 70
     1
102
RTVSPropertyOp27
 70
     1
102
RTVSPropertyOp28
 70
     1
102
RTVSPropertyOp29
 70
     1
102
RTVSPropertyOp30
 70
     1
102
RTVSPropertyOp31
 70
     1
102
RTVSPropertyOp32
 70
     1
  0
XRECORD
  5
1B1
102
{ACAD_REACTORS
330
1B0
102
}
330
1B0
100
AcDbXrecord
280
     1
102
RTVSPropertyOp0
 70
     0
102
RTVSPropertyOp1
 70
     0
102
RTVSPropertyOp2
 70
     0
102
RTVSPropertyOp3
 70
     0
102
RTVSPropertyOp4
 70
     0
102
RTVSPropertyOp5
 70
     0
102
RTVSPropertyOp6
 70
     0
102
RTVSPropertyOp7
 70
     0
102
RTVSPropertyOp8
 70
     0
102
RTVSPropertyOp9
 70
     0
102
RTVSPropertyOp10
 70
     0
102
RTVSPropertyOp11
 70
     0
102
RTVSPropertyOp12
 70
     0
102
RTVSPropertyOp13
 70
     0
102
RTVSPropertyOp14
 70
     2
102
RTVSPropertyOp15
 70
     0
102
RTVSPropertyOp16
 70
     0
102
RTVSPropertyOp17
 70
     0
102
RTVSPropertyOp18
 70
     0
102
RTVSPropertyOp19
 70
     0
102
RTVSPropertyOp20
 70
     0
102
RTVSPropertyOp21
 70
     0
102
RTVSPropertyOp22
 70
     0
102
RTVSPropertyOp23
 70
     0
102
RTVSPropertyOp24
 70
     0
102
RTVSPropertyOp25
 70
     0
102
RTVSPropertyOp26
 70
     0
102
RTVSPropertyOp27
 70
     0
102
RTVSPropertyOp28
 70
     0
102
RTVSPropertyOp29
 70
     0
102
RTVSPropertyOp30
 70
     0
102
RTVSPropertyOp31
 70
     0
102
RTVSPropertyOp32
 70
     0
  0
XRECORD
  5
1A1
102
{ACAD_REACTORS
330
1A0
102
}
330
1A0
100
AcDbXrecord
280
     1
102
RTVSPropertyOp0
 70
     1
102
RTVSPropertyOp1
 70
     1
102
RTVSPropertyOp2
 70
     1
102
RTVSPropertyOp3
 70
     1
102
RTVSPropertyOp4
 70
     1
102
RTVSPropertyOp5
 70
     1
102
RTVSPropertyOp6
 70
     1
102
RTVSPropertyOp7
 70
     1
102
RTVSPropertyOp8
 70
     1
102
RTVSPropertyOp9
 70
     1
102
RTVSPropertyOp10
 70
     1
102
RTVSPropertyOp11
 70
     1
102
RTVSPropertyOp12
 70
     1
102
RTVSPropertyOp13
 70
     1
102
RTVSPropertyOp14
 70
     1
102
RTVSPropertyOp15
 70
     1
102
RTVSPropertyOp16
 70
     1
102
RTVSPropertyOp17
 70
     1
102
RTVSPropertyOp18
 70
     1
102
RTVSPropertyOp19
 70
     1
102
RTVSPropertyOp20
 70
     1
102
RTVSPropertyOp21
 70
     1
102
RTVSPropertyOp22
 70
     1
102
RTVSPropertyOp23
 70
     1
102
RTVSPropertyOp24
 70
     1
102
RTVSPropertyOp25
 70
     1
102
RTVSPropertyOp26
 70
     1
102
RTVSPropertyOp27
 70
     1
102
RTVSPropertyOp28
 70
     1
102
RTVSPropertyOp29
 70
     1
102
RTVSPropertyOp30
 70
     1
102
RTVSPropertyOp31
 70
     1
102
RTVSPropertyOp32
 70
     1
  0
XRECORD
  5
1B3
102
{ACAD_REACTORS
330
1B2
102
}
330
1B2
100
AcDbXrecord
280
     1
102
RTVSPropertyOp0
 70
     0
102
RTVSPropertyOp1
 70
     0
102
RTVSPropertyOp2
 70
     0
102
RTVSPropertyOp3
 70
     0
102
RTVSPropertyOp4
 70
     0
102
RTVSPropertyOp5
 70
     0
102
RTVSPropertyOp6
 70
     0
102
RTVSPropertyOp7
 70
     0
102
RTVSPropertyOp8
 70
     0
102
RTVSPropertyOp9
 70
     0
102
RTVSPropertyOp10
 70
     0
102
RTVSPropertyOp11
 70
     0
102
RTVSPropertyOp12
 70
     0
102
RTVSPropertyOp13
 70
     0
102
RTVSPropertyOp14
 70
     2
102
RTVSPropertyOp15
 70
     0
102
RTVSPropertyOp16
 70
     0
102
RTVSPropertyOp17
 70
     0
102
RTVSPropertyOp18
 70
     0
102
RTVSPropertyOp19
 70
     0
102
RTVSPropertyOp20
 70
     0
102
RTVSPropertyOp21
 70
     0
102
RTVSPropertyOp22
 70
     0
102
RTVSPropertyOp23
 70
     0
102
RTVSPropertyOp24
 70
     0
102
RTVSPropertyOp25
 70
     0
102
RTVSPropertyOp26
 70
     0
102
RTVSPropertyOp27
 70
     0
102
RTVSPropertyOp28
 70
     0
102
RTVSPropertyOp29
 70
     0
102
RTVSPropertyOp30
 70
     0
102
RTVSPropertyOp31
 70
     0
102
RTVSPropertyOp32
 70
     0
  0
XRECORD
  5
189
102
{ACAD_REACTORS
330
188
102
}
330
188
100
AcDbXrecord
280
     1
102
RTVSPropertyOp0
 70
     1
102
RTVSPropertyOp1
 70
     1
102
RTVSPropertyOp2
 70
     1
102
RTVSPropertyOp3
 70
     1
102
RTVSPropertyOp4
 70
     1
102
RTVSPropertyOp5
 70
     1
102
RTVSPropertyOp6
 70
     1
102
RTVSPropertyOp7
 70
     1
102
RTVSPropertyOp8
 70
     1
102
RTVSPropertyOp9
 70
     1
102
RTVSPropertyOp10
 70
     1
102
RTVSPropertyOp11
 70
     1
102
RTVSPropertyOp12
 70
     1
102
RTVSPropertyOp13
 70
     1
102
RTVSPropertyOp14
 70
     1
102
RTVSPropertyOp15
 70
     1
102
RTVSPropertyOp16
 70
     1
102
RTVSPropertyOp17
 70
     1
102
RTVSPropertyOp18
 70
     1
102
RTVSPropertyOp19
 70
     1
102
RTVSPropertyOp20
 70
     1
102
RTVSPropertyOp21
 70
     1
102
RTVSPropertyOp22
 70
     1
102
RTVSPropertyOp23
 70
     1
102
RTVSPropertyOp24
 70
     1
102
RTVSPropertyOp25
 70
     1
102
RTVSPropertyOp26
 70
     1
102
RTVSPropertyOp27
 70
     1
102
RTVSPropertyOp28
 70
     1
102
RTVSPropertyOp29
 70
     1
102
RTVSPropertyOp30
 70
     1
102
RTVSPropertyOp31
 70
     1
102
RTVSPropertyOp32
 70
     1
  0
XRECORD
  5
1AF
102
{ACAD_REACTORS
330
1AE
102
}
330
1AE
100
AcDbXrecord
280
     1
102
RTVSPropertyOp0
 70
     1
102
RTVSPropertyOp1
 70
     1
102
RTVSPropertyOp2
 70
     1
102
RTVSPropertyOp3
 70
     1
102
RTVSPropertyOp4
 70
     1
102
RTVSPropertyOp5
 70
     1
102
RTVSPropertyOp6
 70
     1
102
RTVSPropertyOp7
 70
     1
102
RTVSPropertyOp8
 70
     1
102
RTVSPropertyOp9
 70
     1
102
RTVSPropertyOp10
 70
     1
102
RTVSPropertyOp11
 70
     1
102
RTVSPropertyOp12
 70
     1
102
RTVSPropertyOp13
 70
     1
102
RTVSPropertyOp14
 70
     1
102
RTVSPropertyOp15
 70
     1
102
RTVSPropertyOp16
 70
     1
102
RTVSPropertyOp17
 70
     1
102
RTVSPropertyOp18
 70
     1
102
RTVSPropertyOp19
 70
     1
102
RTVSPropertyOp20
 70
     1
102
RTVSPropertyOp21
 70
     1
102
RTVSPropertyOp22
 70
     1
102
RTVSPropertyOp23
 70
     1
102
RTVSPropertyOp24
 70
     1
102
RTVSPropertyOp25
 70
     1
102
RTVSPropertyOp26
 70
     1
102
RTVSPropertyOp27
 70
     1
102
RTVSPropertyOp28
 70
     1
102
RTVSPropertyOp29
 70
     1
102
RTVSPropertyOp30
 70
     1
102
RTVSPropertyOp31
 70
     1
102
RTVSPropertyOp32
 70
     1
  0
XRECORD
  5
1AD
102
{ACAD_REACTORS
330
1AC
102
}
330
1AC
100
AcDbXrecord
280
     1
102
RTVSPropertyOp0
 70
     1
102
RTVSPropertyOp1
 70
     1
102
RTVSPropertyOp2
 70
     1
102
RTVSPropertyOp3
 70
     1
102
RTVSPropertyOp4
 70
     1
102
RTVSPropertyOp5
 70
     1
102
RTVSPropertyOp6
 70
     1
102
RTVSPropertyOp7
 70
     1
102
RTVSPropertyOp8
 70
     1
102
RTVSPropertyOp9
 70
     1
102
RTVSPropertyOp10
 70
     1
102
RTVSPropertyOp11
 70
     1
102
RTVSPropertyOp12
 70
     1
102
RTVSPropertyOp13
 70
     1
102
RTVSPropertyOp14
 70
     1
102
RTVSPropertyOp15
 70
     1
102
RTVSPropertyOp16
 70
     1
102
RTVSPropertyOp17
 70
     1
102
RTVSPropertyOp18
 70
     1
102
RTVSPropertyOp19
 70
     1
102
RTVSPropertyOp20
 70
     1
102
RTVSPropertyOp21
 70
     1
102
RTVSPropertyOp22
 70
     1
102
RTVSPropertyOp23
 70
     1
102
RTVSPropertyOp24
 70
     1
102
RTVSPropertyOp25
 70
     1
102
RTVSPropertyOp26
 70
     1
102
RTVSPropertyOp27
 70
     1
102
RTVSPropertyOp28
 70
     1
102
RTVSPropertyOp29
 70
     1
102
RTVSPropertyOp30
 70
     1
102
RTVSPropertyOp31
 70
     1
102
RTVSPropertyOp32
 70
     1
  0
XRECORD
  5
1A7
102
{ACAD_REACTORS
330
1A6
102
}
330
1A6
100
AcDbXrecord
280
     1
102
RTVSPropertyOp0
 70
     1
102
RTVSPropertyOp1
 70
     1
102
RTVSPropertyOp2
 70
     1
102
RTVSPropertyOp3
 70
     1
102
RTVSPropertyOp4
 70
     1
102
RTVSPropertyOp5
 70
     1
102
RTVSPropertyOp6
 70
     1
102
RTVSPropertyOp7
 70
     1
102
RTVSPropertyOp8
 70
     1
102
RTVSPropertyOp9
 70
     1
102
RTVSPropertyOp10
 70
     1
102
RTVSPropertyOp11
 70
     1
102
RTVSPropertyOp12
 70
     1
102
RTVSPropertyOp13
 70
     1
102
RTVSPropertyOp14
 70
     1
102
RTVSPropertyOp15
 70
     1
102
RTVSPropertyOp16
 70
     1
102
RTVSPropertyOp17
 70
     1
102
RTVSPropertyOp18
 70
     1
102
RTVSPropertyOp19
 70
     1
102
RTVSPropertyOp20
 70
     1
102
RTVSPropertyOp21
 70
     1
102
RTVSPropertyOp22
 70
     1
102
RTVSPropertyOp23
 70
     1
102
RTVSPropertyOp24
 70
     1
102
RTVSPropertyOp25
 70
     1
102
RTVSPropertyOp26
 70
     1
102
RTVSPropertyOp27
 70
     1
102
RTVSPropertyOp28
 70
     1
102
RTVSPropertyOp29
 70
     1
102
RTVSPropertyOp30
 70
     1
102
RTVSPropertyOp31
 70
     1
102
RTVSPropertyOp32
 70
     1
  0
XRECORD
  5
1A9
102
{ACAD_REACTORS
330
1A8
102
}
330
1A8
100
AcDbXrecord
280
     1
102
RTVSPropertyOp0
 70
     1
102
RTVSPropertyOp1
 70
     1
102
RTVSPropertyOp2
 70
     1
102
RTVSPropertyOp3
 70
     1
102
RTVSPropertyOp4
 70
     1
102
RTVSPropertyOp5
 70
     1
102
RTVSPropertyOp6
 70
     1
102
RTVSPropertyOp7
 70
     1
102
RTVSPropertyOp8
 70
     1
102
RTVSPropertyOp9
 70
     1
102
RTVSPropertyOp10
 70
     1
102
RTVSPropertyOp11
 70
     1
102
RTVSPropertyOp12
 70
     1
102
RTVSPropertyOp13
 70
     1
102
RTVSPropertyOp14
 70
     1
102
RTVSPropertyOp15
 70
     1
102
RTVSPropertyOp16
 70
     1
102
RTVSPropertyOp17
 70
     1
102
RTVSPropertyOp18
 70
     1
102
RTVSPropertyOp19
 70
     1
102
RTVSPropertyOp20
 70
     1
102
RTVSPropertyOp21
 70
     1
102
RTVSPropertyOp22
 70
     1
102
RTVSPropertyOp23
 70
     1
102
RTVSPropertyOp24
 70
     1
102
RTVSPropertyOp25
 70
     1
102
RTVSPropertyOp26
 70
     1
102
RTVSPropertyOp27
 70
     1
102
RTVSPropertyOp28
 70
     1
102
RTVSPropertyOp29
 70
     1
102
RTVSPropertyOp30
 70
     1
102
RTVSPropertyOp31
 70
     1
102
RTVSPropertyOp32
 70
     1
  0
XRECORD
  5
19F
102
{ACAD_REACTORS
330
19E
102
}
330
19E
100
AcDbXrecord
280
     1
102
RTVSPropertyOp0
 70
     1
102
RTVSPropertyOp1
 70
     1
102
RTVSPropertyOp2
 70
     1
102
RTVSPropertyOp3
 70
     1
102
RTVSPropertyOp4
 70
     1
102
RTVSPropertyOp5
 70
     1
102
RTVSPropertyOp6
 70
     1
102
RTVSPropertyOp7
 70
     1
102
RTVSPropertyOp8
 70
     1
102
RTVSPropertyOp9
 70
     1
102
RTVSPropertyOp10
 70
     1
102
RTVSPropertyOp11
 70
     1
102
RTVSPropertyOp12
 70
     1
102
RTVSPropertyOp13
 70
     1
102
RTVSPropertyOp14
 70
     1
102
RTVSPropertyOp15
 70
     1
102
RTVSPropertyOp16
 70
     1
102
RTVSPropertyOp17
 70
     1
102
RTVSPropertyOp18
 70
     1
102
RTVSPropertyOp19
 70
     1
102
RTVSPropertyOp20
 70
     1
102
RTVSPropertyOp21
 70
     1
102
RTVSPropertyOp22
 70
     1
102
RTVSPropertyOp23
 70
     1
102
RTVSPropertyOp24
 70
     1
102
RTVSPropertyOp25
 70
     1
102
RTVSPropertyOp26
 70
     1
102
RTVSPropertyOp27
 70
     1
102
RTVSPropertyOp28
 70
     1
102
RTVSPropertyOp29
 70
     1
102
RTVSPropertyOp30
 70
     1
102
RTVSPropertyOp31
 70
     1
102
RTVSPropertyOp32
 70
     1
  0
XRECORD
  5
18B
102
{ACAD_REACTORS
330
18A
102
}
330
18A
100
AcDbXrecord
280
     1
102
RTVSPropertyOp0
 70
     1
102
RTVSPropertyOp1
 70
     1
102
RTVSPropertyOp2
 70
     1
102
RTVSPropertyOp3
 70
     1
102
RTVSPropertyOp4
 70
     1
102
RTVSPropertyOp5
 70
     1
102
RTVSPropertyOp6
 70
     1
102
RTVSPropertyOp7
 70
     1
102
RTVSPropertyOp8
 70
     1
102
RTVSPropertyOp9
 70
     1
102
RTVSPropertyOp10
 70
     1
102
RTVSPropertyOp11
 70
     1
102
RTVSPropertyOp12
 70
     1
102
RTVSPropertyOp13
 70
     1
102
RTVSPropertyOp14
 70
     1
102
RTVSPropertyOp15
 70
     1
102
RTVSPropertyOp16
 70
     1
102
RTVSPropertyOp17
 70
     1
102
RTVSPropertyOp18
 70
     1
102
RTVSPropertyOp19
 70
     1
102
RTVSPropertyOp20
 70
     1
102
RTVSPropertyOp21
 70
     1
102
RTVSPropertyOp22
 70
     1
102
RTVSPropertyOp23
 70
     1
102
RTVSPropertyOp24
 70
     1
102
RTVSPropertyOp25
 70
     1
102
RTVSPropertyOp26
 70
     1
102
RTVSPropertyOp27
 70
     1
102
RTVSPropertyOp28
 70
     1
102
RTVSPropertyOp29
 70
     1
102
RTVSPropertyOp30
 70
     1
102
RTVSPropertyOp31
 70
     1
102
RTVSPropertyOp32
 70
     1
  0
XRECORD
  5
1AB
102
{ACAD_REACTORS
330
1AA
102
}
330
1AA
100
AcDbXrecord
280
     1
102
RTVSPropertyOp0
 70
     1
102
RTVSPropertyOp1
 70
     1
102
RTVSPropertyOp2
 70
     1
102
RTVSPropertyOp3
 70
     1
102
RTVSPropertyOp4
 70
     1
102
RTVSPropertyOp5
 70
     1
102
RTVSPropertyOp6
 70
     1
102
RTVSPropertyOp7
 70
     1
102
RTVSPropertyOp8
 70
     1
102
RTVSPropertyOp9
 70
     1
102
RTVSPropertyOp10
 70
     1
102
RTVSPropertyOp11
 70
     1
102
RTVSPropertyOp12
 70
     1
102
RTVSPropertyOp13
 70
     1
102
RTVSPropertyOp14
 70
     1
102
RTVSPropertyOp15
 70
     1
102
RTVSPropertyOp16
 70
     1
102
RTVSPropertyOp17
 70
     1
102
RTVSPropertyOp18
 70
     1
102
RTVSPropertyOp19
 70
     1
102
RTVSPropertyOp20
 70
     1
102
RTVSPropertyOp21
 70
     1
102
RTVSPropertyOp22
 70
     1
102
RTVSPropertyOp23
 70
     1
102
RTVSPropertyOp24
 70
     1
102
RTVSPropertyOp25
 70
     1
102
RTVSPropertyOp26
 70
     1
102
RTVSPropertyOp27
 70
     1
102
RTVSPropertyOp28
 70
     1
102
RTVSPropertyOp29
 70
     1
102
RTVSPropertyOp30
 70
     1
102
RTVSPropertyOp31
 70
     1
102
RTVSPropertyOp32
 70
     1
  0
ENDSEC
  0
EOF
