  0
SECTION
  2
HEADER
  9
$ACADVER
  1
AC1015
  9
$ACADMAINTVER
 70
    18
  9
$DWGCODEPAGE
  3
ANSI_1252
  9
$INSBASE
 10
0.0
 20
0.0
 30
0.0
  9
$EXTMIN
 10
-91.92905922831187
 20
-65.21548273695589
 30
-0.0015258207003583
  9
$EXTMAX
 10
47.31616354863627
 20
47.32678326071073
 30
0.0000000349246037
  9
$LIMMIN
 10
0.0
 20
0.0
  9
$LIMMAX
 10
1189.0
 20
840.9999999999998
  9
$ORTHOMODE
 70
     0
  9
$REGENMODE
 70
     1
  9
$FILLMODE
 70
     1
  9
$QTEXTMODE
 70
     0
  9
$MIRRTEXT
 70
     0
  9
$LTSCALE
 40
1.0
  9
$ATTMODE
 70
     1
  9
$TEXTSIZE
 40
0.2
  9
$TRACEWID
 40
0.05
  9
$TEXTSTYLE
  7
STANDARD
  9
$CLAYER
  8
0
  9
$CELTYPE
  6
ByLayer
  9
$CECOLOR
 62
   256
  9
$CELTSCALE
 40
1.0
  9
$DISPSILH
 70
     0
  9
$DIMSCALE
 40
1.0
  9
$DIMASZ
 40
180.0
  9
$DIMEXO
 40
0.0625
  9
$DIMDLI
 40
0.38
  9
$DIMRND
 40
0.0
  9
$DIMDLE
 40
0.0
  9
$DIMEXE
 40
0.18
  9
$DIMTP
 40
0.0
  9
$DIMTM
 40
0.0
  9
$DIMTXT
 40
34.99999940395355
  9
$DIMCEN
 40
0.09
  9
$DIMTSZ
 40
0.0
  9
$DIMTOL
 70
     0
  9
$DIMLIM
 70
     0
  9
$DIMTIH
 70
     1
  9
$DIMTOH
 70
     1
  9
$DIMSE1
 70
     0
  9
$DIMSE2
 70
     0
  9
$DIMTAD
 70
     0
  9
$DIMZIN
 70
     0
  9
$DIMBLK
  1

  9
$DIMASO
 70
     1
  9
$DIMSHO
 70
     1
  9
$DIMPOST
  1

  9
$DIMAPOST
  1

  9
$DIMALT
 70
     0
  9
$DIMALTD
 70
     2
  9
$DIMALTF
 40
25.4
  9
$DIMLFAC
 40
1.0
  9
$DIMTOFL
 70
     0
  9
$DIMTVP
 40
0.0
  9
$DIMTIX
 70
     0
  9
$DIMSOXD
 70
     0
  9
$DIMSAH
 70
     0
  9
$DIMBLK1
  1

  9
$DIMBLK2
  1

  9
$DIMSTYLE
  2
STANDARD
  9
$DIMCLRD
 70
     0
  9
$DIMCLRE
 70
     0
  9
$DIMCLRT
 70
     0
  9
$DIMTFAC
 40
1.0
  9
$DIMGAP
 40
0.09
  9
$DIMJUST
 70
     0
  9
$DIMSD1
 70
     0
  9
$DIMSD2
 70
     0
  9
$DIMTOLJ
 70
     1
  9
$DIMTZIN
 70
     0
  9
$DIMALTZ
 70
     0
  9
$DIMALTTZ
 70
     0
  9
$DIMUPT
 70
     0
  9
$DIMDEC
 70
     4
  9
$DIMTDEC
 70
     4
  9
$DIMALTU
 70
     2
  9
$DIMALTTD
 70
     2
  9
$DIMTXSTY
  7
STANDARD
  9
$DIMAUNIT
 70
     0
  9
$DIMADEC
 70
     0
  9
$DIMALTRND
 40
0.0
  9
$DIMAZIN
 70
     0
  9
$DIMDSEP
 70
    46
  9
$DIMATFIT
 70
     3
  9
$DIMFRAC
 70
     0
  9
$DIMLDRBLK
  1

  9
$DIMLUNIT
 70
     2
  9
$DIMLWD
 70
    -2
  9
$DIMLWE
 70
    -2
  9
$DIMTMOVE
 70
     0
  9
$LUNITS
 70
     2
  9
$LUPREC
 70
     4
  9
$SKETCHINC
 40
0.1
  9
$FILLETRAD
 40
0.0
  9
$AUNITS
 70
     0
  9
$AUPREC
 70
     0
  9
$MENU
  1
.
  9
$ELEVATION
 40
0.0
  9
$PELEVATION
 40
0.0
  9
$THICKNESS
 40
0.0
  9
$LIMCHECK
 70
     0
  9
$CHAMFERA
 40
0.0
  9
$CHAMFERB
 40
0.0
  9
$CHAMFERC
 40
0.0
  9
$CHAMFERD
 40
0.0
  9
$SKPOLY
 70
     0
  9
$TDCREATE
 40
2454871.497639329
  9
$TDUCREATE
 40
2454871.455972662
  9
$TDUPDATE
 40
2455943.975952870
  9
$TDUUPDATE
 40
2455943.934286204
  9
$TDINDWG
 40
0.0120462269
  9
$TDUSRTIMER
 40
0.0120462269
  9
$USRTIMER
 70
     1
  9
$ANGBASE
 50
0.0
  9
$ANGDIR
 70
     0
  9
$PDMODE
 70
     0
  9
$PDSIZE
 40
0.0
  9
$PLINEWID
 40
0.0
  9
$SPLFRAME
 70
     0
  9
$SPLINETYPE
 70
     6
  9
$SPLINESEGS
 70
     8
  9
$HANDSEED
  5
1AF
  9
$SURFTAB1
 70
     6
  9
$SURFTAB2
 70
     6
  9
$SURFTYPE
 70
     6
  9
$SURFU
 70
     6
  9
$SURFV
 70
     6
  9
$UCSBASE
  2

  9
$UCSNAME
  2

  9
$UCSORG
 10
0.0
 20
0.0
 30
0.0
  9
$UCSXDIR
 10
1.0
 20
0.0
 30
0.0
  9
$UCSYDIR
 10
0.0
 20
1.0
 30
0.0
  9
$UCSORTHOREF
  2

  9
$UCSORTHOVIEW
 70
     0
  9
$UCSORGTOP
 10
0.0
 20
0.0
 30
0.0
  9
$UCSORGBOTTOM
 10
0.0
 20
0.0
 30
0.0
  9
$UCSORGLEFT
 10
0.0
 20
0.0
 30
0.0
  9
$UCSORGRIGHT
 10
0.0
 20
0.0
 30
0.0
  9
$UCSORGFRONT
 10
0.0
 20
0.0
 30
0.0
  9
$UCSORGBACK
 10
0.0
 20
0.0
 30
0.0
  9
$PUCSBASE
  2

  9
$PUCSNAME
  2

  9
$PUCSORG
 10
0.0
 20
0.0
 30
0.0
  9
$PUCSXDIR
 10
1.0
 20
0.0
 30
0.0
  9
$PUCSYDIR
 10
0.0
 20
1.0
 30
0.0
  9
$PUCSORTHOREF
  2

  9
$PUCSORTHOVIEW
 70
     0
  9
$PUCSORGTOP
 10
0.0
 20
0.0
 30
0.0
  9
$PUCSORGBOTTOM
 10
0.0
 20
0.0
 30
0.0
  9
$PUCSORGLEFT
 10
0.0
 20
0.0
 30
0.0
  9
$PUCSORGRIGHT
 10
0.0
 20
0.0
 30
0.0
  9
$PUCSORGFRONT
 10
0.0
 20
0.0
 30
0.0
  9
$PUCSORGBACK
 10
0.0
 20
0.0
 30
0.0
  9
$USERI1
 70
     0
  9
$USERI2
 70
     0
  9
$USERI3
 70
     0
  9
$USERI4
 70
     0
  9
$USERI5
 70
     0
  9
$USERR1
 40
0.0
  9
$USERR2
 40
0.0
  9
$USERR3
 40
0.0
  9
$USERR4
 40
0.0
  9
$USERR5
 40
0.0
  9
$WORLDVIEW
 70
     1
  9
$SHADEDGE
 70
     3
  9
$SHADEDIF
 70
    70
  9
$TILEMODE
 70
     1
  9
$MAXACTVP
 70
    64
  9
$PINSBASE
 10
0.0
 20
0.0
 30
0.0
  9
$PLIMCHECK
 70
     0
  9
$PEXTMIN
 10
0.0
 20
0.0
 30
0.0
  9
$PEXTMAX
 10
1189.0
 20
840.9999999999998
 30
0.0
  9
$PLIMMIN
 10
0.0
 20
0.0
  9
$PLIMMAX
 10
1189.0
 20
840.9999999999998
  9
$UNITMODE
 70
     0
  9
$VISRETAIN
 70
     1
  9
$PLINEGEN
 70
     0
  9
$PSLTSCALE
 70
     1
  9
$TREEDEPTH
 70
  3020
  9
$CMLSTYLE
  2
Standard
  9
$CMLJUST
 70
     0
  9
$CMLSCALE
 40
1.0
  9
$PROXYGRAPHICS
 70
     1
  9
$MEASUREMENT
 70
     1
  9
$CELWEIGHT
370
    -1
  9
$ENDCAPS
280
     0
  9
$JOINSTYLE
280
     0
  9
$LWDISPLAY
290
     0
  9
$INSUNITS
 70
     4
  9
$HYPERLINKBASE
  1

  9
$STYLESHEET
  1

  9
$XEDIT
290
     1
  9
$CEPSNTYPE
380
     0
  9
$PSTYLEMODE
290
     1
  9
$FINGERPRINTGUID
  2
{4AD88DC4-AC59-464F-90CB-B29100F6D8AF}
  9
$VERSIONGUID
  2
{D942FF42-EAAE-4689-A837-A8B61CD63E81}
  9
$EXTNAMES
290
     1
  9
$PSVPSCALE
 40
0.0
  9
$OLESTARTUP
290
     0
  0
ENDSEC
  0
SECTION
  2
CLASSES
  0
CLASS
  1
ACDBDICTIONARYWDFLT
  2
AcDbDictionaryWithDefault
  3
ObjectDBX Classes
 90
        0
280
     0
281
     0
  0
CLASS
  1
MATERIAL
  2
AcDbMaterial
  3
ObjectDBX Classes
 90
     1153
280
     0
281
     0
  0
CLASS
  1
VISUALSTYLE
  2
AcDbVisualStyle
  3
ObjectDBX Classes
 90
     4095
280
     0
281
     0
  0
CLASS
  1
SCALE
  2
AcDbScale
  3
ObjectDBX Classes
 90
     1153
280
     0
281
     0
  0
CLASS
  1
TABLESTYLE
  2
AcDbTableStyle
  3
ObjectDBX Classes
 90
     4095
280
     0
281
     0
  0
CLASS
  1
MLEADERSTYLE
  2
AcDbMLeaderStyle
  3
ACDB_MLEADERSTYLE_CLASS
 90
     4095
280
     0
281
     0
  0
CLASS
  1
SORTENTSTABLE
  2
AcDbSortentsTable
  3
ObjectDBX Classes
 90
        0
280
     0
281
     0
  0
CLASS
  1
CELLSTYLEMAP
  2
AcDbCellStyleMap
  3
ObjectDBX Classes
 90
     1152
280
     0
281
     0
  0
CLASS
  1
DICTIONARYVAR
  2
AcDbDictionaryVar
  3
ObjectDBX Classes
 90
        0
280
     0
281
     0
  0
CLASS
  1
ACME_DOCUMENT
  2
AcMeDbDoc
  3
AcMeServices
 90
    33792
280
     1
281
     0
  0
CLASS
  1
AMGSETTINGSOBJ
  2
AmgSettingsObj
  3
"AcadM|Product Description: AutoCAD Mechanical|Company: Autodesk, Inc."
 90
    33792
280
     1
281
     0
  0
CLASS
  1
ACMESCOPE
  2
AcMeScope
  3
AcMeServices
 90
    33792
280
     1
281
     0
  0
CLASS
  1
ACMECOMMANDHISTORY
  2
AcMeCommandHistory
  3
AcMeServices
 90
    33792
280
     1
281
     0
  0
CLASS
  1
ACIMSYSVARMAN
  2
AcImSysVarManager
  3
AcMeServices
 90
    33792
280
     1
281
     0
  0
CLASS
  1
ACIMINTSYSVAR
  2
AcImIntSysVar
  3
AcMeServices
 90
    33792
280
     1
281
     0
  0
CLASS
  1
ACMEDRAWINGMAN
  2
AcMeDrawingMan
  3
AcMeServices
 90
    33792
280
     1
281
     0
  0
CLASS
  1
ACMEVIEW
  2
AcMeView
  3
AcMeServices
 90
    33792
280
     1
281
     0
  0
CLASS
  1
ACDBENTITYCACHE
  2
AcMeEntityCache
  3
AcMeServices
 90
    33792
280
     1
281
     0
  0
CLASS
  1
GSMANAGER
  2
AcMeGSManager
  3
AcMeServices
 90
    33792
280
     1
281
     0
  0
CLASS
  1
AMDTINTERNALREACTOR
  2
AmdtInternalReactor
  3
AcMeServices
 90
    33792
280
     1
281
     0
  0
CLASS
  1
ACMESTATEMGR
  2
AcMeStateMgr
  3
AcMeServices
 90
    33792
280
     1
281
     0
  0
CLASS
  1
ACGREFMASTER
  2
AcGrefMaster
  3
AcAttribServices
 90
    33792
280
     1
281
     0
  0
CLASS
  1
AM_DRAWING_MGR
  2
AcDmDwgMgr
  3
AcMechDwgViewMgmt
 90
    33792
280
     1
281
     0
  0
CLASS
  1
AM_DWG_DOCUMENT
  2
AcDmDwgDocument
  3
AcMechDwgViewMgmt
 90
    33792
280
     1
281
     0
  0
CLASS
  1
AM_DWG_SHEET
  2
AcDmSheet
  3
AcMechDwgViewMgmt
 90
    33792
280
     1
281
     0
  0
CLASS
  1
AM_VIEWDIMPARMAP
  2
AcDmViewDimParMap
  3
AcMechDwgViewMgmt
 90
    33792
280
     1
281
     0
  0
CLASS
  1
ACIMREALSYSVAR
  2
AcImRealSysVar
  3
AcMeServices
 90
    33792
280
     1
281
     0
  0
CLASS
  1
AM_DWGMGR_NAME
  2
AcDmDwgMgrName
  3
AcMechDwgViewMgmt
 90
    33792
280
     1
281
     0
  0
CLASS
  1
ACME_DATABASE
  2
AcMeDbDatabase
  3
AcMeServices
 90
    33792
280
     1
281
     0
  0
CLASS
  1
ACRFINSADJUSTERMGR
  2
AcRfInsAdjusterMgr
  3
AcMeServices
 90
    33792
280
     1
281
     0
  0
CLASS
  1
ACGREFACADMASTER
  2
AcGrefacadMaster
  3
AcGrefServices
 90
    33792
280
     1
281
     0
  0
CLASS
  1
AMDTMENUSTATEMGR
  2
AmdtMenuStateMgr
  3
McadcomServices
 90
    33792
280
     1
281
     0
  0
CLASS
  1
AMDTMCOMMENUSTATE
  2
AmdtMcomMenuState
  3
McadcomServices
 90
    33792
280
     1
281
     0
  0
CLASS
  1
AMIMASTER
  2
AmiMaster
  3
AmiServices
 90
    33792
280
     1
281
     0
  0
CLASS
  1
MAPIAMMOUDLE
  2
MApiAmModule
  3
MApiAmServices
 90
    33792
280
     1
281
     0
  0
CLASS
  1
ACIMSTRSYSVAR
  2
AcImStrSysVar
  3
AcMeServices
 90
    33792
280
     1
281
     0
  0
CLASS
  1
AMDTADMENUSTATE
  2
AmdtAdMenuState
  3
DesignerServices
 90
    33792
280
     1
281
     0
  0
CLASS
  1
ADAPPL
  2
AcAdAppl
  3
DesignerServices
 90
    33792
280
     1
281
     0
  0
CLASS
  1
DEPMGR
  2
AcAdDepMgr
  3
DesignerServices
 90
    33792
280
     1
281
     0
  0
CLASS
  1
PARAMMGR
  2
AcAdParamMgr
  3
DesignerServices
 90
    33792
280
     1
281
     0
  0
CLASS
  1
PARAMSCOPE
  2
AcAdParamScope
  3
DesignerServices
 90
    33792
280
     1
281
     0
  0
CLASS
  1
NAMEDAPPL
  2
AcAdNamedAppl
  3
DesignerServices
 90
    33792
280
     1
281
     0
  0
CLASS
  1
AMDTDMMENUSTATE
  2
AmdtDmMenuState
  3
AcMechDwgViewMgmt
 90
    33792
280
     1
281
     0
  0
CLASS
  1
AMDTAMMENUSTATE
  2
AmdtAmMenuState
  3
DesignerAssemblies
 90
    33792
280
     1
281
     0
  0
CLASS
  1
ACAMPROJECT
  2
AcAmProject
  3
DesignerAssemblies
 90
    33792
280
     1
281
     0
  0
CLASS
  1
ACAMGRCOMPDEF
  2
AcAmGrCompDef
  3
DesignerAssemblies
 90
    33792
280
     1
281
     0
  0
CLASS
  1
ACCMCONTEXT
  2
AcCmContext
  3
DesignerAssemblies
 90
    33792
280
     1
281
     0
  0
CLASS
  1
ACAMCOMPDEF
  2
AcAmCompDef
  3
DesignerAssemblies
 90
    33792
280
     1
281
     0
  0
CLASS
  1
ACAMCOMPDEFMGR
  2
AcAmCompDefMgr
  3
DesignerAssemblies
 90
    33792
280
     1
281
     0
  0
CLASS
  1
AMCONTEXTMGR
  2
AcAmContextMgr
  3
DesignerAssemblies
 90
    33792
280
     1
281
     0
  0
CLASS
  1
ACAMCONTEXTMODELER
  2
AcAmContextModeler
  3
DesignerAssemblies
 90
    33792
280
     1
281
     0
  0
CLASS
  1
ACMDATADICTIONARY
  2
AcmDataDictionary
  3
"AcmSymBB|Product Description: AutoCAD Mechanical|Company: Autodesk, Inc."
 90
    33792
280
     1
281
     0
  0
CLASS
  1
CATALOGSTATE
  2
AcAmCatalogState
  3
DesignerAssemblies
 90
    33792
280
     1
281
     0
  0
CLASS
  1
ACAMGRCOMPDEFSET
  2
AcAmGrCompDefSet
  3
DesignerAssemblies
 90
    33792
280
     1
281
     0
  0
CLASS
  1
AMDTBROWSERDBTAB
  2
AmdtBrowserDbTab
  3
McadcomServices
 90
    33792
280
     1
281
     0
  0
CLASS
  1
CBROWSERAPPOBJECT
  2
CBrowserAppObject
  3
McadcomServices
 90
    33792
280
     1
281
     0
  0
CLASS
  1
DM_PLACEHOLDER
  2
AcDmSelsetPlaceholder
  3
AcMechDwgViewMgmt
 90
    33792
280
     1
281
     0
  0
CLASS
  1
EXACXREFPANELOBJECT
  2
ExAcXREFPanelObject
  3
EXAC_ESW
 90
     1025
280
     0
281
     0
  0
CLASS
  1
NPOCOLLECTION
  2
AcDbImpNonPersistentObjectsCollection
  3
ObjectDBX Classes
 90
     1153
280
     0
281
     0
  0
CLASS
  1
ACMSTANDARDANSI
  2
AcmStandardANSI
  3
"Amdt_StdImp|Product Description: AutoCAD Mechanical|Company: Autodesk, Inc."
 90
    33792
280
     1
281
     0
  0
CLASS
  1
ACMSURFSTANDARDANSI
  2
AcmSurfTextStdANSI
  3
"Amdt_StdImp|Product Description: AutoCAD Mechanical|Company: Autodesk, Inc."
 90
    33792
280
     1
281
     0
  0
CLASS
  1
ACMFCFSTANDARDANSI
  2
AcmFCFStdANSI
  3
"Amdt_StdImp|Product Description: AutoCAD Mechanical|Company: Autodesk, Inc."
 90
    33792
280
     1
281
     0
  0
CLASS
  1
ACMWELDSTANDARDANSI
  2
AcmWeldingStdANSI
  3
"Amdt_StdImp|Product Description: AutoCAD Mechanical|Company: Autodesk, Inc."
 90
    33792
280
     1
281
     0
  0
CLASS
  1
ACMIDSTANDARDANSI
  2
AcmIdStdANSI
  3
"Amdt_StdImp|Product Description: AutoCAD Mechanical|Company: Autodesk, Inc."
 90
    33792
280
     1
281
     0
  0
CLASS
  1
ACMDATUMSTANDARDANSI
  2
AcmDatumStdANSI
  3
"Amdt_StdImp|Product Description: AutoCAD Mechanical|Company: Autodesk, Inc."
 90
    33792
280
     1
281
     0
  0
CLASS
  1
ACMBOMSTANDARDANSI
  2
AcmBOMStdANSI
  3
"Amdt_StdImp|Product Description: AutoCAD Mechanical|Company: Autodesk, Inc."
 90
    33792
280
     1
281
     0
  0
CLASS
  1
ACMDETAILSTANDARDANSI
  2
AmdtDetailSymStdANSI
  3
"Amdt_StdImp|Product Description: AutoCAD Mechanical|Company: Autodesk, Inc."
 90
    33792
280
     1
281
     0
  0
CLASS
  1
ACMSECTIONSTANDARDANSI
  2
AmdtSectionSymStdANSI
  3
"Amdt_StdImp|Product Description: AutoCAD Mechanical|Company: Autodesk, Inc."
 90
    33792
280
     1
281
     0
  0
CLASS
  1
ACMCENTERLINESTANDARDANSI
  2
AmdtCenterLineStdANSI
  3
"Amdt_StdImp|Product Description: AutoCAD Mechanical|Company: Autodesk, Inc."
 90
    33792
280
     1
281
     0
  0
CLASS
  1
ACMTHREADLINESTANDARDANSI
  2
AmdtThreadLineStdANSI
  3
"Amdt_StdImp|Product Description: AutoCAD Mechanical|Company: Autodesk, Inc."
 90
    33792
280
     1
281
     0
  0
CLASS
  1
ACMNOTESTANDARDANSI
  2
AmdtNoteStdANSI
  3
"Amdt_StdImp|Product Description: AutoCAD Mechanical|Company: Autodesk, Inc."
 90
    33792
280
     1
281
     0
  0
CLASS
  1
ACMTAPERSTANDARDANSI
  2
AcmTaperStdANSI
  3
"Amdt_StdImp|Product Description: AutoCAD Mechanical|Company: Autodesk, Inc."
 90
    33792
280
     1
281
     0
  0
CLASS
  1
ACMANOOTATIONVIEWSTANDARDANSI
  2
AmdtAnViewStdANSI
  3
"Amdt_StdImp|Product Description: AutoCAD Mechanical|Company: Autodesk, Inc."
 90
    33792
280
     1
281
     0
  0
CLASS
  1
ACAMGLAYSTD
  2
AcAmgLayStd
  3
"AmgLay|Product Description: AutoCAD Mechanical|Company: Autodesk, Inc."
 90
    33792
280
     1
281
     0
  0
CLASS
  1
ACAMGDIMSTD
  2
AcAmgDimStd
  3
"AmgDim|Product Description: AutoCAD Mechanical|Company: Autodesk, Inc."
 90
    33792
280
     1
281
     0
  0
CLASS
  1
AMGOBJPROPCFG
  2
AmgObjPropCfg
  3
"AmgLay|Product Description: AutoCAD Mechanical|Company: Autodesk, Inc."
 90
    33793
280
     1
281
     0
  0
CLASS
  1
ACAMGHOLECHARTSTDANSI
  2
AcAmgHoleChartStdANSI
  3
AmgDim|Product Description: AutoCAD Mechanical|Company: Autodesk, Inc.
 90
    33792
280
     1
281
     0
  0
CLASS
  1
ACAMGTITLESTD
  2
AcAmgTitleStd
  3
"AmgTitle|Product Description: AutoCAD Mechanical|Company: Autodesk, Inc."
 90
    36863
280
     1
281
     0
  0
CLASS
  1
AMDTNOTETEMPLATEDB
  2
AmdtNoteTemplateDB
  3
AcmSymBB|Product Description: AutoCAD Mechanical|Company: Autodesk, Inc.
 90
    33792
280
     1
281
     0
  0
CLASS
  1
ACAMGFILTERDAT
  2
AcAmgFilterDat
  3
"AcadM|Product Description: AutoCAD Mechanical|Company: Autodesk, Inc."
 90
    33792
280
     1
281
     0
  0
CLASS
  1
CAMSSTRUCTBTNSTATE
  2
StructBtnState
  3
DesignerAssemblies
 90
    33792
280
     1
281
     0
  0
CLASS
  1
ACDBPLACEHOLDER
  2
AcDbPlaceHolder
  3
ObjectDBX Classes
 90
        0
280
     0
281
     0
  0
CLASS
  1
LAYOUT
  2
AcDbLayout
  3
ObjectDBX Classes
 90
        0
280
     0
281
     0
  0
ENDSEC
  0
SECTION
  2
TABLES
  0
TABLE
  2
VPORT
  5
28
102
{ACAD_XDICTIONARY
360
2C
102
}
330
0
100
AcDbSymbolTable
 70
     1
  0
VPORT
  5
29
330
28
100
AcDbSymbolTableRecord
100
AcDbViewportTableRecord
  2
*ACTIVE
 70
     0
 10
0.0
 20
0.0
 11
1.0
 21
1.0
 12
-22.3064478398378
 22
-8.944349738122582
 13
0.0
 23
0.0
 14
1.0
 24
1.0
 15
0.0
 25
0.0
 16
0.0
 26
0.0
 36
1.0
 17
0.0
 27
0.0
 37
0.0
 40
136.4153795836564
 41
1.141762452107279
 42
50.0
 43
0.0
 44
0.0
 50
0.0
 51
0.0
 71
     0
 72
   100
 73
     1
 74
     1
 75
     0
 76
     0
 77
     0
 78
     0
281
     0
 65
     1
110
0.0
120
0.0
130
0.0
111
1.0
121
0.0
131
0.0
112
0.0
122
1.0
132
0.0
 79
     0
146
0.0
  0
ENDTAB
  0
TABLE
  2
LTYPE
  5
23
330
0
100
AcDbSymbolTable
 70
     3
  0
LTYPE
  5
24
330
23
100
AcDbSymbolTableRecord
100
AcDbLinetypeTableRecord
  2
ByBlock
 70
     0
  3

 72
    65
 73
     0
 40
0.0
  0
LTYPE
  5
25
330
23
100
AcDbSymbolTableRecord
100
AcDbLinetypeTableRecord
  2
ByLayer
 70
     0
  3

 72
    65
 73
     0
 40
0.0
  0
LTYPE
  5
13
330
23
100
AcDbSymbolTableRecord
100
AcDbLinetypeTableRecord
  2
CONTINUOUS
 70
     0
  3
Solid line
 72
    65
 73
     0
 40
0.0
  0
LTYPE
  5
77
330
23
100
AcDbSymbolTableRecord
100
AcDbLinetypeTableRecord
  2
DASHDOT
 70
     0
  3
Dash dot __ . __ . __ . __ . __ . __ . __ . __
 72
    65
 73
     4
 40
1.0
 49
0.5
 74
     0
 49
-0.25
 74
     0
 49
0.0
 74
     0
 49
-0.25
 74
     0
  0
LTYPE
  5
83
330
23
100
AcDbSymbolTableRecord
100
AcDbLinetypeTableRecord
  2
DASHED
 70
     0
  3
Dashed __ __ __ __ __ __ __ __ __ __ __ __ __ _
 72
    65
 73
     2
 40
0.75
 49
0.5
 74
     0
 49
-0.25
 74
     0
  0
ENDTAB
  0
TABLE
  2
LAYER
  5
1B
102
{ACAD_XDICTIONARY
360
1C
102
}
330
0
100
AcDbSymbolTable
 70
     7
  0
LAYER
  5
6
330
1B
100
AcDbSymbolTableRecord
100
AcDbLayerTableRecord
  2
0
 70
     0
 62
     7
  6
CONTINUOUS
370
    -3
390
7
  0
LAYER
  5
7E
330
1B
100
AcDbSymbolTableRecord
100
AcDbLayerTableRecord
  2
GEB-KONTUR-A
 70
     0
 62
     5
  6
CONTINUOUS
370
    -3
390
7
  0
LAYER
  5
76
330
1B
100
AcDbSymbolTableRecord
100
AcDbLayerTableRecord
  2
GEB-SYMMETRIE
 70
     0
 62
     3
  6
DASHDOT
370
    -3
390
7
1001
AcAecLayerStandard
1000

1000

  0
LAYER
  5
82
330
1B
100
AcDbSymbolTableRecord
100
AcDbLayerTableRecord
  2
GEB-VERDECKT
 70
     0
 62
     2
  6
DASHED
370
    -3
390
7
1001
AcAecLayerStandard
1000

1000

  0
LAYER
  5
143
330
1B
100
AcDbSymbolTableRecord
100
AcDbLayerTableRecord
  2
GEB-ART-NR
 70
     0
 62
     1
  6
CONTINUOUS
370
    18
390
7
  0
LAYER
  5
72
330
1B
100
AcDbSymbolTableRecord
100
AcDbLayerTableRecord
  2
GEB-BEZUG
 70
     0
 62
     2
  6
CONTINUOUS
370
    25
390
7
  0
LAYER
  5
140
330
1B
100
AcDbSymbolTableRecord
100
AcDbLayerTableRecord
  2
GEB-TEXT
 70
     0
 62
     5
  6
CONTINUOUS
370
    18
390
7
  0
ENDTAB
  0
TABLE
  2
STYLE
  5
20
330
0
100
AcDbSymbolTable
 70
     1
  0
STYLE
  5
21
330
20
100
AcDbSymbolTableRecord
100
AcDbTextStyleTableRecord
  2
STANDARD
 70
     0
 40
0.0
 41
1.0
 50
0.0
 71
     0
 42
0.2
  3
ARIAL.TTF
  4

1001
ACAD
1000
Arial
1071
       34
  0
ENDTAB
  0
TABLE
  2
VIEW
  5
26
330
0
100
AcDbSymbolTable
 70
     0
  0
ENDTAB
  0
TABLE
  2
UCS
  5
27
330
0
100
AcDbSymbolTable
 70
     0
  0
ENDTAB
  0
TABLE
  2
APPID
  5
2D
330
0
100
AcDbSymbolTable
 70
     3
  0
APPID
  5
1F
330
2D
100
AcDbSymbolTableRecord
100
AcDbRegAppTableRecord
  2
ACAD
 70
     0
  0
APPID
  5
78
330
2D
100
AcDbSymbolTableRecord
100
AcDbRegAppTableRecord
  2
AcAecLayerStandard
 70
     0
  0
APPID
  5
1AE
330
2D
100
AcDbSymbolTableRecord
100
AcDbRegAppTableRecord
  2
ACAD_MLEADERVER
 70
     0
  0
ENDTAB
  0
TABLE
  2
DIMSTYLE
  5
2E
330
0
100
AcDbSymbolTable
 70
     1
100
AcDbDimStyleTable
 71
     1
340
2F
  0
DIMSTYLE
105
2F
330
2E
100
AcDbSymbolTableRecord
100
AcDbDimStyleTableRecord
  2
STANDARD
 70
     0
279
     2
340
21
  0
ENDTAB
  0
TABLE
  2
BLOCK_RECORD
  5
1
330
0
100
AcDbSymbolTable
 70
     1
  0
BLOCK_RECORD
  5
2
102
{ACAD_XDICTIONARY
360
3
102
}
330
1
100
AcDbSymbolTableRecord
100
AcDbBlockTableRecord
  2
*Model_Space
340
15
  0
BLOCK_RECORD
  5
17
330
1
100
AcDbSymbolTableRecord
100
AcDbBlockTableRecord
  2
*Paper_Space
340
1A
  0
BLOCK_RECORD
  5
6F
330
1
100
AcDbSymbolTableRecord
100
AcDbBlockTableRecord
  2
Einfügepunkt
340
0
102
{BLKREFS
331
6E
102
}
  0
ENDTAB
  0
ENDSEC
  0
SECTION
  2
BLOCKS
  0
BLOCK
  5
5
330
2
100
AcDbEntity
  8
0
100
AcDbBlockBegin
  2
*Model_Space
 70
     0
 10
0.0
 20
0.0
 30
0.0
  3
*Model_Space
  1

  0
ENDBLK
  5
14
330
2
100
AcDbEntity
  8
0
100
AcDbBlockEnd
  0
BLOCK
  5
18
330
17
100
AcDbEntity
 67
     1
  8
0
100
AcDbBlockBegin
  2
*Paper_Space
 70
     0
 10
0.0
 20
0.0
 30
0.0
  3
*Paper_Space
  1

  0
ENDBLK
  5
19
330
17
100
AcDbEntity
 67
     1
  8
0
100
AcDbBlockEnd
  0
BLOCK
  5
70
330
6F
100
AcDbEntity
  8
0
100
AcDbBlockBegin
  2
Einfügepunkt
 70
     0
 10
0.0
 20
0.0
 30
0.0
  3
Einfügepunkt
  1

  0
LINE
  5
71
330
6F
100
AcDbEntity
  8
GEB-BEZUG
100
AcDbLine
 10
-0.7071067811865817
 20
-0.7071067811865106
 30
0.0
 11
0.7071067811864751
 21
0.7071067811865817
 31
0.0
  0
LINE
  5
73
330
6F
100
AcDbEntity
  8
GEB-BEZUG
100
AcDbLine
 10
-0.7071067811865106
 20
0.7071067811865817
 30
0.0
 11
0.7071067811865462
 21
-0.7071067811865106
 31
0.0
  0
ENDBLK
  5
74
330
6F
100
AcDbEntity
  8
0
100
AcDbBlockEnd
  0
ENDSEC
  0
SECTION
  2
ENTITIES
  0
INSERT
  5
6E
330
2
100
AcDbEntity
  8
0
 48
25.0
100
AcDbBlockReference
  2
Einfügepunkt
 10
0.0
 20
0.0
 30
0.0
  0
LINE
  5
75
330
2
100
AcDbEntity
  8
GEB-SYMMETRIE
 48
25.0
100
AcDbLine
 10
0.0000000000000284
 20
47.30000000000006
 30
0.0
 11
0.0000000000000284
 21
-47.30000000000006
 31
0.0
  0
LINE
  5
79
330
2
100
AcDbEntity
  8
GEB-SYMMETRIE
 48
25.0
100
AcDbLine
 10
47.3000000000001
 20
0.0
 30
0.0
 11
-47.30000000000006
 21
0.0
 31
0.0
  0
LINE
  5
7A
330
2
100
AcDbEntity
  8
GEB-SYMMETRIE
 48
25.0
100
AcDbLine
 10
-28.88386211037289
 20
-0.0000000000225668
 30
0.0
 11
-41.77634306086957
 21
-0.0000000000224247
 31
0.0
  0
LINE
  5
7B
330
2
100
AcDbEntity
  8
GEB-SYMMETRIE
 48
25.0
100
AcDbLine
 10
-72.74207903781643
 20
-0.0000000000220268
 30
0.0
 11
-86.43379856557862
 21
-0.0000000000218563
 31
0.0
  0
LINE
  5
7C
330
2
100
AcDbEntity
  8
GEB-SYMMETRIE
 48
25.0
100
AcDbLine
 10
-81.43379856557862
 20
-0.0000000000219131
 30
0.0
 11
-91.92856378427885
 21
-0.000000000021771
 31
0.0
  0
CIRCLE
  5
7D
330
2
100
AcDbEntity
  8
GEB-KONTUR-A
 48
25.0
100
AcDbCircle
 10
0.0000000000005969
 20
-0.0000000000160867
 30
0.0
 40
35.10000000000007
  0
CIRCLE
  5
7F
330
2
100
AcDbEntity
  8
GEB-KONTUR-A
 48
25.0
100
AcDbCircle
 10
0.0
 20
0.00000000000108
 30
0.0
 40
40.60000000000008
  0
CIRCLE
  5
80
330
2
100
AcDbEntity
  8
GEB-KONTUR-A
 48
25.0
100
AcDbCircle
 10
0.0000000000000284
 20
0.0000000000000284
 30
0.0
 40
44.80000000000007
  0
ARC
  5
81
330
2
100
AcDbEntity
  8
GEB-VERDECKT
 48
25.0
100
AcDbCircle
 10
-5.005980861243813
 20
-0.000000000005997
 30
0.0
 40
38.09401913875604
100
AcDbArc
 50
116.8308096016499
 51
243.1691903983501
  0
ARC
  5
84
330
2
100
AcDbEntity
  8
GEB-VERDECKT
 48
25.0
100
AcDbCircle
 10
5.005980861244267
 20
-0.0000000000060254
 30
0.0
 40
38.09401913875603
100
AcDbArc
 50
296.83080960165
 51
63.16919039835005
  0
CIRCLE
  5
85
330
2
100
AcDbEntity
  8
GEB-VERDECKT
 48
25.0
100
AcDbCircle
 10
0.0000000000000284
 20
-0.0000000000007105
 30
0.0
 40
42.30000000000007
  0
ARC
  5
86
330
2
100
AcDbEntity
  8
GEB-VERDECKT
 48
25.0
100
AcDbCircle
 10
0.0000000000005684
 20
-0.0000000000154614
 30
0.0
 40
39.35000000000004
100
AcDbArc
 50
106.9926512639137
 51
253.0073487360863
  0
LINE
  5
87
330
2
100
AcDbEntity
  8
GEB-VERDECKT
 48
25.0
100
AcDbLine
 10
-11.49999999999943
 20
38.93725722234163
 30
0.0
 11
-11.49999999999943
 21
37.63206744252614
 31
0.0
  0
LINE
  5
88
330
2
100
AcDbEntity
  8
GEB-VERDECKT
 48
25.0
100
AcDbLine
 10
-11.4999999999994
 20
37.63206744252517
 30
0.0
 11
-11.4999999999994
 21
36.32299547117237
 31
0.0
  0
LINE
  5
89
330
2
100
AcDbEntity
  8
GEB-VERDECKT
 48
25.0
100
AcDbLine
 10
11.50000000000065
 20
36.32299547117231
 30
0.0
 11
11.50000000000065
 21
37.63206744252514
 31
0.0
  0
LINE
  5
8A
330
2
100
AcDbEntity
  8
GEB-VERDECKT
 48
25.0
100
AcDbLine
 10
11.50000000000062
 20
37.63206744252611
 30
0.0
 11
11.50000000000062
 21
38.9372572223416
 31
0.0
  0
ARC
  5
8B
330
2
100
AcDbEntity
  8
GEB-VERDECKT
 48
25.0
100
AcDbCircle
 10
0.0000000000005684
 20
-0.0000000000154614
 30
0.0
 40
39.35000000000005
100
AcDbArc
 50
286.9926512639138
 51
73.00734873608625
  0
LINE
  5
8C
330
2
100
AcDbEntity
  8
GEB-VERDECKT
 48
25.0
100
AcDbLine
 10
-11.49999999999986
 20
40.59999999999599
 30
0.0
 11
-11.49999999999986
 21
38.93725722235306
 31
0.0
  0
LINE
  5
8D
330
2
100
AcDbEntity
  8
GEB-VERDECKT
 48
25.0
100
AcDbLine
 10
11.50000000000017
 20
40.59999999999599
 30
0.0
 11
-11.49999999999986
 21
40.59999999999599
 31
0.0
  0
LINE
  5
8E
330
2
100
AcDbEntity
  8
GEB-VERDECKT
 48
25.0
100
AcDbLine
 10
11.50000000000017
 20
38.93725722235302
 30
0.0
 11
11.50000000000017
 21
40.59999999999599
 31
0.0
  0
LINE
  5
8F
330
2
100
AcDbEntity
  8
GEB-VERDECKT
 48
25.0
100
AcDbLine
 10
-11.49999999999986
 20
-40.60000000000397
 30
0.0
 11
11.50000000000017
 21
-40.600000000004
 31
0.0
  0
LINE
  5
90
330
2
100
AcDbEntity
  8
GEB-VERDECKT
 48
25.0
100
AcDbLine
 10
11.50000000000059
 20
-38.93725722237252
 30
0.0
 11
11.50000000000059
 21
-37.63206744255706
 31
0.0
  0
LINE
  5
91
330
2
100
AcDbEntity
  8
GEB-VERDECKT
 48
25.0
100
AcDbLine
 10
11.50000000000062
 20
-37.632067442558
 30
0.0
 11
11.50000000000062
 21
-36.32299547120516
 31
0.0
  0
LINE
  5
92
330
2
100
AcDbEntity
  8
GEB-VERDECKT
 48
25.0
100
AcDbLine
 10
11.50000000000017
 20
-40.600000000004
 30
0.0
 11
11.50000000000017
 21
-38.9372572223611
 31
0.0
  0
LINE
  5
93
330
2
100
AcDbEntity
  8
GEB-VERDECKT
 48
25.0
100
AcDbLine
 10
-11.49999999999986
 20
-38.93725722236104
 30
0.0
 11
-11.49999999999986
 21
-40.60000000000397
 31
0.0
  0
LINE
  5
94
330
2
100
AcDbEntity
  8
GEB-VERDECKT
 48
25.0
100
AcDbLine
 10
-11.4999999999994
 20
-36.32299547120513
 30
0.0
 11
-11.4999999999994
 21
-37.63206744255797
 31
0.0
  0
LINE
  5
95
330
2
100
AcDbEntity
  8
GEB-VERDECKT
 48
25.0
100
AcDbLine
 10
-11.49999999999943
 20
-37.632067442557
 30
0.0
 11
-11.49999999999943
 21
-38.93725722237249
 31
0.0
  0
CIRCLE
  5
96
330
2
100
AcDbEntity
  8
GEB-KONTUR-A
 48
25.0
100
AcDbCircle
 10
0.0000000000003126
 20
0.0000000000011937
 30
0.0
 40
38.19999999999964
  0
CIRCLE
  5
97
330
2
100
AcDbEntity
  8
GEB-KONTUR-A
 48
25.0
100
AcDbCircle
 10
0.0
 20
0.0000000000010232
 30
0.0
 40
38.10000000000007
  0
LINE
  5
98
330
2
100
AcDbEntity
  8
GEB-VERDECKT
 48
25.0
100
AcDbLine
 10
-36.27919839612398
 20
18.07499999997748
 30
0.0
 11
-40.2751682865418
 21
18.07499999997753
 31
0.0
  0
LINE
  5
99
330
2
100
AcDbEntity
  8
GEB-VERDECKT
 48
25.0
100
AcDbLine
 10
-36.27919839612398
 20
-18.07500000002244
 30
0.0
 11
-40.2751682865418
 21
-18.07500000002238
 31
0.0
  0
LINE
  5
9A
330
2
100
AcDbEntity
  8
GEB-VERDECKT
 48
25.0
100
AcDbLine
 10
-40.25529405474412
 20
18.0692564251473
 30
0.0
 11
-44.44885319058622
 21
20.49348584871785
 31
0.0
  0
LINE
  5
9B
330
2
100
AcDbEntity
  8
GEB-VERDECKT
 48
25.0
100
AcDbLine
 10
-40.25529405474412
 20
-18.06925642519189
 30
0.0
 11
-44.44885319058622
 21
-20.49348584876236
 31
0.0
  0
LINE
  5
9C
330
2
100
AcDbEntity
  8
GEB-VERDECKT
 48
25.0
100
AcDbLine
 10
-44.47139381309532
 20
20.4999999999776
 30
0.0
 11
-75.24207903781692
 21
20.49999999997794
 31
0.0
  0
LINE
  5
9D
330
2
100
AcDbEntity
  8
GEB-VERDECKT
 48
25.0
100
AcDbLine
 10
-44.47139381309532
 20
-20.50000000002231
 30
0.0
 11
-75.24207903781692
 21
-20.50000000002194
 31
0.0
  0
LINE
  5
9E
330
2
100
AcDbEntity
  8
GEB-VERDECKT
 48
25.0
100
AcDbLine
 10
-75.24207903781692
 20
24.84999999997797
 30
0.0
 11
-83.93379856557913
 21
24.84999999997808
 31
0.0
  0
LINE
  5
9F
330
2
100
AcDbEntity
  8
GEB-VERDECKT
 48
25.0
100
AcDbLine
 10
-75.24207903781692
 20
-24.85000000002197
 30
0.0
 11
-83.93379856557913
 21
-24.85000000002179
 31
0.0
  0
LINE
  5
A0
330
2
100
AcDbEntity
  8
GEB-VERDECKT
 48
25.0
100
AcDbLine
 10
-83.93379856557913
 20
20.49999999997806
 30
0.0
 11
-89.42856378427942
 21
20.49999999997812
 31
0.0
  0
LINE
  5
A1
330
2
100
AcDbEntity
  8
GEB-VERDECKT
 48
25.0
100
AcDbLine
 10
-83.93379856557913
 20
-20.50000000002183
 30
0.0
 11
-89.42856378427942
 21
-20.50000000002174
 31
0.0
  0
SPLINE
  5
A2
330
2
100
AcDbEntity
  8
GEB-VERDECKT
 48
25.0
100
AcDbSpline
210
0.0
220
0.0
230
1.0
 70
     8
 71
     3
 72
    16
 73
    12
 74
     0
 42
0.0000000001
 43
0.0000000001
 40
2.852925225844603
 40
2.852925225844603
 40
2.852925225844603
 40
2.852925225844603
 40
2.968392196942677
 40
2.968392196942677
 40
3.08385916804075
 40
3.08385916804075
 40
3.199326139138824
 40
3.199326139138824
 40
3.314793110236898
 40
3.314793110236898
 40
3.430260081334971
 40
3.430260081334971
 40
3.430260081334971
 40
3.430260081334971
 10
-69.70114502756155
 20
-5.035232190574703
 30
0.0
 10
-69.70960528838247
 20
-4.382096932363822
 30
0.0
 10
-69.71641483578469
 20
-3.718083896743166
 30
0.0
 10
-69.7266502031789
 20
-2.376859413277941
 30
0.0
 10
-69.73007595067409
 20
-1.699652621758673
 30
0.0
 10
-69.73350172065829
 20
-0.3408137534336788
 30
0.0
 10
-69.73350172065829
 20
0.340813753375869
 30
0.0
 10
-69.73007595067409
 20
1.69965262170092
 30
0.0
 10
-69.7266502031789
 20
2.376859413220245
 30
0.0
 10
-69.71641483578469
 20
3.718083896685612
 30
0.0
 10
-69.70960528838247
 20
4.382096932306325
 30
0.0
 10
-69.70114502756155
 20
5.035232190517319
 30
0.0
  0
SPLINE
  5
A3
330
2
100
AcDbEntity
  8
GEB-VERDECKT
 48
25.0
100
AcDbSpline
210
0.0
220
0.0
230
1.0
 70
     8
 71
     3
 72
    16
 73
    12
 74
     0
 42
0.0000000001
 43
0.0000000001
 40
2.852925225844602
 40
2.852925225844602
 40
2.852925225844602
 40
2.852925225844602
 40
2.968392196942677
 40
2.968392196942677
 40
3.083859168040752
 40
3.083859168040752
 40
3.199326139138828
 40
3.199326139138828
 40
3.314793110236903
 40
3.314793110236903
 40
3.430260081334978
 40
3.430260081334978
 40
3.430260081334978
 40
3.430260081334978
 10
-63.95661775346576
 20
-5.035232190574816
 30
0.0
 10
-63.96507801428668
 20
-4.382096932363907
 30
0.0
 10
-63.97188756168893
 20
-3.71808389674328
 30
0.0
 10
-63.98212292908311
 20
-2.376859413277998
 30
0.0
 10
-63.98554867657833
 20
-1.69965262175873
 30
0.0
 10
-63.98897444656253
 20
-0.3408137534336788
 30
0.0
 10
-63.98897444656253
 20
0.340813753375869
 30
0.0
 10
-63.98554867657833
 20
1.69965262170092
 30
0.0
 10
-63.98212292908311
 20
2.376859413220245
 30
0.0
 10
-63.97188756168893
 20
3.718083896685641
 30
0.0
 10
-63.96507801428668
 20
4.382096932306353
 30
0.0
 10
-63.95661775346579
 20
5.035232190517405
 30
0.0
  0
SPLINE
  5
A4
330
2
100
AcDbEntity
  8
GEB-VERDECKT
 48
25.0
100
AcDbSpline
210
0.0
220
0.0
230
1.0
 70
     8
 71
     3
 72
    16
 73
    12
 74
     0
 42
0.0000000001
 43
0.0000000001
 40
2.852925225844605
 40
2.852925225844605
 40
2.852925225844605
 40
2.852925225844605
 40
2.968392196942679
 40
2.968392196942679
 40
3.083859168040753
 40
3.083859168040753
 40
3.199326139138827
 40
3.199326139138827
 40
3.314793110236901
 40
3.314793110236901
 40
3.430260081334974
 40
3.430260081334974
 40
3.430260081334974
 40
3.430260081334974
 10
-58.21209047937003
 20
-5.035232190574845
 30
0.0
 10
-58.22055074019099
 20
-4.382096932363907
 30
0.0
 10
-58.22736028759317
 20
-3.71808389674328
 30
0.0
 10
-58.23759565498739
 20
-2.376859413278083
 30
0.0
 10
-58.2410214024826
 20
-1.699652621758787
 30
0.0
 10
-58.24444717246677
 20
-0.3408137534337641
 30
0.0
 10
-58.24444717246677
 20
0.3408137533757838
 30
0.0
 10
-58.2410214024826
 20
1.699652621700806
 30
0.0
 10
-58.23759565498739
 20
2.376859413220131
 30
0.0
 10
-58.22736028759317
 20
3.718083896685527
 30
0.0
 10
-58.22055074019096
 20
4.382096932306211
 30
0.0
 10
-58.21209047937003
 20
5.035232190517263
 30
0.0
  0
SPLINE
  5
A5
330
2
100
AcDbEntity
  8
GEB-VERDECKT
 48
25.0
100
AcDbSpline
210
0.0
220
0.0
230
1.0
 70
     8
 71
     3
 72
    16
 73
    12
 74
     0
 42
0.0000000001
 43
0.0000000001
 40
2.852925225844604
 40
2.852925225844604
 40
2.852925225844604
 40
2.852925225844604
 40
2.96839219694268
 40
2.96839219694268
 40
3.083859168040756
 40
3.083859168040756
 40
3.199326139138833
 40
3.199326139138833
 40
3.314793110236909
 40
3.314793110236909
 40
3.430260081334985
 40
3.430260081334985
 40
3.430260081334985
 40
3.430260081334985
 10
-52.4675632052743
 20
-5.035232190574902
 30
0.0
 10
-52.47602346609522
 20
-4.382096932364021
 30
0.0
 10
-52.48283301349741
 20
-3.718083896743337
 30
0.0
 10
-52.49306838089165
 20
-2.376859413278111
 30
0.0
 10
-52.49649412838684
 20
-1.699652621758815
 30
0.0
 10
-52.49991989837105
 20
-0.3408137534337641
 30
0.0
 10
-52.49991989837105
 20
0.3408137533757838
 30
0.0
 10
-52.49649412838684
 20
1.699652621700863
 30
0.0
 10
-52.49306838089165
 20
2.376859413220188
 30
0.0
 10
-52.48283301349741
 20
3.718083896685584
 30
0.0
 10
-52.47602346609522
 20
4.382096932306325
 30
0.0
 10
-52.4675632052743
 20
5.035232190517376
 30
0.0
  0
LINE
  5
A6
330
2
100
AcDbEntity
  8
GEB-VERDECKT
 48
25.0
100
AcDbLine
 10
-31.38386211037281
 20
-20.50000000002251
 30
0.0
 11
-39.27634306086958
 21
-20.5000000000224
 31
0.0
  0
LINE
  5
A7
330
2
100
AcDbEntity
  8
GEB-VERDECKT
 48
25.0
100
AcDbLine
 10
-31.38386211037281
 20
20.49999999997741
 30
0.0
 11
-39.27634306086958
 21
20.49999999997752
 31
0.0
  0
ELLIPSE
  5
A8
330
2
100
AcDbEntity
  8
GEB-VERDECKT
 48
25.0
100
AcDbEllipse
 10
-40.2751682865418
 20
-0.0000000000224247
 30
0.0
 11
-0.0000000000000001
 21
18.07499999999995
 31
0.0
210
0.0
220
0.0
230
1.0
 40
0.0436193873653358
 41
0.0
 42
6.28318530717958
  0
ELLIPSE
  5
A9
330
2
100
AcDbEntity
  8
GEB-VERDECKT
 48
25.0
100
AcDbEllipse
 10
-44.47139381309532
 20
-0.0000000000223963
 30
0.0
 11
-0.0000000000000001
 21
20.49999999999995
 31
0.0
210
0.0
220
0.0
230
1.0
 40
0.0436193873653358
 41
0.0
 42
6.28318530717958
  0
ELLIPSE
  5
AA
330
2
100
AcDbEntity
  8
GEB-VERDECKT
 48
25.0
100
AcDbEllipse
 10
-75.2420790378169
 20
-0.0000000000219984
 30
0.0
 11
-0.0000000000000001
 21
20.49999999999995
 31
0.0
210
0.0
220
0.0
230
1.0
 40
0.0436193873653358
 41
0.0
 42
6.28318530717958
  0
ELLIPSE
  5
AB
330
2
100
AcDbEntity
  8
GEB-VERDECKT
 48
25.0
100
AcDbEllipse
 10
-75.2420790378169
 20
-0.0000000000219984
 30
0.0
 11
-0.0000000000000001
 21
24.84999999999994
 31
0.0
210
0.0
220
0.0
230
1.0
 40
0.0436193873653358
 41
0.0
 42
6.28318530717958
  0
ELLIPSE
  5
AC
330
2
100
AcDbEntity
  8
GEB-VERDECKT
 48
25.0
100
AcDbEllipse
 10
-83.93379856557913
 20
-0.0000000000218847
 30
0.0
 11
-0.0000000000000001
 21
24.84999999999994
 31
0.0
210
0.0
220
0.0
230
1.0
 40
0.0436193873653358
 41
0.0
 42
6.28318530717958
  0
ELLIPSE
  5
AD
330
2
100
AcDbEntity
  8
GEB-VERDECKT
 48
25.0
100
AcDbEllipse
 10
-83.93379856557913
 20
-0.0000000000218847
 30
0.0
 11
-0.0000000000000001
 21
20.49999999999995
 31
0.0
210
0.0
220
0.0
230
1.0
 40
0.0436193873653358
 41
0.0
 42
6.28318530717958
  0
ELLIPSE
  5
AE
330
2
100
AcDbEntity
  8
GEB-VERDECKT
 48
25.0
100
AcDbEllipse
 10
-85.93189500874292
 20
-0.0000000000218563
 30
0.0
 11
0.0000000000000099
 21
22.49999999999996
 31
0.0
210
0.0
220
0.0
230
1.0
 40
0.0436193873653359
 41
0.0
 42
3.141592653278475
  0
ELLIPSE
  5
AF
330
2
100
AcDbEntity
  8
GEB-VERDECKT
 48
25.0
100
AcDbEllipse
 10
-85.93189500874292
 20
-0.0000000000218563
 30
0.0
 11
-0.0000000000002277
 21
-26.84999999999995
 31
0.0
210
0.0
220
0.0
230
1.0
 40
0.0436193873653363
 41
3.718801833167786
 42
5.705976127449702
  0
ELLIPSE
  5
B0
330
2
100
AcDbEntity
  8
GEB-VERDECKT
 48
25.0
100
AcDbEllipse
 10
-41.77396361482425
 20
-0.0000000000224247
 30
0.0
 11
-0.0000000000002794
 21
-21.49999999999995
 31
0.0
210
0.0
220
0.0
230
1.0
 40
0.0436193873653358
 41
0.3812629424267058
 42
2.760329711163987
  0
ELLIPSE
  5
B1
330
2
100
AcDbEntity
  8
GEB-VERDECKT
 48
25.0
100
AcDbEllipse
 10
-39.27634306086958
 20
-0.0000000000224532
 30
0.0
 11
-0.0000000000002793
 21
-21.49999999999995
 31
0.0
210
0.0
220
0.0
230
1.0
 40
0.0436193873653358
 41
0.3812629424267058
 42
2.760329711163987
  0
LINE
  5
B2
330
2
100
AcDbEntity
  8
GEB-VERDECKT
 48
25.0
100
AcDbLine
 10
-41.42500851590159
 20
-21.02974084483307
 30
0.0
 11
-41.42500851590159
 21
-19.9562020434951
 31
0.0
  0
LINE
  5
B3
330
2
100
AcDbEntity
  8
GEB-VERDECKT
 48
25.0
100
AcDbLine
 10
-40.10972450665803
 20
-19.9562020434951
 30
0.0
 11
-38.92738796194689
 21
-19.95620204349512
 31
0.0
  0
LINE
  5
B4
330
2
100
AcDbEntity
  8
GEB-VERDECKT
 48
25.0
100
AcDbLine
 10
-41.42500851590159
 20
-19.9562020434951
 30
0.0
 11
-41.3206576441535
 21
-19.9562020434951
 31
0.0
  0
LINE
  5
B5
330
2
100
AcDbEntity
  8
GEB-VERDECKT
 48
25.0
100
AcDbLine
 10
-38.92738796194689
 20
-19.95620204349512
 30
0.0
 11
-38.92738796194689
 21
-18.87458608819688
 31
0.0
  0
LINE
  5
B6
330
2
100
AcDbEntity
  8
GEB-VERDECKT
 48
25.0
100
AcDbLine
 10
-38.74003097572336
 20
-22.50000000002001
 30
0.0
 11
-31.03490701145012
 21
-22.50000000002012
 31
0.0
  0
LINE
  5
B7
330
2
100
AcDbEntity
  8
GEB-VERDECKT
 48
25.0
100
AcDbLine
 10
-72.89502749573046
 20
-22.50000000001958
 30
0.0
 11
-72.60488413827113
 21
-22.50000000001958
 31
0.0
  0
LINE
  5
B8
330
2
100
AcDbEntity
  8
GEB-VERDECKT
 48
25.0
100
AcDbLine
 10
-31.03490701145012
 20
-22.50000000002012
 30
0.0
 11
-31.03490701145012
 21
-18.87458608819699
 31
0.0
  0
ELLIPSE
  5
B9
330
2
100
AcDbEntity
  8
GEB-VERDECKT
 48
25.0
100
AcDbEllipse
 10
-31.38386211037281
 20
-0.00000000002251
 30
0.0
 11
-0.0000000000002664
 21
-20.49999999999996
 31
0.0
210
0.0
220
0.0
230
1.0
 40
0.0436193873653359
 41
5.882288822874343
 42
6.684081791485543
  0
LINE
  5
BA
330
2
100
AcDbEntity
  8
GEB-VERDECKT
 48
25.0
100
AcDbLine
 10
-31.03490701145012
 20
-18.87458608819699
 30
0.0
 11
-38.92738796194689
 21
-18.87458608819688
 31
0.0
  0
ELLIPSE
  5
BB
330
2
100
AcDbEntity
  8
GEB-VERDECKT
 48
25.0
100
AcDbEllipse
 10
-39.27634306086958
 20
-0.0000000000224532
 30
0.0
 11
-0.0000000000002663
 21
-20.49999999999994
 31
0.0
210
0.0
220
0.0
230
1.0
 40
0.0436193873653358
 41
5.882288822874254
 42
6.684081791485491
  0
LINE
  5
BC
330
2
100
AcDbEntity
  8
GEB-VERDECKT
 48
25.0
100
AcDbLine
 10
-31.73281720929549
 20
-22.50000000002487
 30
0.0
 11
-31.73281720929549
 21
-18.87458608820174
 31
0.0
  0
LINE
  5
BD
330
2
100
AcDbEntity
  8
GEB-VERDECKT
 48
25.0
100
AcDbLine
 10
-39.62529815979224
 20
-18.87458608820165
 30
0.0
 11
-38.92738796194689
 21
-18.87458608820168
 31
0.0
  0
LINE
  5
BE
330
2
100
AcDbEntity
  8
GEB-VERDECKT
 48
25.0
100
AcDbLine
 10
-39.62529815979224
 20
-18.87458608820165
 30
0.0
 11
-39.62529815979229
 21
-19.9562020434999
 31
0.0
  0
LINE
  5
BF
330
2
100
AcDbEntity
  8
GEB-VERDECKT
 48
25.0
100
AcDbLine
 10
-41.42500851590159
 20
-19.95620204349987
 30
0.0
 11
-42.12291871374694
 21
-19.95620204349987
 31
0.0
  0
ELLIPSE
  5
C0
330
2
100
AcDbEntity
  8
GEB-VERDECKT
 48
25.0
100
AcDbEllipse
 10
-39.27634306086958
 20
-0.0000000000224532
 30
0.0
 11
0.0000000000002789
 21
21.49999999999995
 31
0.0
210
0.0
220
0.0
230
1.0
 40
0.0436193873653358
 41
0.3812629424265292
 42
2.76032971116381
  0
LINE
  5
C1
330
2
100
AcDbEntity
  8
GEB-VERDECKT
 48
25.0
100
AcDbLine
 10
-42.12291871374694
 20
-19.95620204349987
 30
0.0
 11
-42.12291871374694
 21
-21.02974084483782
 31
0.0
  0
ELLIPSE
  5
C2
330
2
100
AcDbEntity
  8
GEB-VERDECKT
 48
25.0
100
AcDbEllipse
 10
-41.77396361482425
 20
-0.0000000000224247
 30
0.0
 11
0.0000000000002789
 21
21.49999999999995
 31
0.0
210
0.0
220
0.0
230
1.0
 40
0.0436193873653358
 41
0.3812629424265292
 42
2.76032971116381
  0
SPLINE
  5
C3
330
2
100
AcDbEntity
  8
GEB-VERDECKT
 48
25.0
100
AcDbSpline
210
0.0
220
0.0
230
1.0
 70
     8
 71
     3
 72
    24
 73
    20
 74
     0
 42
0.0000000001
 43
0.0000000001
 40
0.0000055821876418
 40
0.0000055821876418
 40
0.0000055821876418
 40
0.0000055821876418
 40
0.0797062645507928
 40
0.0797062645507928
 40
0.1104873140283597
 40
0.1104873140283597
 40
0.1192869985898762
 40
0.1192869985898762
 40
0.1245841505066574
 40
0.1245841505066574
 40
0.1289625715540771
 40
0.1289625715540771
 40
0.1336538861313518
 40
0.1336538861313518
 40
0.1410144087418903
 40
0.1410144087418903
 40
0.1573264411730768
 40
0.1573264411730768
 40
0.2370684289283308
 40
0.2370684289283308
 40
0.2370684289283308
 40
0.2370684289283308
 10
-68.917422599498
 20
-16.13990987275821
 30
0.0
 10
-68.87963622822667
 20
-16.32385703375658
 30
0.0
 10
-68.83124794666011
 20
-16.47051698768769
 30
0.0
 10
-68.75600855040278
 20
-16.61037938484816
 30
0.0
 10
-68.72482273456353
 20
-16.65980765773866
 30
0.0
 10
-68.67495161514759
 20
-16.70126216966963
 30
0.0
 10
-68.66174137973039
 20
-16.71033019023895
 30
0.0
 10
-68.63793765102423
 20
-16.72055384428063
 30
0.0
 10
-68.62823210126498
 20
-16.72349428409885
 30
0.0
 10
-68.60934827974012
 20
-16.72595803476088
 30
0.0
 10
-68.60085862516314
 20
-16.72592197040194
 30
0.0
 10
-68.58342781208444
 20
-16.7234788679909
 30
0.0
 10
-68.57503123459204
 20
-16.72097724949174
 30
0.0
 10
-68.55516028041373
 20
-16.71260510891812
 30
0.0
 10
-68.5444545772298
 20
-16.70554151235052
 30
0.0
 10
-68.5151125175191
 20
-16.68176269510246
 30
0.0
 10
-68.49849497538236
 20
-16.66035792147099
 30
0.0
 10
-68.42336364755642
 20
-16.54491670935474
 30
0.0
 10
-68.37512571354088
 20
-16.37255070487453
 30
0.0
 10
-68.34823192132668
 20
-16.13990987275821
 30
0.0
  0
SPLINE
  5
C4
330
2
100
AcDbEntity
  8
GEB-VERDECKT
 48
25.0
100
AcDbSpline
210
0.0
220
0.0
230
1.0
 70
     8
 71
     3
 72
    16
 73
    12
 74
     0
 42
0.0000000001
 43
0.0000000001
 40
1.676880953268498
 40
1.676880953268498
 40
1.676880953268498
 40
1.676880953268498
 40
1.780979118027105
 40
1.780979118027105
 40
2.041461774906938
 40
2.041461774906938
 40
2.513255447205641
 40
2.513255447205641
 40
2.965658246933415
 40
2.965658246933415
 40
3.315140399756461
 40
3.315140399756461
 40
3.315140399756461
 40
3.315140399756461
 10
-69.72970181325476
 20
-0.0000000000287628
 30
0.0
 10
-69.72970181325476
 20
-0.3819863124116409
 30
0.0
 10
-69.72928072142505
 20
-0.7639799110080219
 30
0.0
 10
-69.72626332228194
 20
-2.100550213773487
 30
0.0
 10
-69.7214534781144
 20
-3.051405300908584
 30
0.0
 10
-69.69681400868845
 20
-5.696710705098041
 30
0.0
 10
-69.66867567618635
 20
-7.359638755958457
 30
0.0
 10
-69.55487457157642
 20
-10.47087016961211
 30
0.0
 10
-69.47196001158096
 20
-11.91515915630106
 30
0.0
 10
-69.23347483374775
 20
-14.28784488905975
 30
0.0
 10
-69.09942712307497
 20
-15.25389689309242
 30
0.0
 10
-68.917422599498
 20
-16.13990987275821
 30
0.0
  0
SPLINE
  5
C5
330
2
100
AcDbEntity
  8
GEB-VERDECKT
 48
25.0
100
AcDbSpline
210
0.0
220
0.0
230
1.0
 70
     8
 71
     3
 72
    14
 73
    10
 74
     0
 42
0.0000000001
 43
0.0000000001
 40
0.0010405006945536
 40
0.0010405006945536
 40
0.0010405006945536
 40
0.0010405006945536
 40
0.7997210698762079
 40
0.7997210698762079
 40
1.294895980592083
 40
1.294895980592083
 40
1.56056094427763
 40
1.56056094427763
 40
1.676880953268498
 40
1.676880953268498
 40
1.676880953268498
 40
1.676880953268498
 10
-68.917422599498
 20
16.13990987270472
 30
0.0
 10
-69.29613199896028
 20
14.29632139011807
 30
0.0
 10
-69.48725008223923
 20
12.02166948187516
 30
0.0
 10
-69.66156338558059
 20
7.704891821155655
 30
0.0
 10
-69.6931681062647
 20
5.966715671539589
 30
0.0
 10
-69.72037954306831
 20
3.222556655094564
 30
0.0
 10
-69.72563173206899
 20
2.253581214602917
 30
0.0
 10
-69.72917703443167
 20
0.8536591951092304
 30
0.0
 10
-69.72970181325476
 20
0.4268341463157129
 30
0.0
 10
-69.72970181325476
 20
-0.0000000000287628
 30
0.0
  0
SPLINE
  5
C6
330
2
100
AcDbEntity
  8
GEB-VERDECKT
 48
25.0
100
AcDbSpline
210
0.0
220
0.0
230
1.0
 70
     8
 71
     3
 72
    24
 73
    20
 74
     0
 42
0.0000000001
 43
0.0000000001
 40
0.0000055821876371
 40
0.0000055821876371
 40
0.0000055821876371
 40
0.0000055821876371
 40
0.0797062645507768
 40
0.0797062645507768
 40
0.1104873140283357
 40
0.1104873140283357
 40
0.1192869985898132
 40
0.1192869985898132
 40
0.124584150506654
 40
0.124584150506654
 40
0.1289625715541255
 40
0.1289625715541255
 40
0.1336538861313907
 40
0.1336538861313907
 40
0.1410144087418755
 40
0.1410144087418755
 40
0.1573264411730721
 40
0.1573264411730721
 40
0.2370684289279882
 40
0.2370684289279882
 40
0.2370684289279882
 40
0.2370684289279882
 10
-68.34823192132668
 20
16.13990987270472
 30
0.0
 10
-68.36949661798922
 20
16.32385703370317
 30
0.0
 10
-68.4041350205332
 20
16.47051698763445
 30
0.0
 10
-68.46608931492077
 20
16.61037938479498
 30
0.0
 10
-68.49253750241763
 20
16.65980765768552
 30
0.0
 10
-68.53840751287123
 20
16.70126216961645
 30
0.0
 10
-68.55074063120961
 20
16.7103301901858
 30
0.0
 10
-68.5735543408241
 20
16.72055384422759
 30
0.0
 10
-68.58297486402157
 20
16.72349428404572
 30
0.0
 10
-68.60161984620552
 20
16.72595803470773
 30
0.0
 10
-68.61011299838136
 20
16.72592197034885
 30
0.0
 10
-68.62778064594874
 20
16.72347886793778
 30
0.0
 10
-68.6364197073818
 20
16.72097724943867
 30
0.0
 10
-68.65710149618838
 20
16.71260510886497
 30
0.0
 10
-68.66849069683493
 20
16.70554151229734
 30
0.0
 10
-68.70012970903482
 20
16.68176269504931
 30
0.0
 10
-68.71880815675905
 20
16.66035792141792
 30
0.0
 10
-68.80500592497014
 20
16.54491670930156
 30
0.0
 10
-68.86963358874345
 20
16.37255070482132
 30
0.0
 10
-68.917422599498
 20
16.13990987270472
 30
0.0
  0
SPLINE
  5
C7
330
2
100
AcDbEntity
  8
GEB-VERDECKT
 48
25.0
100
AcDbSpline
210
0.0
220
0.0
230
1.0
 70
     8
 71
     3
 72
    16
 73
    12
 74
     0
 42
0.0000000001
 43
0.0000000001
 40
1.676880953268758
 40
1.676880953268758
 40
1.676880953268758
 40
1.676880953268758
 40
1.780979118027384
 40
1.780979118027384
 40
2.041461774907237
 40
2.041461774907237
 40
2.51325544720595
 40
2.51325544720595
 40
2.965658246933748
 40
2.965658246933748
 40
3.315140399756817
 40
3.315140399756817
 40
3.315140399756817
 40
3.315140399756817
 10
-68.13122465872379
 20
-0.0000000000287628
 30
0.0
 10
-68.13122465872379
 20
0.3819863123541154
 30
0.0
 10
-68.1307971287834
 20
0.7639799109504964
 30
0.0
 10
-68.12786998048392
 20
2.10055021371599
 30
0.0
 10
-68.12312646355093
 20
3.051405300851143
 30
0.0
 10
-68.10615744978861
 20
5.696710705040885
 30
0.0
 10
-68.09041304249916
 20
7.359638755901613
 30
0.0
 10
-68.08657185237414
 20
10.47087016955615
 30
0.0
 10
-68.09740087278604
 20
11.91515915624558
 30
0.0
 10
-68.18500114363775
 20
14.28784488900521
 30
0.0
 10
-68.24580687084261
 20
15.25389689303841
 30
0.0
 10
-68.34823192132668
 20
16.13990987270472
 30
0.0
  0
SPLINE
  5
C8
330
2
100
AcDbEntity
  8
GEB-VERDECKT
 48
25.0
100
AcDbSpline
210
0.0
220
0.0
230
1.0
 70
     8
 71
     3
 72
    14
 73
    10
 74
     0
 42
0.0000000001
 43
0.0000000001
 40
0.00104050069455
 40
0.00104050069455
 40
0.00104050069455
 40
0.00104050069455
 40
0.7997210698762909
 40
0.7997210698762909
 40
1.294895980592259
 40
1.294895980592259
 40
1.560560944277864
 40
1.560560944277864
 40
1.676880953268758
 40
1.676880953268758
 40
1.676880953268758
 40
1.676880953268758
 10
-68.34823192132668
 20
-16.13990987275821
 30
0.0
 10
-68.13510903516766
 20
-14.29632139017246
 30
0.0
 10
-68.08958909018679
 20
-12.0216694819305
 30
0.0
 10
-68.08748441530517
 20
-7.704891821212356
 30
0.0
 10
-68.10411245871612
 20
-5.966715671596602
 30
0.0
 10
-68.12217195955023
 20
-3.222556655151947
 30
0.0
 10
-68.12727642578562
 20
-2.253581214660357
 30
0.0
 10
-68.13068984965579
 20
-0.853659195166756
 30
0.0
 10
-68.13122465872379
 20
-0.4268341463732384
 30
0.0
 10
-68.13122465872379
 20
-0.0000000000287628
 30
0.0
  0
SPLINE
  5
C9
330
2
100
AcDbEntity
  8
GEB-VERDECKT
 48
25.0
100
AcDbSpline
210
0.0
220
0.0
230
1.0
 70
     8
 71
     3
 72
    24
 73
    20
 74
     0
 42
0.0000000001
 43
0.0000000001
 40
0.0000055821876419
 40
0.0000055821876419
 40
0.0000055821876419
 40
0.0000055821876419
 40
0.0797062645505069
 40
0.0797062645505069
 40
0.1104873140278859
 40
0.1104873140278859
 40
0.1192869985893094
 40
0.1192869985893094
 40
0.1245841505060605
 40
0.1245841505060605
 40
0.1289625715534667
 40
0.1289625715534667
 40
0.1336538861307285
 40
0.1336538861307285
 40
0.1410144087412548
 40
0.1410144087412548
 40
0.1573264411724262
 40
0.1573264411724262
 40
0.2370684289276523
 40
0.2370684289276523
 40
0.2370684289276523
 40
0.2370684289276523
 10
-63.17289532540221
 20
-16.13990987275826
 30
0.0
 10
-63.13510895413106
 20
-16.32385703375598
 30
0.0
 10
-63.08672067256452
 20
-16.4705169876874
 30
0.0
 10
-63.011481276307
 20
-16.61037938484827
 30
0.0
 10
-62.9802954604678
 20
-16.65980765773872
 30
0.0
 10
-62.93042434105186
 20
-16.70126216966966
 30
0.0
 10
-62.91721410563465
 20
-16.710330190239
 30
0.0
 10
-62.89341037692844
 20
-16.72055384428074
 30
0.0
 10
-62.88370482716922
 20
-16.7234942840989
 30
0.0
 10
-62.86482100564436
 20
-16.72595803476096
 30
0.0
 10
-62.85633135106741
 20
-16.72592197040202
 30
0.0
 10
-62.83890053798868
 20
-16.72347886799099
 30
0.0
 10
-62.83050396049628
 20
-16.72097724949182
 30
0.0
 10
-62.81063300631803
 20
-16.71260510891818
 30
0.0
 10
-62.79992730313404
 20
-16.70554151235058
 30
0.0
 10
-62.7705852434234
 20
-16.68176269510255
 30
0.0
 10
-62.7539677012866
 20
-16.66035792147107
 30
0.0
 10
-62.67883637346068
 20
-16.54491670935485
 30
0.0
 10
-62.63059843944512
 20
-16.37255070487467
 30
0.0
 10
-62.60370464723092
 20
-16.13990987275826
 30
0.0
  0
SPLINE
  5
CA
330
2
100
AcDbEntity
  8
GEB-VERDECKT
 48
25.0
100
AcDbSpline
210
0.0
220
0.0
230
1.0
 70
     8
 71
     3
 72
    16
 73
    12
 74
     0
 42
0.0000000001
 43
0.0000000001
 40
1.676880953268403
 40
1.676880953268403
 40
1.676880953268403
 40
1.676880953268403
 40
1.780979118027001
 40
1.780979118027001
 40
2.041461774906799
 40
2.041461774906799
 40
2.513255447205438
 40
2.513255447205438
 40
2.965658246933149
 40
2.965658246933149
 40
3.31514039975615
 40
3.31514039975615
 40
3.31514039975615
 40
3.31514039975615
 10
-63.98517453915906
 20
-0.000000000028848
 30
0.0
 10
-63.98517453915906
 20
-0.3819863124116978
 30
0.0
 10
-63.98475344732929
 20
-0.7639799110080788
 30
0.0
 10
-63.98173604818618
 20
-2.100550213773601
 30
0.0
 10
-63.97692620401864
 20
-3.051405300908697
 30
0.0
 10
-63.95228673459275
 20
-5.696710705098212
 30
0.0
 10
-63.92414840209062
 20
-7.35963875595857
 30
0.0
 10
-63.81034729748069
 20
-10.47087016961225
 30
0.0
 10
-63.7274327374852
 20
-11.9151591563012
 30
0.0
 10
-63.48894755965199
 20
-14.28784488905984
 30
0.0
 10
-63.35489984897918
 20
-15.2538968930925
 30
0.0
 10
-63.17289532540221
 20
-16.13990987275826
 30
0.0
  0
SPLINE
  5
CB
330
2
100
AcDbEntity
  8
GEB-VERDECKT
 48
25.0
100
AcDbSpline
210
0.0
220
0.0
230
1.0
 70
     8
 71
     3
 72
    14
 73
    10
 74
     0
 42
0.0000000001
 43
0.0000000001
 40
0.0010405006945528
 40
0.0010405006945528
 40
0.0010405006945528
 40
0.0010405006945528
 40
0.7997210698761671
 40
0.7997210698761671
 40
1.294895980591995
 40
1.294895980591995
 40
1.560560944277533
 40
1.560560944277533
 40
1.676880953268403
 40
1.676880953268403
 40
1.676880953268403
 40
1.676880953268403
 10
-63.17289532540221
 20
16.13990987270466
 30
0.0
 10
-63.55160472486449
 20
14.29632139011807
 30
0.0
 10
-63.74272280814344
 20
12.02166948187525
 30
0.0
 10
-63.91703611148483
 20
7.704891821155513
 30
0.0
 10
-63.94864083216893
 20
5.966715671539446
 30
0.0
 10
-63.97585226897255
 20
3.22255665509445
 30
0.0
 10
-63.9811044579732
 20
2.253581214602775
 30
0.0
 10
-63.98464976033591
 20
0.8536591951091736
 30
0.0
 10
-63.98517453915906
 20
0.426834146315656
 30
0.0
 10
-63.98517453915906
 20
-0.000000000028848
 30
0.0
  0
SPLINE
  5
CC
330
2
100
AcDbEntity
  8
GEB-VERDECKT
 48
25.0
100
AcDbSpline
210
0.0
220
0.0
230
1.0
 70
     8
 71
     3
 72
    24
 73
    20
 74
     0
 42
0.0000000001
 43
0.0000000001
 40
0.000005582187637
 40
0.000005582187637
 40
0.000005582187637
 40
0.000005582187637
 40
0.0797062645506737
 40
0.0797062645506737
 40
0.1104873140282086
 40
0.1104873140282086
 40
0.1192869985896641
 40
0.1192869985896641
 40
0.1245841505064243
 40
0.1245841505064243
 40
0.1289625715538297
 40
0.1289625715538297
 40
0.1336538861310641
 40
0.1336538861310641
 40
0.1410144087415127
 40
0.1410144087415127
 40
0.1573264411726752
 40
0.1573264411726752
 40
0.2370684289274711
 40
0.2370684289274711
 40
0.2370684289274711
 40
0.2370684289274711
 10
-62.60370464723092
 20
16.13990987270466
 30
0.0
 10
-62.62496934389344
 20
16.32385703370286
 30
0.0
 10
-62.65960774643739
 20
16.47051698763422
 30
0.0
 10
-62.72156204082503
 20
16.61037938479498
 30
0.0
 10
-62.74801022832187
 20
16.65980765768546
 30
0.0
 10
-62.79388023877544
 20
16.70126216961634
 30
0.0
 10
-62.80621335711384
 20
16.71033019018574
 30
0.0
 10
-62.82902706672823
 20
16.72055384422745
 30
0.0
 10
-62.83844758992578
 20
16.72349428404567
 30
0.0
 10
-62.85709257210979
 20
16.7259580347077
 30
0.0
 10
-62.86558572428569
 20
16.72592197034876
 30
0.0
 10
-62.88325337185302
 20
16.72347886793773
 30
0.0
 10
-62.89189243328604
 20
16.72097724943859
 30
0.0
 10
-62.91257422209262
 20
16.71260510886492
 30
0.0
 10
-62.92396342273923
 20
16.70554151229723
 30
0.0
 10
-62.95560243493913
 20
16.68176269504925
 30
0.0
 10
-62.97428088266332
 20
16.66035792141781
 30
0.0
 10
-63.06047865087444
 20
16.54491670930144
 30
0.0
 10
-63.12510631464769
 20
16.37255070482112
 30
0.0
 10
-63.17289532540221
 20
16.13990987270466
 30
0.0
  0
SPLINE
  5
CD
330
2
100
AcDbEntity
  8
GEB-VERDECKT
 48
25.0
100
AcDbSpline
210
0.0
220
0.0
230
1.0
 70
     8
 71
     3
 72
    16
 73
    12
 74
     0
 42
0.0000000001
 43
0.0000000001
 40
1.676880953268758
 40
1.676880953268758
 40
1.676880953268758
 40
1.676880953268758
 40
1.780979118027384
 40
1.780979118027384
 40
2.041461774907237
 40
2.041461774907237
 40
2.51325544720595
 40
2.51325544720595
 40
2.965658246933748
 40
2.965658246933748
 40
3.315140399756816
 40
3.315140399756816
 40
3.315140399756816
 40
3.315140399756816
 10
-62.38669738462807
 20
-0.000000000028848
 30
0.0
 10
-62.38669738462807
 20
0.3819863123540301
 30
0.0
 10
-62.38626985468764
 20
0.7639799109504111
 30
0.0
 10
-62.38334270638819
 20
2.100550213715905
 30
0.0
 10
-62.3785991894552
 20
3.051405300851087
 30
0.0
 10
-62.36163017569288
 20
5.696710705040828
 30
0.0
 10
-62.34588576840343
 20
7.359638755901556
 30
0.0
 10
-62.34204457827837
 20
10.47087016955606
 30
0.0
 10
-62.35287359869028
 20
11.91515915624549
 30
0.0
 10
-62.44047386954199
 20
14.28784488900516
 30
0.0
 10
-62.50127959674682
 20
15.25389689303836
 30
0.0
 10
-62.60370464723092
 20
16.13990987270466
 30
0.0
  0
SPLINE
  5
CE
330
2
100
AcDbEntity
  8
GEB-VERDECKT
 48
25.0
100
AcDbSpline
210
0.0
220
0.0
230
1.0
 70
     8
 71
     3
 72
    14
 73
    10
 74
     0
 42
0.0000000001
 43
0.0000000001
 40
0.0010405006945501
 40
0.0010405006945501
 40
0.0010405006945501
 40
0.0010405006945501
 40
0.7997210698762909
 40
0.7997210698762909
 40
1.294895980592259
 40
1.294895980592259
 40
1.560560944277864
 40
1.560560944277864
 40
1.676880953268758
 40
1.676880953268758
 40
1.676880953268758
 40
1.676880953268758
 10
-62.60370464723092
 20
-16.13990987275826
 30
0.0
 10
-62.3905817610719
 20
-14.29632139017255
 30
0.0
 10
-62.34506181609103
 20
-12.02166948193056
 30
0.0
 10
-62.34295714120941
 20
-7.704891821212413
 30
0.0
 10
-62.35958518462036
 20
-5.966715671596659
 30
0.0
 10
-62.37764468545453
 20
-3.222556655152004
 30
0.0
 10
-62.3827491516899
 20
-2.253581214660442
 30
0.0
 10
-62.38616257556003
 20
-0.8536591951668128
 30
0.0
 10
-62.38669738462807
 20
-0.4268341463733237
 30
0.0
 10
-62.38669738462807
 20
-0.000000000028848
 30
0.0
  0
SPLINE
  5
CF
330
2
100
AcDbEntity
  8
GEB-VERDECKT
 48
25.0
100
AcDbSpline
210
0.0
220
0.0
230
1.0
 70
     8
 71
     3
 72
    24
 73
    20
 74
     0
 42
0.0000000001
 43
0.0000000001
 40
0.0000055821876419
 40
0.0000055821876419
 40
0.0000055821876419
 40
0.0000055821876419
 40
0.0797062645506145
 40
0.0797062645506145
 40
0.110487314028043
 40
0.110487314028043
 40
0.1192869985894759
 40
0.1192869985894759
 40
0.1245841505062301
 40
0.1245841505062301
 40
0.1289625715536373
 40
0.1289625715536373
 40
0.1336538861309002
 40
0.1336538861309002
 40
0.1410144087414276
 40
0.1410144087414276
 40
0.1573264411725955
 40
0.1573264411725955
 40
0.2370684289277609
 40
0.2370684289277609
 40
0.2370684289277609
 40
0.2370684289277609
 10
-57.42836805130647
 20
-16.13990987275832
 30
0.0
 10
-57.39058168003527
 20
-16.3238570337563
 30
0.0
 10
-57.34219339846871
 20
-16.47051698768763
 30
0.0
 10
-57.26695400221126
 20
-16.61037938484833
 30
0.0
 10
-57.23576818637204
 20
-16.65980765773881
 30
0.0
 10
-57.18589706695616
 20
-16.70126216966969
 30
0.0
 10
-57.17268683153889
 20
-16.71033019023909
 30
0.0
 10
-57.14888310283268
 20
-16.7205538442808
 30
0.0
 10
-57.13917755307346
 20
-16.72349428409899
 30
0.0
 10
-57.1202937315486
 20
-16.72595803476102
 30
0.0
 10
-57.11180407697165
 20
-16.72592197040211
 30
0.0
 10
-57.09437326389291
 20
-16.72347886799105
 30
0.0
 10
-57.08597668640056
 20
-16.72097724949191
 30
0.0
 10
-57.06610573222227
 20
-16.71260510891826
 30
0.0
 10
-57.05540002903828
 20
-16.70554151235066
 30
0.0
 10
-57.02605796932761
 20
-16.68176269510263
 30
0.0
 10
-57.0094404271909
 20
-16.66035792147113
 30
0.0
 10
-56.93430909936492
 20
-16.54491670935493
 30
0.0
 10
-56.88607116534936
 20
-16.37255070487467
 30
0.0
 10
-56.8591773731352
 20
-16.13990987275832
 30
0.0
  0
SPLINE
  5
D0
330
2
100
AcDbEntity
  8
GEB-VERDECKT
 48
25.0
100
AcDbSpline
210
0.0
220
0.0
230
1.0
 70
     8
 71
     3
 72
    16
 73
    12
 74
     0
 42
0.0000000001
 43
0.0000000001
 40
1.676880953268417
 40
1.676880953268417
 40
1.676880953268417
 40
1.676880953268417
 40
1.780979118027016
 40
1.780979118027016
 40
2.041461774906816
 40
2.041461774906816
 40
2.513255447205459
 40
2.513255447205459
 40
2.965658246933175
 40
2.965658246933175
 40
3.315140399756177
 40
3.315140399756177
 40
3.315140399756177
 40
3.315140399756177
 10
-58.24064726506327
 20
-0.0000000000289333
 30
0.0
 10
-58.24064726506327
 20
-0.3819863124117546
 30
0.0
 10
-58.24022617323357
 20
-0.763979911008164
 30
0.0
 10
-58.23720877409042
 20
-2.100550213773686
 30
0.0
 10
-58.23239892992288
 20
-3.051405300908783
 30
0.0
 10
-58.20775946049699
 20
-5.696710705098269
 30
0.0
 10
-58.17962112799486
 20
-7.359638755958684
 30
0.0
 10
-58.0658200233849
 20
-10.47087016961231
 30
0.0
 10
-57.98290546338944
 20
-11.91515915630128
 30
0.0
 10
-57.74442028555623
 20
-14.28784488905989
 30
0.0
 10
-57.61037257488348
 20
-15.25389689309259
 30
0.0
 10
-57.42836805130647
 20
-16.13990987275832
 30
0.0
  0
SPLINE
  5
D1
330
2
100
AcDbEntity
  8
GEB-VERDECKT
 48
25.0
100
AcDbSpline
210
0.0
220
0.0
230
1.0
 70
     8
 71
     3
 72
    14
 73
    10
 74
     0
 42
0.0000000001
 43
0.0000000001
 40
0.0010405006945529
 40
0.0010405006945529
 40
0.0010405006945529
 40
0.0010405006945529
 40
0.799721069876172
 40
0.799721069876172
 40
1.294895980592006
 40
1.294895980592006
 40
1.560560944277546
 40
1.560560944277546
 40
1.676880953268417
 40
1.676880953268417
 40
1.676880953268417
 40
1.676880953268417
 10
-57.42836805130647
 20
16.13990987270458
 30
0.0
 10
-57.80707745076876
 20
14.29632139011801
 30
0.0
 10
-57.99819553404768
 20
12.02166948187513
 30
0.0
 10
-58.1725088373891
 20
7.704891821155428
 30
0.0
 10
-58.2041135580732
 20
5.966715671539361
 30
0.0
 10
-58.23132499487678
 20
3.222556655094365
 30
0.0
 10
-58.23657718387747
 20
2.253581214602718
 30
0.0
 10
-58.24012248624018
 20
0.8536591951090883
 30
0.0
 10
-58.24064726506327
 20
0.4268341463155707
 30
0.0
 10
-58.24064726506327
 20
-0.0000000000289333
 30
0.0
  0
SPLINE
  5
D2
330
2
100
AcDbEntity
  8
GEB-VERDECKT
 48
25.0
100
AcDbSpline
210
0.0
220
0.0
230
1.0
 70
     8
 71
     3
 72
    24
 73
    20
 74
     0
 42
0.0000000001
 43
0.0000000001
 40
0.0000055821876371
 40
0.0000055821876371
 40
0.0000055821876371
 40
0.0000055821876371
 40
0.0797062645506976
 40
0.0797062645506976
 40
0.1104873140282398
 40
0.1104873140282398
 40
0.1192869985897107
 40
0.1192869985897107
 40
0.1245841505064798
 40
0.1245841505064798
 40
0.1289625715538937
 40
0.1289625715538937
 40
0.1336538861311416
 40
0.1336538861311416
 40
0.1410144087416064
 40
0.1410144087416064
 40
0.1573264411727619
 40
0.1573264411727619
 40
0.2370684289275557
 40
0.2370684289275557
 40
0.2370684289275557
 40
0.2370684289275557
 10
-56.8591773731352
 20
16.13990987270458
 30
0.0
 10
-56.88044206979771
 20
16.32385703370286
 30
0.0
 10
-56.91508047234169
 20
16.4705169876342
 30
0.0
 10
-56.97703476672927
 20
16.61037938479492
 30
0.0
 10
-57.00348295422611
 20
16.65980765768537
 30
0.0
 10
-57.04935296467974
 20
16.70126216961631
 30
0.0
 10
-57.06168608301812
 20
16.71033019018566
 30
0.0
 10
-57.08449979263247
 20
16.72055384422737
 30
0.0
 10
-57.09392031583002
 20
16.72349428404558
 30
0.0
 10
-57.11256529801403
 20
16.72595803470762
 30
0.0
 10
-57.12105845018993
 20
16.72592197034871
 30
0.0
 10
-57.13872609775726
 20
16.72347886793767
 30
0.0
 10
-57.14736515919032
 20
16.72097724943853
 30
0.0
 10
-57.16804694799686
 20
16.71260510886483
 30
0.0
 10
-57.17943614864345
 20
16.7055415122972
 30
0.0
 10
-57.21107516084334
 20
16.6817626950492
 30
0.0
 10
-57.22975360856756
 20
16.66035792141775
 30
0.0
 10
-57.31595137677874
 20
16.54491670930133
 30
0.0
 10
-57.38057904055199
 20
16.37255070482095
 30
0.0
 10
-57.42836805130647
 20
16.13990987270458
 30
0.0
  0
SPLINE
  5
D3
330
2
100
AcDbEntity
  8
GEB-VERDECKT
 48
25.0
100
AcDbSpline
210
0.0
220
0.0
230
1.0
 70
     8
 71
     3
 72
    16
 73
    12
 74
     0
 42
0.0000000001
 43
0.0000000001
 40
1.676880953268603
 40
1.676880953268603
 40
1.676880953268603
 40
1.676880953268603
 40
1.780979118027195
 40
1.780979118027195
 40
2.041461774906967
 40
2.041461774906967
 40
2.513255447205566
 40
2.513255447205566
 40
2.965658246933252
 40
2.965658246933252
 40
3.31514039975623
 40
3.31514039975623
 40
3.31514039975623
 40
3.31514039975623
 10
-56.64217011053231
 20
-0.0000000000289333
 30
0.0
 10
-56.64217011053231
 20
0.3819863123539164
 30
0.0
 10
-56.64174258059188
 20
0.7639799109503258
 30
0.0
 10
-56.63881543229243
 20
2.100550213715962
 30
0.0
 10
-56.63407191535944
 20
3.051405300851087
 30
0.0
 10
-56.61710290159712
 20
5.6967107050408
 30
0.0
 10
-56.60135849430767
 20
7.359638755901471
 30
0.0
 10
-56.59751730418261
 20
10.47087016955598
 30
0.0
 10
-56.60834632459452
 20
11.91515915624541
 30
0.0
 10
-56.69594659544623
 20
14.28784488900507
 30
0.0
 10
-56.75675232265112
 20
15.2538968930383
 30
0.0
 10
-56.8591773731352
 20
16.13990987270458
 30
0.0
  0
SPLINE
  5
D4
330
2
100
AcDbEntity
  8
GEB-VERDECKT
 48
25.0
100
AcDbSpline
210
0.0
220
0.0
230
1.0
 70
     8
 71
     3
 72
    14
 73
    10
 74
     0
 42
0.0000000001
 43
0.0000000001
 40
0.0010405006945506
 40
0.0010405006945506
 40
0.0010405006945506
 40
0.0010405006945506
 40
0.7997210698762415
 40
0.7997210698762415
 40
1.294895980592154
 40
1.294895980592154
 40
1.56056094427773
 40
1.56056094427773
 40
1.676880953268603
 40
1.676880953268603
 40
1.676880953268603
 40
1.676880953268603
 10
-56.8591773731352
 20
-16.13990987275832
 30
0.0
 10
-56.64605448697614
 20
-14.29632139017272
 30
0.0
 10
-56.60053454199527
 20
-12.02166948193081
 30
0.0
 10
-56.59842986711365
 20
-7.70489182121247
 30
0.0
 10
-56.61505791052459
 20
-5.966715671596745
 30
0.0
 10
-56.63311741135877
 20
-3.222556655152118
 30
0.0
 10
-56.63822187759413
 20
-2.253581214660556
 30
0.0
 10
-56.64163530146431
 20
-0.8536591951669265
 30
0.0
 10
-56.64217011053231
 20
-0.4268341463734089
 30
0.0
 10
-56.64217011053231
 20
-0.0000000000289333
 30
0.0
  0
SPLINE
  5
D5
330
2
100
AcDbEntity
  8
GEB-VERDECKT
 48
25.0
100
AcDbSpline
210
0.0
220
0.0
230
1.0
 70
     8
 71
     3
 72
    24
 73
    20
 74
     0
 42
0.0000000001
 43
0.0000000001
 40
0.0000055821876419
 40
0.0000055821876419
 40
0.0000055821876419
 40
0.0000055821876419
 40
0.0797062645506081
 40
0.0797062645506081
 40
0.1104873140280388
 40
0.1104873140280388
 40
0.1192869985894973
 40
0.1192869985894973
 40
0.1245841505062383
 40
0.1245841505062383
 40
0.1289625715536254
 40
0.1289625715536254
 40
0.1336538861308641
 40
0.1336538861308641
 40
0.1410144087413495
 40
0.1410144087413495
 40
0.1573264411724176
 40
0.1573264411724176
 40
0.2370684289270919
 40
0.2370684289270919
 40
0.2370684289270919
 40
0.2370684289270919
 10
-51.68384077721071
 20
-16.13990987275841
 30
0.0
 10
-51.64605440593951
 20
-16.32385703375635
 30
0.0
 10
-51.59766612437294
 20
-16.47051698768769
 30
0.0
 10
-51.5224267281155
 20
-16.61037938484838
 30
0.0
 10
-51.49124091227628
 20
-16.65980765773889
 30
0.0
 10
-51.44136979286037
 20
-16.7012621696698
 30
0.0
 10
-51.42815955744317
 20
-16.71033019023917
 30
0.0
 10
-51.40435582873701
 20
-16.72055384428086
 30
0.0
 10
-51.39465027897776
 20
-16.72349428409904
 30
0.0
 10
-51.3757664574529
 20
-16.7259580347611
 30
0.0
 10
-51.36727680287589
 20
-16.72592197040217
 30
0.0
 10
-51.34984598979719
 20
-16.72347886799113
 30
0.0
 10
-51.3414494123048
 20
-16.72097724949196
 30
0.0
 10
-51.32157845812651
 20
-16.71260510891835
 30
0.0
 10
-51.31087275494252
 20
-16.70554151235078
 30
0.0
 10
-51.28153069523185
 20
-16.68176269510269
 30
0.0
 10
-51.26491315309514
 20
-16.66035792147119
 30
0.0
 10
-51.18978182526916
 20
-16.54491670935496
 30
0.0
 10
-51.1415438912536
 20
-16.37255070487472
 30
0.0
 10
-51.11465009903946
 20
-16.13990987275841
 30
0.0
  0
SPLINE
  5
D6
330
2
100
AcDbEntity
  8
GEB-VERDECKT
 48
25.0
100
AcDbSpline
210
0.0
220
0.0
230
1.0
 70
     8
 71
     3
 72
    16
 73
    12
 74
     0
 42
0.0000000001
 43
0.0000000001
 40
1.676880953268403
 40
1.676880953268403
 40
1.676880953268403
 40
1.676880953268403
 40
1.780979118027001
 40
1.780979118027001
 40
2.041461774906798
 40
2.041461774906798
 40
2.513255447205436
 40
2.513255447205436
 40
2.965658246933148
 40
2.965658246933148
 40
3.315140399756146
 40
3.315140399756146
 40
3.315140399756146
 40
3.315140399756146
 10
-52.49611999096754
 20
-0.0000000000289901
 30
0.0
 10
-52.49611999096754
 20
-0.3819863124118399
 30
0.0
 10
-52.49569889913781
 20
-0.7639799110082209
 30
0.0
 10
-52.49268149999466
 20
-2.100550213773743
 30
0.0
 10
-52.48787165582712
 20
-3.051405300908839
 30
0.0
 10
-52.46323218640123
 20
-5.696710705098325
 30
0.0
 10
-52.4350938538991
 20
-7.359638755958741
 30
0.0
 10
-52.32129274928917
 20
-10.47087016961239
 30
0.0
 10
-52.23837818929371
 20
-11.91515915630134
 30
0.0
 10
-51.99989301146047
 20
-14.28784488905995
 30
0.0
 10
-51.86584530078772
 20
-15.25389689309264
 30
0.0
 10
-51.68384077721071
 20
-16.13990987275841
 30
0.0
  0
SPLINE
  5
D7
330
2
100
AcDbEntity
  8
GEB-VERDECKT
 48
25.0
100
AcDbSpline
210
0.0
220
0.0
230
1.0
 70
     8
 71
     3
 72
    14
 73
    10
 74
     0
 42
0.0000000001
 43
0.0000000001
 40
0.0010405006945528
 40
0.0010405006945528
 40
0.0010405006945528
 40
0.0010405006945528
 40
0.7997210698761671
 40
0.7997210698761671
 40
1.294895980591995
 40
1.294895980591995
 40
1.560560944277533
 40
1.560560944277533
 40
1.676880953268403
 40
1.676880953268403
 40
1.676880953268403
 40
1.676880953268403
 10
-51.68384077721071
 20
16.13990987270452
 30
0.0
 10
-52.062550176673
 20
14.29632139011795
 30
0.0
 10
-52.25366825995195
 20
12.02166948187511
 30
0.0
 10
-52.42798156329334
 20
7.704891821155371
 30
0.0
 10
-52.45958628397744
 20
5.966715671539304
 30
0.0
 10
-52.48679772078102
 20
3.222556655094308
 30
0.0
 10
-52.49204990978171
 20
2.253581214602633
 30
0.0
 10
-52.49559521214442
 20
0.8536591951090315
 30
0.0
 10
-52.49611999096754
 20
0.4268341463155139
 30
0.0
 10
-52.49611999096754
 20
-0.0000000000289901
 30
0.0
  0
SPLINE
  5
D8
330
2
100
AcDbEntity
  8
GEB-VERDECKT
 48
25.0
100
AcDbSpline
210
0.0
220
0.0
230
1.0
 70
     8
 71
     3
 72
    24
 73
    20
 74
     0
 42
0.0000000001
 43
0.0000000001
 40
0.000005582187637
 40
0.000005582187637
 40
0.000005582187637
 40
0.000005582187637
 40
0.0797062645506434
 40
0.0797062645506434
 40
0.1104873140281618
 40
0.1104873140281618
 40
0.119286998589618
 40
0.119286998589618
 40
0.1245841505063791
 40
0.1245841505063791
 40
0.1289625715537855
 40
0.1289625715537855
 40
0.1336538861310228
 40
0.1336538861310228
 40
0.141014408741467
 40
0.141014408741467
 40
0.1573264411725743
 40
0.1573264411725743
 40
0.2370684289271673
 40
0.2370684289271673
 40
0.2370684289271673
 40
0.2370684289271673
 10
-51.11465009903946
 20
16.13990987270452
 30
0.0
 10
-51.13591479570195
 20
16.32385703370264
 30
0.0
 10
-51.1705531982459
 20
16.47051698763405
 30
0.0
 10
-51.23250749263357
 20
16.61037938479489
 30
0.0
 10
-51.25895568013039
 20
16.65980765768529
 30
0.0
 10
-51.30482569058398
 20
16.7012621696162
 30
0.0
 10
-51.31715880892236
 20
16.71033019018557
 30
0.0
 10
-51.33997251853674
 20
16.72055384422731
 30
0.0
 10
-51.34939304173426
 20
16.7234942840455
 30
0.0
 10
-51.3680380239183
 20
16.72595803470756
 30
0.0
 10
-51.37653117609421
 20
16.72592197034862
 30
0.0
 10
-51.3941988236615
 20
16.72347886793756
 30
0.0
 10
-51.40283788509456
 20
16.72097724943848
 30
0.0
 10
-51.42351967390107
 20
16.71260510886475
 30
0.0
 10
-51.43490887454769
 20
16.70554151229711
 30
0.0
 10
-51.46654788674758
 20
16.68176269504911
 30
0.0
 10
-51.4852263344718
 20
16.66035792141767
 30
0.0
 10
-51.57142410268296
 20
16.54491670930127
 30
0.0
 10
-51.63605176645623
 20
16.37255070482095
 30
0.0
 10
-51.68384077721071
 20
16.13990987270452
 30
0.0
  0
SPLINE
  5
D9
330
2
100
AcDbEntity
  8
GEB-VERDECKT
 48
25.0
100
AcDbSpline
210
0.0
220
0.0
230
1.0
 70
     8
 71
     3
 72
    16
 73
    12
 74
     0
 42
0.0000000001
 43
0.0000000001
 40
1.676880953268758
 40
1.676880953268758
 40
1.676880953268758
 40
1.676880953268758
 40
1.780979118027384
 40
1.780979118027384
 40
2.041461774907237
 40
2.041461774907237
 40
2.51325544720595
 40
2.51325544720595
 40
2.965658246933748
 40
2.965658246933748
 40
3.315140399756817
 40
3.315140399756817
 40
3.315140399756817
 40
3.315140399756817
 10
-50.89764283643654
 20
-0.0000000000289901
 30
0.0
 10
-50.89764283643654
 20
0.381986312353888
 30
0.0
 10
-50.89721530649615
 20
0.7639799109502974
 30
0.0
 10
-50.89428815819667
 20
2.100550213715763
 30
0.0
 10
-50.88954464126371
 20
3.051405300850944
 30
0.0
 10
-50.87257562750142
 20
5.696710705040686
 30
0.0
 10
-50.85683122021191
 20
7.359638755901357
 30
0.0
 10
-50.85299003008685
 20
10.47087016955595
 30
0.0
 10
-50.86381905049876
 20
11.91515915624535
 30
0.0
 10
-50.95141932135047
 20
14.28784488900501
 30
0.0
 10
-51.01222504855536
 20
15.25389689303821
 30
0.0
 10
-51.11465009903946
 20
16.13990987270452
 30
0.0
  0
SPLINE
  5
DA
330
2
100
AcDbEntity
  8
GEB-VERDECKT
 48
25.0
100
AcDbSpline
210
0.0
220
0.0
230
1.0
 70
     8
 71
     3
 72
    14
 73
    10
 74
     0
 42
0.0000000001
 43
0.0000000001
 40
0.00104050069455
 40
0.00104050069455
 40
0.00104050069455
 40
0.00104050069455
 40
0.7997210698762909
 40
0.7997210698762909
 40
1.294895980592259
 40
1.294895980592259
 40
1.560560944277864
 40
1.560560944277864
 40
1.676880953268758
 40
1.676880953268758
 40
1.676880953268758
 40
1.676880953268758
 10
-51.11465009903946
 20
-16.13990987275841
 30
0.0
 10
-50.90152721288041
 20
-14.29632139017269
 30
0.0
 10
-50.85600726789954
 20
-12.0216694819307
 30
0.0
 10
-50.85390259301795
 20
-7.704891821212555
 30
0.0
 10
-50.87053063642883
 20
-5.96671567159683
 30
0.0
 10
-50.88859013726301
 20
-3.222556655152146
 30
0.0
 10
-50.89369460349837
 20
-2.253581214660584
 30
0.0
 10
-50.89710802736854
 20
-0.8536591951669834
 30
0.0
 10
-50.89764283643654
 20
-0.4268341463734373
 30
0.0
 10
-50.89764283643654
 20
-0.0000000000289901
 30
0.0
  0
LINE
  5
DB
330
2
100
AcDbEntity
  8
GEB-VERDECKT
 48
25.0
100
AcDbLine
 10
-72.89502749573046
 20
-21.02974084483745
 30
0.0
 11
-73.59293769357583
 21
-21.02974084483745
 31
0.0
  0
ELLIPSE
  5
DC
330
2
100
AcDbEntity
  8
GEB-VERDECKT
 48
25.0
100
AcDbEllipse
 10
-41.77396361482425
 20
-0.0000000000224247
 30
0.0
 11
0.0000000000002922
 21
22.49999999999996
 31
0.0
210
0.0
220
0.0
230
1.0
 40
0.0436193873653358
 41
0.3635083964130088
 42
2.778084257177527
  0
ELLIPSE
  5
DD
330
2
100
AcDbEntity
  8
GEB-VERDECKT
 48
25.0
100
AcDbEllipse
 10
-41.77396361482425
 20
-0.0000000000224247
 30
0.0
 11
0.000000000000191
 21
22.49999999999996
 31
0.0
210
0.0
220
0.0
230
1.0
 40
0.0436193873653358
 41
3.808902612113586
 42
5.615875348522761
  0
LINE
  5
DE
330
2
100
AcDbEntity
  8
GEB-VERDECKT
 48
25.0
100
AcDbLine
 10
-72.89502749573046
 20
-21.02974084483268
 30
0.0
 11
-72.51582292946011
 21
-21.02974084483268
 31
0.0
  0
SPLINE
  5
DF
330
2
100
AcDbEntity
  8
GEB-VERDECKT
 48
25.0
100
AcDbSpline
210
0.0
220
0.0
230
1.0
 70
     8
 71
     3
 72
    12
 73
     8
 74
     0
 42
0.0000000001
 43
0.0000000001
 40
1.676880953268575
 40
1.676880953268575
 40
1.676880953268575
 40
1.676880953268575
 40
1.780979118027185
 40
1.780979118027185
 40
2.04146177490701
 40
2.04146177490701
 40
2.138197498438832
 40
2.138197498438832
 40
2.138197498438832
 40
2.138197498438832
 10
-48.93477040499641
 20
-0.0000000000156319
 30
0.0
 10
-48.93477040499641
 20
-0.3819863123985101
 30
0.0
 10
-48.93519149682615
 20
-0.7639799109949479
 30
0.0
 10
-48.9382088959693
 20
-2.100550213760357
 30
0.0
 10
-48.94301874013684
 20
-3.051405300895567
 30
0.0
 10
-48.95503834395552
 20
-4.341835804417314
 30
0.0
 10
-48.95880885255832
 20
-4.689547506014577
 30
0.0
 10
-48.96324743656444
 20
-5.035231942646447
 30
0.0
  0
SPLINE
  5
E0
330
2
100
AcDbEntity
  8
GEB-VERDECKT
 48
25.0
100
AcDbSpline
210
0.0
220
0.0
230
1.0
 70
     8
 71
     3
 72
    12
 73
     8
 74
     0
 42
0.0000000001
 43
0.0000000001
 40
1.215570127766049
 40
1.215570127766049
 40
1.215570127766049
 40
1.215570127766049
 40
1.294895980592142
 40
1.294895980592142
 40
1.560560944277708
 40
1.560560944277708
 40
1.676880953268575
 40
1.676880953268575
 40
1.676880953268575
 40
1.676880953268575
 10
-48.96326241540532
 20
5.035231958099586
 30
0.0
 10
-48.95962494610285
 20
4.751734092442035
 30
0.0
 10
-48.95643127114403
 20
4.466852191623473
 30
0.0
 10
-48.94409267518293
 20
3.222556655107609
 30
0.0
 10
-48.93884048618227
 20
2.253581214616104
 30
0.0
 10
-48.93529518381956
 20
0.8536591951223897
 30
0.0
 10
-48.93477040499641
 20
0.4268341463288153
 30
0.0
 10
-48.93477040499641
 20
-0.0000000000156319
 30
0.0
  0
SPLINE
  5
E1
330
2
100
AcDbEntity
  8
GEB-VERDECKT
 48
25.0
100
AcDbSpline
210
0.0
220
0.0
230
1.0
 70
     8
 71
     3
 72
    12
 73
     8
 74
     0
 42
0.0000000001
 43
0.0000000001
 40
1.676880953268539
 40
1.676880953268539
 40
1.676880953268539
 40
1.676880953268539
 40
1.780979118027128
 40
1.780979118027128
 40
2.041461774906926
 40
2.041461774906926
 40
2.138197498438689
 40
2.138197498438689
 40
2.138197498438689
 40
2.138197498438689
 10
-54.67929767909217
 20
-0.0000000000155751
 30
0.0
 10
-54.67929767909217
 20
-0.3819863123983964
 30
0.0
 10
-54.67971877092191
 20
-0.7639799109948058
 30
0.0
 10
-54.68273617006502
 20
-2.10055021376047
 30
0.0
 10
-54.68754601423256
 20
-3.051405300895567
 30
0.0
 10
-54.69956561805128
 20
-4.341835804417002
 30
0.0
 10
-54.70333612665408
 20
-4.689547506014093
 30
0.0
 10
-54.7077747106602
 20
-5.035231942645737
 30
0.0
  0
SPLINE
  5
E2
330
2
100
AcDbEntity
  8
GEB-VERDECKT
 48
25.0
100
AcDbSpline
210
0.0
220
0.0
230
1.0
 70
     8
 71
     3
 72
    12
 73
     8
 74
     0
 42
0.0000000001
 43
0.0000000001
 40
1.215570127766052
 40
1.215570127766052
 40
1.215570127766052
 40
1.215570127766052
 40
1.294895980592123
 40
1.294895980592123
 40
1.56056094427768
 40
1.56056094427768
 40
1.676880953268539
 40
1.676880953268539
 40
1.676880953268539
 40
1.676880953268539
 10
-54.70778968950108
 20
5.035231958099444
 30
0.0
 10
-54.70415222019858
 20
4.751734092441949
 30
0.0
 10
-54.70095854523975
 20
4.466852191623473
 30
0.0
 10
-54.68861994927869
 20
3.222556655107666
 30
0.0
 10
-54.68336776027797
 20
2.25358121461619
 30
0.0
 10
-54.67982245791529
 20
0.8536591951224465
 30
0.0
 10
-54.67929767909217
 20
0.4268341463289289
 30
0.0
 10
-54.67929767909217
 20
-0.0000000000155751
 30
0.0
  0
SPLINE
  5
E3
330
2
100
AcDbEntity
  8
GEB-VERDECKT
 48
25.0
100
AcDbSpline
210
0.0
220
0.0
230
1.0
 70
     8
 71
     3
 72
    12
 73
     8
 74
     0
 42
0.0000000001
 43
0.0000000001
 40
1.676880953268539
 40
1.676880953268539
 40
1.676880953268539
 40
1.676880953268539
 40
1.780979118027127
 40
1.780979118027127
 40
2.041461774906925
 40
2.041461774906925
 40
2.138197498438699
 40
2.138197498438699
 40
2.138197498438699
 40
2.138197498438699
 10
-60.42382495318793
 20
-0.0000000000154614
 30
0.0
 10
-60.42382495318793
 20
-0.3819863123983396
 30
0.0
 10
-60.42424604501767
 20
-0.7639799109947206
 30
0.0
 10
-60.42726344416078
 20
-2.100550213760385
 30
0.0
 10
-60.43207328832832
 20
-3.051405300895481
 30
0.0
 10
-60.44409289214701
 20
-4.341835804416973
 30
0.0
 10
-60.44786340074984
 20
-4.689547506014093
 30
0.0
 10
-60.45230198475593
 20
-5.035231942645765
 30
0.0
  0
SPLINE
  5
E4
330
2
100
AcDbEntity
  8
GEB-VERDECKT
 48
25.0
100
AcDbSpline
210
0.0
220
0.0
230
1.0
 70
     8
 71
     3
 72
    12
 73
     8
 74
     0
 42
0.0000000001
 43
0.0000000001
 40
1.215570127766062
 40
1.215570127766062
 40
1.215570127766062
 40
1.215570127766062
 40
1.294895980592123
 40
1.294895980592123
 40
1.560560944277679
 40
1.560560944277679
 40
1.676880953268539
 40
1.676880953268539
 40
1.676880953268539
 40
1.676880953268539
 10
-60.45231696359678
 20
5.035231958099416
 30
0.0
 10
-60.44867949429431
 20
4.751734092441949
 30
0.0
 10
-60.44548581933551
 20
4.466852191623502
 30
0.0
 10
-60.43314722337441
 20
3.222556655107723
 30
0.0
 10
-60.42789503437373
 20
2.253581214616247
 30
0.0
 10
-60.42434973201105
 20
0.8536591951225318
 30
0.0
 10
-60.42382495318793
 20
0.4268341463290142
 30
0.0
 10
-60.42382495318793
 20
-0.0000000000154614
 30
0.0
  0
SPLINE
  5
E5
330
2
100
AcDbEntity
  8
GEB-VERDECKT
 48
25.0
100
AcDbSpline
210
0.0
220
0.0
230
1.0
 70
     8
 71
     3
 72
    12
 73
     8
 74
     0
 42
0.0000000001
 43
0.0000000001
 40
1.676880953268539
 40
1.676880953268539
 40
1.676880953268539
 40
1.676880953268539
 40
1.780979118027127
 40
1.780979118027127
 40
2.041461774906925
 40
2.041461774906925
 40
2.138197498438722
 40
2.138197498438722
 40
2.138197498438722
 40
2.138197498438722
 10
-66.16835222728366
 20
-0.0000000000153761
 30
0.0
 10
-66.16835222728366
 20
-0.3819863123982543
 30
0.0
 10
-66.16877331911343
 20
-0.7639799109946637
 30
0.0
 10
-66.17179071825654
 20
-2.100550213760328
 30
0.0
 10
-66.17660056242408
 20
-3.051405300895424
 30
0.0
 10
-66.1886201662428
 20
-4.341835804417002
 30
0.0
 10
-66.19239067484556
 20
-4.689547506014207
 30
0.0
 10
-66.19682925885169
 20
-5.035231942645964
 30
0.0
  0
SPLINE
  5
E6
330
2
100
AcDbEntity
  8
GEB-VERDECKT
 48
25.0
100
AcDbSpline
210
0.0
220
0.0
230
1.0
 70
     8
 71
     3
 72
    12
 73
     8
 74
     0
 42
0.0000000001
 43
0.0000000001
 40
1.215570127766067
 40
1.215570127766067
 40
1.215570127766067
 40
1.215570127766067
 40
1.294895980592123
 40
1.294895980592123
 40
1.560560944277679
 40
1.560560944277679
 40
1.676880953268539
 40
1.676880953268539
 40
1.676880953268539
 40
1.676880953268539
 10
-66.19684423769257
 20
5.035231958099444
 30
0.0
 10
-66.19320676839009
 20
4.751734092442006
 30
0.0
 10
-66.19001309343127
 20
4.466852191623559
 30
0.0
 10
-66.17767449747018
 20
3.222556655107808
 30
0.0
 10
-66.17242230846949
 20
2.253581214616303
 30
0.0
 10
-66.16887700610681
 20
0.8536591951225886
 30
0.0
 10
-66.16835222728366
 20
0.4268341463290711
 30
0.0
 10
-66.16835222728366
 20
-0.0000000000153761
 30
0.0
  0
ELLIPSE
  5
E7
330
2
100
AcDbEntity
  8
GEB-VERDECKT
 48
25.0
100
AcDbEllipse
 10
-73.24398259465311
 20
-0.0000000000220268
 30
0.0
 11
-0.0000000000002899
 21
-22.49999999999996
 31
0.0
210
0.0
220
0.0
230
1.0
 40
0.0436193873653361
 41
0.3635083964128878
 42
2.778084257177443
  0
LINE
  5
E8
330
2
100
AcDbEntity
  8
GEB-VERDECKT
 48
25.0
100
AcDbLine
 10
-72.89502749573046
 20
-22.50000000001958
 30
0.0
 11
-72.89502749573046
 21
-21.02974084483268
 31
0.0
  0
LINE
  5
E9
330
2
100
AcDbEntity
  8
GEB-VERDECKT
 48
25.0
100
AcDbLine
 10
-73.59293769357583
 20
-22.50000000002438
 30
0.0
 11
-72.89502749573046
 21
-22.50000000001958
 31
0.0
  0
LINE
  5
EA
330
2
100
AcDbEntity
  8
GEB-VERDECKT
 48
25.0
100
AcDbLine
 10
-73.59293769357583
 20
-21.02974084483745
 30
0.0
 11
-73.59293769357583
 21
-22.50000000002438
 31
0.0
  0
ELLIPSE
  5
EB
330
2
100
AcDbEntity
  8
GEB-VERDECKT
 48
25.0
100
AcDbEllipse
 10
-73.24398259465311
 20
-0.0000000000220268
 30
0.0
 11
0.00000000000029
 21
22.49999999999996
 31
0.0
210
0.0
220
0.0
230
1.0
 40
0.0436193873653361
 41
0.363508396413007
 42
2.778084257177528
  0
ELLIPSE
  5
EC
330
2
100
AcDbEntity
  8
GEB-VERDECKT
 48
25.0
100
AcDbEllipse
 10
-73.24398259465311
 20
-0.0000000000220268
 30
0.0
 11
0.0000000000000009
 21
26.84999999999995
 31
0.0
210
0.0
220
0.0
230
1.0
 40
0.0436193873653358
 41
0.0
 42
3.141592653278145
  0
LINE
  5
ED
330
2
100
AcDbEntity
  8
GEB-VERDECKT
 48
25.0
100
AcDbLine
 10
-72.89502749573046
 20
22.49999999998033
 30
0.0
 11
-73.59293769357583
 21
22.49999999997556
 31
0.0
  0
LINE
  5
EE
330
2
100
AcDbEntity
  8
GEB-VERDECKT
 48
25.0
100
AcDbLine
 10
-42.12291871374694
 20
21.02974084478825
 30
0.0
 11
-42.12291871374694
 21
19.95620204345027
 31
0.0
  0
LINE
  5
EF
330
2
100
AcDbEntity
  8
GEB-VERDECKT
 48
25.0
100
AcDbLine
 10
-42.12291871374694
 20
19.95620204345027
 30
0.0
 11
-41.42500851590159
 21
19.95620204345027
 31
0.0
  0
LINE
  5
F0
330
2
100
AcDbEntity
  8
GEB-VERDECKT
 48
25.0
100
AcDbLine
 10
-39.62529815979224
 20
19.95620204345022
 30
0.0
 11
-39.62529815979224
 21
18.874586088152
 31
0.0
  0
LINE
  5
F1
330
2
100
AcDbEntity
  8
GEB-VERDECKT
 48
25.0
100
AcDbLine
 10
-73.59293769357583
 20
22.49999999997556
 30
0.0
 11
-73.59293769357583
 21
21.02974084478862
 31
0.0
  0
LINE
  5
F2
330
2
100
AcDbEntity
  8
GEB-VERDECKT
 48
25.0
100
AcDbLine
 10
-73.59293769357583
 20
21.02974084478862
 30
0.0
 11
-72.89502749573046
 21
21.02974084478862
 31
0.0
  0
LINE
  5
F3
330
2
100
AcDbEntity
  8
GEB-VERDECKT
 48
25.0
100
AcDbLine
 10
-31.73281720929549
 20
22.49999999997502
 30
0.0
 11
-31.73281720929549
 21
18.87458608815191
 31
0.0
  0
ELLIPSE
  5
F4
330
2
100
AcDbEntity
  8
GEB-VERDECKT
 48
25.0
100
AcDbEllipse
 10
-31.38386211037281
 20
-0.00000000002251
 30
0.0
 11
0.0000000000002662
 21
20.49999999999995
 31
0.0
210
0.0
220
0.0
230
1.0
 40
0.0436193873653359
 41
5.882288822874279
 42
6.684081791485516
  0
LINE
  5
F5
330
2
100
AcDbEntity
  8
GEB-VERDECKT
 48
25.0
100
AcDbLine
 10
-38.92738796194689
 20
18.874586088152
 30
0.0
 11
-39.62529815979224
 21
18.874586088152
 31
0.0
  0
ELLIPSE
  5
F6
330
2
100
AcDbEntity
  8
GEB-VERDECKT
 48
25.0
100
AcDbEllipse
 10
-39.27634306086958
 20
-0.0000000000224247
 30
0.0
 11
0.0000000000002663
 21
20.49999999999994
 31
0.0
210
0.0
220
0.0
230
1.0
 40
0.0436193873653358
 41
5.882288822874254
 42
6.684081791485491
  0
LINE
  5
F7
330
2
100
AcDbEntity
  8
GEB-VERDECKT
 48
25.0
100
AcDbLine
 10
-72.89502749573046
 20
21.02974084479342
 30
0.0
 11
-72.89502749573046
 21
22.49999999998033
 31
0.0
  0
LINE
  5
F8
330
2
100
AcDbEntity
  8
GEB-VERDECKT
 48
25.0
100
AcDbLine
 10
-72.60488413827113
 20
22.49999999998033
 30
0.0
 11
-72.89502749573043
 21
22.49999999998033
 31
0.0
  0
LINE
  5
F9
330
2
100
AcDbEntity
  8
GEB-VERDECKT
 48
25.0
100
AcDbLine
 10
-31.03490701145012
 20
22.49999999997979
 30
0.0
 11
-38.74003097572322
 21
22.49999999997988
 31
0.0
  0
LINE
  5
FA
330
2
100
AcDbEntity
  8
GEB-VERDECKT
 48
25.0
100
AcDbLine
 10
-31.03490701145012
 20
22.49999999997979
 30
0.0
 11
-31.03490701145012
 21
18.87458608815666
 31
0.0
  0
LINE
  5
FB
330
2
100
AcDbEntity
  8
GEB-VERDECKT
 48
25.0
100
AcDbLine
 10
-38.92738796194687
 20
18.87458608815677
 30
0.0
 11
-31.03490701145012
 21
18.87458608815666
 31
0.0
  0
LINE
  5
FC
330
2
100
AcDbEntity
  8
GEB-VERDECKT
 48
25.0
100
AcDbLine
 10
-38.92738796194687
 20
18.87458608815677
 30
0.0
 11
-38.92738796194689
 21
19.95620204345499
 31
0.0
  0
LINE
  5
FD
330
2
100
AcDbEntity
  8
GEB-VERDECKT
 48
25.0
100
AcDbLine
 10
-41.3206576441535
 20
19.95620204345502
 30
0.0
 11
-41.42500851590159
 21
19.95620204345502
 31
0.0
  0
LINE
  5
FE
330
2
100
AcDbEntity
  8
GEB-VERDECKT
 48
25.0
100
AcDbLine
 10
-38.92738796194689
 20
19.95620204345499
 30
0.0
 11
-40.10972450665792
 21
19.95620204345502
 31
0.0
  0
LINE
  5
FF
330
2
100
AcDbEntity
  8
GEB-VERDECKT
 48
25.0
100
AcDbLine
 10
-41.42500851590154
 20
19.95620204345502
 30
0.0
 11
-41.42500851590159
 21
21.02974084479303
 31
0.0
  0
LINE
  5
100
330
2
100
AcDbEntity
  8
GEB-VERDECKT
 48
25.0
100
AcDbLine
 10
-72.51582292946011
 20
21.0297408447934
 30
0.0
 11
-72.89502749573046
 21
21.02974084479342
 31
0.0
  0
LINE
  5
101
330
2
100
AcDbEntity
  8
GEB-KONTUR-A
 48
25.0
100
AcDbLine
 10
-85.93189500874293
 20
22.49999999997809
 30
0.0
 11
-89.42856378427945
 21
22.49999999997811
 31
0.0
  0
LINE
  5
102
330
2
100
AcDbEntity
  8
GEB-KONTUR-A
 48
25.0
100
AcDbLine
 10
-85.93189500874293
 20
-22.50000000002183
 30
0.0
 11
-89.42856378427945
 21
-22.50000000002174
 31
0.0
  0
LINE
  5
103
330
2
100
AcDbEntity
  8
GEB-KONTUR-A
 48
25.0
100
AcDbLine
 10
-73.24398259465311
 20
26.84999999997791
 30
0.0
 11
-85.93189500874292
 21
26.84999999997811
 31
0.0
  0
LINE
  5
104
330
2
100
AcDbEntity
  8
GEB-KONTUR-A
 48
25.0
100
AcDbLine
 10
-73.24398259465311
 20
-26.85000000002196
 30
0.0
 11
-85.93189500874292
 21
-26.8500000000218
 31
0.0
  0
SPLINE
  5
105
330
2
100
AcDbEntity
  8
GEB-KONTUR-A
 48
25.0
100
AcDbSpline
210
0.0
220
0.0
230
1.0
 70
     8
 71
     3
 72
    16
 73
    12
 74
     0
 42
0.0000000001
 43
0.0000000001
 40
5.99451787943438
 40
5.99451787943438
 40
5.99451787943438
 40
5.99451787943438
 40
6.109984850532465
 40
6.109984850532465
 40
6.22545182163055
 40
6.22545182163055
 40
6.340918792728635
 40
6.340918792728635
 40
6.456385763826721
 40
6.456385763826721
 40
6.571852734924807
 40
6.571852734924807
 40
6.571852734924807
 40
6.571852734924807
 10
-66.19690901297693
 20
5.03523219053082
 30
0.0
 10
-66.18844875215604
 20
4.382096932319853
 30
0.0
 10
-66.18163920475379
 20
3.718083896699198
 30
0.0
 10
-66.17140383735955
 20
2.376859413233802
 30
0.0
 10
-66.16797808986439
 20
1.699652621714477
 30
0.0
 10
-66.16455231988019
 20
0.3408137533893125
 30
0.0
 10
-66.16455231988019
 20
-0.3408137534202638
 30
0.0
 10
-66.16797808986439
 20
-1.699652621745457
 30
0.0
 10
-66.17140383735955
 20
-2.376859413264867
 30
0.0
 10
-66.18163920475379
 20
-3.718083896730348
 30
0.0
 10
-66.18844875215604
 20
-4.382096932351146
 30
0.0
 10
-66.19690901297696
 20
-5.035232190562226
 30
0.0
  0
SPLINE
  5
106
330
2
100
AcDbEntity
  8
GEB-KONTUR-A
 48
25.0
100
AcDbSpline
210
0.0
220
0.0
230
1.0
 70
     8
 71
     3
 72
    16
 73
    12
 74
     0
 42
0.0000000001
 43
0.0000000001
 40
5.994517879434377
 40
5.994517879434377
 40
5.994517879434377
 40
5.994517879434377
 40
6.109984850532461
 40
6.109984850532461
 40
6.225451821630544
 40
6.225451821630544
 40
6.340918792728627
 40
6.340918792728627
 40
6.456385763826711
 40
6.456385763826711
 40
6.571852734924792
 40
6.571852734924792
 40
6.571852734924792
 40
6.571852734924792
 10
-60.45238173888117
 20
5.035232190530791
 30
0.0
 10
-60.44392147806025
 20
4.382096932319853
 30
0.0
 10
-60.43711193065803
 20
3.71808389669917
 30
0.0
 10
-60.42687656326382
 20
2.376859413233802
 30
0.0
 10
-60.42345081576863
 20
1.699652621714477
 30
0.0
 10
-60.42002504578443
 20
0.3408137533893978
 30
0.0
 10
-60.42002504578443
 20
-0.3408137534202353
 30
0.0
 10
-60.42345081576863
 20
-1.6996526217454
 30
0.0
 10
-60.42687656326382
 20
-2.376859413264753
 30
0.0
 10
-60.43711193065803
 20
-3.718083896730234
 30
0.0
 10
-60.44392147806025
 20
-4.382096932350975
 30
0.0
 10
-60.45238173888117
 20
-5.035232190562055
 30
0.0
  0
SPLINE
  5
107
330
2
100
AcDbEntity
  8
GEB-KONTUR-A
 48
25.0
100
AcDbSpline
210
0.0
220
0.0
230
1.0
 70
     8
 71
     3
 72
    16
 73
    12
 74
     0
 42
0.0000000001
 43
0.0000000001
 40
5.994517879434371
 40
5.994517879434371
 40
5.994517879434371
 40
5.994517879434371
 40
6.109984850532454
 40
6.109984850532454
 40
6.225451821630538
 40
6.225451821630538
 40
6.340918792728621
 40
6.340918792728621
 40
6.456385763826705
 40
6.456385763826705
 40
6.571852734924786
 40
6.571852734924786
 40
6.571852734924786
 40
6.571852734924786
 10
-54.70785446478544
 20
5.03523219053082
 30
0.0
 10
-54.69939420396451
 20
4.382096932319882
 30
0.0
 10
-54.6925846565623
 20
3.718083896699198
 30
0.0
 10
-54.68234928916809
 20
2.37685941323383
 30
0.0
 10
-54.67892354167287
 20
1.699652621714562
 30
0.0
 10
-54.67549777168867
 20
0.3408137533894262
 30
0.0
 10
-54.67549777168867
 20
-0.3408137534202069
 30
0.0
 10
-54.67892354167287
 20
-1.699652621745372
 30
0.0
 10
-54.68234928916806
 20
-2.376859413264725
 30
0.0
 10
-54.6925846565623
 20
-3.718083896730206
 30
0.0
 10
-54.69939420396451
 20
-4.382096932350947
 30
0.0
 10
-54.70785446478541
 20
-5.035232190562027
 30
0.0
  0
SPLINE
  5
108
330
2
100
AcDbEntity
  8
GEB-KONTUR-A
 48
25.0
100
AcDbSpline
210
0.0
220
0.0
230
1.0
 70
     8
 71
     3
 72
    16
 73
    12
 74
     0
 42
0.0000000001
 43
0.0000000001
 40
5.994517879434359
 40
5.994517879434359
 40
5.994517879434359
 40
5.994517879434359
 40
6.109984850532452
 40
6.109984850532452
 40
6.225451821630545
 40
6.225451821630545
 40
6.340918792728638
 40
6.340918792728638
 40
6.456385763826731
 40
6.456385763826731
 40
6.571852734924823
 40
6.571852734924823
 40
6.571852734924823
 40
6.571852734924823
 10
-48.96332719068971
 20
5.035232190530962
 30
0.0
 10
-48.95486692986875
 20
4.382096932319967
 30
0.0
 10
-48.94805738246654
 20
3.718083896699226
 30
0.0
 10
-48.9378220150723
 20
2.376859413233773
 30
0.0
 10
-48.93439626757714
 20
1.69965262171442
 30
0.0
 10
-48.9309704975929
 20
0.3408137533891704
 30
0.0
 10
-48.9309704975929
 20
-0.3408137534205196
 30
0.0
 10
-48.93439626757714
 20
-1.699652621745769
 30
0.0
 10
-48.9378220150723
 20
-2.376859413265208
 30
0.0
 10
-48.94805738246654
 20
-3.718083896730774
 30
0.0
 10
-48.95486692986875
 20
-4.382096932351629
 30
0.0
 10
-48.96332719068971
 20
-5.035232190562737
 30
0.0
  0
ELLIPSE
  5
109
330
2
100
AcDbEntity
  8
GEB-KONTUR-A
 48
25.0
100
AcDbEllipse
 10
-89.42856378427942
 20
-0.0000000000218279
 30
0.0
 11
-0.0000000000000001
 21
20.49999999999995
 31
0.0
210
0.0
220
0.0
230
1.0
 40
0.0436193873653358
 41
0.0
 42
6.28318530717958
  0
ELLIPSE
  5
10A
330
2
100
AcDbEntity
  8
GEB-KONTUR-A
 48
25.0
100
AcDbEllipse
 10
-89.42856378427942
 20
-0.0000000000218279
 30
0.0
 11
-0.0000000000000001
 21
22.49999999999995
 31
0.0
210
0.0
220
0.0
230
1.0
 40
0.0436193873653358
 41
0.0
 42
6.28318530717958
  0
ELLIPSE
  5
10B
330
2
100
AcDbEntity
  8
GEB-KONTUR-A
 48
25.0
100
AcDbEllipse
 10
-85.93189500874292
 20
-0.0000000000218563
 30
0.0
 11
-0.0000000000000016
 21
-22.49999999999995
 31
0.0
210
0.0
220
0.0
230
1.0
 40
0.0436193873653359
 41
0.0
 42
3.141592653279076
  0
ELLIPSE
  5
10C
330
2
100
AcDbEntity
  8
GEB-KONTUR-A
 48
25.0
100
AcDbEllipse
 10
-85.93189500874292
 20
-0.0000000000218563
 30
0.0
 11
-0.0000000000003467
 21
-26.84999999999995
 31
0.0
210
0.0
220
0.0
230
1.0
 40
0.0436193873653358
 41
5.705976127526027
 42
10.0019871404237
  0
LINE
  5
10D
330
2
100
AcDbEntity
  8
GEB-KONTUR-A
 48
25.0
100
AcDbLine
 10
-41.3206576441535
 20
-19.9562020434951
 30
0.0
 11
-40.10972450665803
 21
-19.9562020434951
 31
0.0
  0
LINE
  5
10E
330
2
100
AcDbEntity
  8
GEB-KONTUR-A
 48
25.0
100
AcDbLine
 10
-72.60488413827113
 20
-22.50000000001961
 30
0.0
 11
-38.74003097572336
 21
-22.50000000002004
 31
0.0
  0
ELLIPSE
  5
10F
330
2
100
AcDbEntity
  8
GEB-KONTUR-A
 48
25.0
100
AcDbEllipse
 10
-41.77396361482425
 20
-0.0000000000222826
 30
0.0
 11
0.0000000000002756
 21
22.49999999999982
 31
0.0
210
0.0
220
0.0
230
1.0
 40
0.0436193873653354
 41
5.615875348589552
 42
5.91967691076724
  0
ELLIPSE
  5
110
330
2
100
AcDbEntity
  8
GEB-KONTUR-A
 48
25.0
100
AcDbEllipse
 10
-41.77396361482425
 20
-0.000000000022311
 30
0.0
 11
-0.0000000000003085
 21
-22.50000000000005
 31
0.0
210
0.0
220
0.0
230
1.0
 40
0.0436193873653354
 41
0.3635083964129977
 42
0.6673099585906741
  0
LINE
  5
111
330
2
100
AcDbEntity
  8
GEB-KONTUR-A
 48
25.0
100
AcDbLine
 10
-72.51582292946011
 20
-21.02974084483268
 30
0.0
 11
-41.42500851590159
 21
-21.02974084483307
 31
0.0
  0
SPLINE
  5
112
330
2
100
AcDbEntity
  8
GEB-KONTUR-A
 48
25.0
100
AcDbSpline
210
0.0
220
0.0
230
1.0
 70
     8
 71
     3
 72
    24
 73
    20
 74
     0
 42
0.0000000001
 43
0.0000000001
 40
0.000005582187642
 40
0.000005582187642
 40
0.000005582187642
 40
0.000005582187642
 40
0.0797062645505783
 40
0.0797062645505783
 40
0.11048731402803
 40
0.11048731402803
 40
0.1192869985895016
 40
0.1192869985895016
 40
0.1245841505062756
 40
0.1245841505062756
 40
0.1289625715536835
 40
0.1289625715536835
 40
0.1336538861309027
 40
0.1336538861309027
 40
0.1410144087413297
 40
0.1410144087413297
 40
0.1573264411724374
 40
0.1573264411724374
 40
0.2370684289269993
 40
0.2370684289269993
 40
0.2370684289269993
 40
0.2370684289269993
 10
-50.31624029692455
 20
16.13990987271381
 30
0.0
 10
-50.29497560026204
 20
16.3238570337117
 30
0.0
 10
-50.26033719771811
 20
16.47051698764306
 30
0.0
 10
-50.19838290333041
 20
16.61037938480388
 30
0.0
 10
-50.1719347158336
 20
16.6598076576943
 30
0.0
 10
-50.12606470537995
 20
16.70126216962524
 30
0.0
 10
-50.11373158704157
 20
16.71033019019455
 30
0.0
 10
-50.09091787742722
 20
16.72055384423626
 30
0.0
 10
-50.0814973542297
 20
16.72349428405448
 30
0.0
 10
-50.06285237204565
 20
16.72595803471651
 30
0.0
 10
-50.05435921986981
 20
16.72592197035757
 30
0.0
 10
-50.03669157230246
 20
16.72347886794654
 30
0.0
 10
-50.02805251086943
 20
16.7209772494474
 30
0.0
 10
-50.00737072206286
 20
16.71260510887373
 30
0.0
 10
-49.99598152141624
 20
16.70554151230607
 30
0.0
 10
-49.96434250921635
 20
16.68176269505809
 30
0.0
 10
-49.94566406149212
 20
16.66035792142665
 30
0.0
 10
-49.85946629328103
 20
16.5449167093104
 30
0.0
 10
-49.79483862950778
 20
16.37255070483019
 30
0.0
 10
-49.74704961875326
 20
16.13990987271381
 30
0.0
  0
SPLINE
  5
113
330
2
100
AcDbEntity
  8
GEB-KONTUR-A
 48
25.0
100
AcDbSpline
210
0.0
220
0.0
230
1.0
 70
     8
 71
     3
 72
    16
 73
    12
 74
     0
 42
0.0000000001
 43
0.0000000001
 40
1.676880953268691
 40
1.676880953268691
 40
1.676880953268691
 40
1.676880953268691
 40
1.7809791180273
 40
1.7809791180273
 40
2.041461774907131
 40
2.041461774907131
 40
2.513255447205827
 40
2.513255447205827
 40
2.965658246933583
 40
2.965658246933583
 40
3.315140399756626
 40
3.315140399756626
 40
3.315140399756626
 40
3.315140399756626
 10
-50.53324755952741
 20
-0.0000000000156035
 30
0.0
 10
-50.53324755952741
 20
0.3819863123672746
 30
0.0
 10
-50.53367508946783
 20
0.763979910963684
 30
0.0
 10
-50.53660223776728
 20
2.10055021372915
 30
0.0
 10
-50.54134575470027
 20
3.051405300864303
 30
0.0
 10
-50.55831476846259
 20
5.69671070505376
 30
0.0
 10
-50.57405917575204
 20
7.359638755914147
 30
0.0
 10
-50.57790036587713
 20
10.4708701695678
 30
0.0
 10
-50.56707134546519
 20
11.91515915625675
 30
0.0
 10
-50.47947107461348
 20
14.28784488901544
 30
0.0
 10
-50.41866534740859
 20
15.25389689304808
 30
0.0
 10
-50.31624029692455
 20
16.13990987271381
 30
0.0
  0
SPLINE
  5
114
330
2
100
AcDbEntity
  8
GEB-KONTUR-A
 48
25.0
100
AcDbSpline
210
0.0
220
0.0
230
1.0
 70
     8
 71
     3
 72
    14
 73
    10
 74
     0
 42
0.0000000001
 43
0.0000000001
 40
0.0010405006945535
 40
0.0010405006945535
 40
0.0010405006945535
 40
0.0010405006945535
 40
0.7997210698762756
 40
0.7997210698762756
 40
1.294895980592232
 40
1.294895980592232
 40
1.560560944277818
 40
1.560560944277818
 40
1.676880953268691
 40
1.676880953268691
 40
1.676880953268691
 40
1.676880953268691
 10
-50.31624029692455
 20
-16.13990987274911
 30
0.0
 10
-50.52936318308354
 20
-14.29632139016229
 30
0.0
 10
-50.57488312806441
 20
-12.0216694819193
 30
0.0
 10
-50.57698780294606
 20
-7.704891821199908
 30
0.0
 10
-50.56035975953512
 20
-5.966715671583841
 30
0.0
 10
-50.54230025870094
 20
-3.22255665513893
 30
0.0
 10
-50.53719579246558
 20
-2.253581214647368
 30
0.0
 10
-50.53378236859541
 20
-0.8536591951536252
 30
0.0
 10
-50.53324755952741
 20
-0.4268341463600507
 30
0.0
 10
-50.53324755952741
 20
-0.0000000000156035
 30
0.0
  0
SPLINE
  5
115
330
2
100
AcDbEntity
  8
GEB-KONTUR-A
 48
25.0
100
AcDbSpline
210
0.0
220
0.0
230
1.0
 70
     8
 71
     3
 72
    24
 73
    20
 74
     0
 42
0.0000000001
 43
0.0000000001
 40
0.000005582187637
 40
0.000005582187637
 40
0.000005582187637
 40
0.000005582187637
 40
0.0797062645506989
 40
0.0797062645506989
 40
0.1104873140282088
 40
0.1104873140282088
 40
0.1192869985897118
 40
0.1192869985897118
 40
0.1245841505064624
 40
0.1245841505064624
 40
0.1289625715538599
 40
0.1289625715538599
 40
0.1336538861311021
 40
0.1336538861311021
 40
0.1410144087415187
 40
0.1410144087415187
 40
0.1573264411726776
 40
0.1573264411726776
 40
0.2370684289276588
 40
0.2370684289276588
 40
0.2370684289276588
 40
0.2370684289276588
 10
-49.74704961875326
 20
-16.13990987274911
 30
0.0
 10
-49.78483599002453
 20
-16.32385703374737
 30
0.0
 10
-49.83322427159106
 20
-16.4705169876787
 30
0.0
 10
-49.90846366784848
 20
-16.6103793848394
 30
0.0
 10
-49.93964948368767
 20
-16.65980765772988
 30
0.0
 10
-49.98952060310367
 20
-16.70126216966088
 30
0.0
 10
-50.00273083852085
 20
-16.71033019023016
 30
0.0
 10
-50.02653456722694
 20
-16.72055384427187
 30
0.0
 10
-50.03624011698622
 20
-16.72349428409009
 30
0.0
 10
-50.05512393851112
 20
-16.72595803475215
 30
0.0
 10
-50.06361359308809
 20
-16.72592197039321
 30
0.0
 10
-50.08104440616671
 20
-16.72347886798218
 30
0.0
 10
-50.08944098365907
 20
-16.7209772494831
 30
0.0
 10
-50.10931193783753
 20
-16.71260510890934
 30
0.0
 10
-50.12001764102158
 20
-16.70554151234168
 30
0.0
 10
-50.14935970073214
 20
-16.68176269509371
 30
0.0
 10
-50.16597724286885
 20
-16.6603579214622
 30
0.0
 10
-50.24110857069482
 20
-16.54491670934587
 30
0.0
 10
-50.28934650471038
 20
-16.37255070486549
 30
0.0
 10
-50.31624029692455
 20
-16.13990987274911
 30
0.0
  0
SPLINE
  5
116
330
2
100
AcDbEntity
  8
GEB-KONTUR-A
 48
25.0
100
AcDbSpline
210
0.0
220
0.0
230
1.0
 70
     8
 71
     3
 72
    12
 73
     8
 74
     0
 42
0.0000000001
 43
0.0000000001
 40
2.138197498438832
 40
2.138197498438832
 40
2.138197498438832
 40
2.138197498438832
 40
2.51325544720568
 40
2.51325544720568
 40
2.965658246933419
 40
2.965658246933419
 40
3.315140399756433
 40
3.315140399756433
 40
3.315140399756433
 40
3.315140399756433
 10
-48.96324743656444
 20
-5.035231942646447
 30
0.0
 10
-48.98045644841639
 20
-6.375498919417566
 30
0.0
 10
-49.00770811338805
 20
-7.685291613303206
 30
0.0
 10
-49.10959764667478
 20
-10.47087016960051
 30
0.0
 10
-49.19251220667027
 20
-11.91515915628997
 30
0.0
 10
-49.43099738450349
 20
-14.28784488904964
 30
0.0
 10
-49.56504509517626
 20
-15.25389689308281
 30
0.0
 10
-49.74704961875326
 20
-16.13990987274911
 30
0.0
  0
SPLINE
  5
117
330
2
100
AcDbEntity
  8
GEB-KONTUR-A
 48
25.0
100
AcDbSpline
210
0.0
220
0.0
230
1.0
 70
     8
 71
     3
 72
    10
 73
     6
 74
     0
 42
0.0000000001
 43
0.0000000001
 40
0.0010405006945535
 40
0.0010405006945535
 40
0.0010405006945535
 40
0.0010405006945535
 40
0.7997210698762327
 40
0.7997210698762327
 40
1.215570127766049
 40
1.215570127766049
 40
1.215570127766049
 40
1.215570127766049
 10
-49.74704961875326
 20
16.13990987271381
 30
0.0
 10
-49.36834021929093
 20
14.29632139012824
 30
0.0
 10
-49.17722213601203
 20
12.02166948188631
 30
0.0
 10
-49.013595923819
 20
7.969552036097184
 30
0.0
 10
-48.98233108127718
 20
6.521409744374693
 30
0.0
 10
-48.96326241540532
 20
5.035231958099586
 30
0.0
  0
SPLINE
  5
118
330
2
100
AcDbEntity
  8
GEB-KONTUR-A
 48
25.0
100
AcDbSpline
210
0.0
220
0.0
230
1.0
 70
     8
 71
     3
 72
    24
 73
    20
 74
     0
 42
0.0000000001
 43
0.0000000001
 40
0.0000055821876421
 40
0.0000055821876421
 40
0.0000055821876421
 40
0.0000055821876421
 40
0.0797062645507113
 40
0.0797062645507113
 40
0.1104873140282544
 40
0.1104873140282544
 40
0.119286998589755
 40
0.119286998589755
 40
0.1245841505065514
 40
0.1245841505065514
 40
0.1289625715539787
 40
0.1289625715539787
 40
0.1336538861312202
 40
0.1336538861312202
 40
0.141014408741676
 40
0.141014408741676
 40
0.1573264411728349
 40
0.1573264411728349
 40
0.2370684289278648
 40
0.2370684289278648
 40
0.2370684289278648
 40
0.2370684289278648
 10
-56.06076757102025
 20
16.1399098727139
 30
0.0
 10
-56.03950287435774
 20
16.32385703371204
 30
0.0
 10
-56.00486447181379
 20
16.47051698764332
 30
0.0
 10
-55.94291017742617
 20
16.6103793848039
 30
0.0
 10
-55.9164619899293
 20
16.65980765769436
 30
0.0
 10
-55.87059197947571
 20
16.70126216962529
 30
0.0
 10
-55.85825886113733
 20
16.71033019019461
 30
0.0
 10
-55.83544515152294
 20
16.72055384423635
 30
0.0
 10
-55.82602462832546
 20
16.72349428405454
 30
0.0
 10
-55.80737964614141
 20
16.7259580347166
 30
0.0
 10
-55.79888649396557
 20
16.72592197035766
 30
0.0
 10
-55.78121884639822
 20
16.72347886794659
 30
0.0
 10
-55.77257978496516
 20
16.72097724944748
 30
0.0
 10
-55.75189799615862
 20
16.71260510887378
 30
0.0
 10
-55.74050879551203
 20
16.70554151230615
 30
0.0
 10
-55.70886978331211
 20
16.68176269505818
 30
0.0
 10
-55.69019133558788
 20
16.66035792142668
 30
0.0
 10
-55.60399356737679
 20
16.54491670931048
 30
0.0
 10
-55.53936590360354
 20
16.37255070483033
 30
0.0
 10
-55.49157689284896
 20
16.1399098727139
 30
0.0
  0
SPLINE
  5
119
330
2
100
AcDbEntity
  8
GEB-KONTUR-A
 48
25.0
100
AcDbSpline
210
0.0
220
0.0
230
1.0
 70
     8
 71
     3
 72
    16
 73
    12
 74
     0
 42
0.0000000001
 43
0.0000000001
 40
1.676880953268911
 40
1.676880953268911
 40
1.676880953268911
 40
1.676880953268911
 40
1.780979118027527
 40
1.780979118027527
 40
2.041461774907388
 40
2.041461774907388
 40
2.513255447206163
 40
2.513255447206163
 40
2.965658246933987
 40
2.965658246933987
 40
3.315140399757082
 40
3.315140399757082
 40
3.315140399757082
 40
3.315140399757082
 10
-56.27777483362317
 20
-0.0000000000155183
 30
0.0
 10
-56.27777483362317
 20
0.3819863123673599
 30
0.0
 10
-56.2782023635636
 20
0.7639799109637409
 30
0.0
 10
-56.28112951186304
 20
2.100550213729349
 30
0.0
 10
-56.28587302879603
 20
3.051405300864416
 30
0.0
 10
-56.30284204255833
 20
5.696710705053817
 30
0.0
 10
-56.3185864498478
 20
7.359638755914204
 30
0.0
 10
-56.32242763997282
 20
10.4708701695678
 30
0.0
 10
-56.31159861956092
 20
11.91515915625678
 30
0.0
 10
-56.22399834870918
 20
14.2878448890155
 30
0.0
 10
-56.16319262150435
 20
15.25389689304816
 30
0.0
 10
-56.06076757102025
 20
16.1399098727139
 30
0.0
  0
SPLINE
  5
11A
330
2
100
AcDbEntity
  8
GEB-KONTUR-A
 48
25.0
100
AcDbSpline
210
0.0
220
0.0
230
1.0
 70
     8
 71
     3
 72
    14
 73
    10
 74
     0
 42
0.0000000001
 43
0.0000000001
 40
0.0010405006945525
 40
0.0010405006945525
 40
0.0010405006945525
 40
0.0010405006945525
 40
0.799721069876351
 40
0.799721069876351
 40
1.294895980592392
 40
1.294895980592392
 40
1.560560944278021
 40
1.560560944278021
 40
1.676880953268911
 40
1.676880953268911
 40
1.676880953268911
 40
1.676880953268911
 10
-56.06076757102028
 20
-16.13990987274903
 30
0.0
 10
-56.2738904571793
 20
-14.29632139016203
 30
0.0
 10
-56.31941040216014
 20
-12.02166948191902
 30
0.0
 10
-56.32151507704176
 20
-7.704891821199851
 30
0.0
 10
-56.30488703363084
 20
-5.966715671583784
 30
0.0
 10
-56.28682753279671
 20
-3.222556655138873
 30
0.0
 10
-56.28172306656134
 20
-2.253581214647283
 30
0.0
 10
-56.27830964269117
 20
-0.8536591951535399
 30
0.0
 10
-56.27777483362317
 20
-0.4268341463600223
 30
0.0
 10
-56.27777483362317
 20
-0.0000000000155183
 30
0.0
  0
SPLINE
  5
11B
330
2
100
AcDbEntity
  8
GEB-KONTUR-A
 48
25.0
100
AcDbSpline
210
0.0
220
0.0
230
1.0
 70
     8
 71
     3
 72
    24
 73
    20
 74
     0
 42
0.0000000001
 43
0.0000000001
 40
0.0000055821876371
 40
0.0000055821876371
 40
0.0000055821876371
 40
0.0000055821876371
 40
0.0797062645507289
 40
0.0797062645507289
 40
0.1104873140282521
 40
0.1104873140282521
 40
0.11928699858975
 40
0.11928699858975
 40
0.1245841505064988
 40
0.1245841505064988
 40
0.1289625715538938
 40
0.1289625715538938
 40
0.1336538861311327
 40
0.1336538861311327
 40
0.1410144087415437
 40
0.1410144087415437
 40
0.1573264411726897
 40
0.1573264411726897
 40
0.2370684289275492
 40
0.2370684289275492
 40
0.2370684289275492
 40
0.2370684289275492
 10
-55.49157689284896
 20
-16.13990987274903
 30
0.0
 10
-55.52936326412029
 20
-16.32385703374737
 30
0.0
 10
-55.57775154568682
 20
-16.47051698767868
 30
0.0
 10
-55.65299094194424
 20
-16.61037938483929
 30
0.0
 10
-55.68417675778343
 20
-16.65980765772983
 30
0.0
 10
-55.73404787719937
 20
-16.70126216966079
 30
0.0
 10
-55.74725811261657
 20
-16.71033019023011
 30
0.0
 10
-55.7710618413227
 20
-16.72055384427182
 30
0.0
 10
-55.78076739108195
 20
-16.72349428409004
 30
0.0
 10
-55.79965121260688
 20
-16.72595803475207
 30
0.0
 10
-55.80814086718385
 20
-16.72592197039313
 30
0.0
 10
-55.82557168026247
 20
-16.72347886798209
 30
0.0
 10
-55.8339682577548
 20
-16.72097724948301
 30
0.0
 10
-55.85383921193329
 20
-16.71260510890929
 30
0.0
 10
-55.86454491511734
 20
-16.70554151234159
 30
0.0
 10
-55.89388697482783
 20
-16.68176269509362
 30
0.0
 10
-55.91050451696458
 20
-16.66035792146215
 30
0.0
 10
-55.98563584479052
 20
-16.54491670934587
 30
0.0
 10
-56.03387377880608
 20
-16.3725507048656
 30
0.0
 10
-56.06076757102028
 20
-16.13990987274903
 30
0.0
  0
SPLINE
  5
11C
330
2
100
AcDbEntity
  8
GEB-KONTUR-A
 48
25.0
100
AcDbSpline
210
0.0
220
0.0
230
1.0
 70
     8
 71
     3
 72
    12
 73
     8
 74
     0
 42
0.0000000001
 43
0.0000000001
 40
2.138197498438689
 40
2.138197498438689
 40
2.138197498438689
 40
2.138197498438689
 40
2.513255447205579
 40
2.513255447205579
 40
2.965658246933299
 40
2.965658246933299
 40
3.315140399756303
 40
3.315140399756303
 40
3.315140399756303
 40
3.315140399756303
 10
-54.7077747106602
 20
-5.035231942645737
 30
0.0
 10
-54.72498372251215
 20
-6.375498919417026
 30
0.0
 10
-54.75223538748375
 20
-7.685291613302894
 30
0.0
 10
-54.85412492077054
 20
-10.47087016960037
 30
0.0
 10
-54.93703948076597
 20
-11.91515915628983
 30
0.0
 10
-55.17552465859921
 20
-14.28784488904952
 30
0.0
 10
-55.30957236927202
 20
-15.25389689308272
 30
0.0
 10
-55.49157689284896
 20
-16.13990987274903
 30
0.0
  0
SPLINE
  5
11D
330
2
100
AcDbEntity
  8
GEB-KONTUR-A
 48
25.0
100
AcDbSpline
210
0.0
220
0.0
230
1.0
 70
     8
 71
     3
 72
    10
 73
     6
 74
     0
 42
0.0000000001
 43
0.0000000001
 40
0.0010405006945498
 40
0.0010405006945498
 40
0.0010405006945498
 40
0.0010405006945498
 40
0.7997210698762248
 40
0.7997210698762248
 40
1.215570127766052
 40
1.215570127766052
 40
1.215570127766052
 40
1.215570127766052
 10
-55.49157689284896
 20
16.1399098727139
 30
0.0
 10
-55.11286749338665
 20
14.2963213901283
 30
0.0
 10
-54.92174941010773
 20
12.02166948188642
 30
0.0
 10
-54.75812319791476
 20
7.969552036097184
 30
0.0
 10
-54.72685835537294
 20
6.521409744374636
 30
0.0
 10
-54.70778968950108
 20
5.035231958099444
 30
0.0
  0
SPLINE
  5
11E
330
2
100
AcDbEntity
  8
GEB-KONTUR-A
 48
25.0
100
AcDbSpline
210
0.0
220
0.0
230
1.0
 70
     8
 71
     3
 72
    24
 73
    20
 74
     0
 42
0.0000000001
 43
0.0000000001
 40
0.000005582187642
 40
0.000005582187642
 40
0.000005582187642
 40
0.000005582187642
 40
0.0797062645505495
 40
0.0797062645505495
 40
0.1104873140279732
 40
0.1104873140279732
 40
0.119286998589443
 40
0.119286998589443
 40
0.1245841505062233
 40
0.1245841505062233
 40
0.1289625715536388
 40
0.1289625715536388
 40
0.1336538861308688
 40
0.1336538861308688
 40
0.1410144087413123
 40
0.1410144087413123
 40
0.157326441172433
 40
0.157326441172433
 40
0.237068428927287
 40
0.237068428927287
 40
0.237068428927287
 40
0.237068428927287
 10
-61.80529484511601
 20
16.13990987271396
 30
0.0
 10
-61.78403014845352
 20
16.32385703371176
 30
0.0
 10
-61.74939174590964
 20
16.47051698764318
 30
0.0
 10
-61.68743745152193
 20
16.61037938480402
 30
0.0
 10
-61.66098926402509
 20
16.65980765769444
 30
0.0
 10
-61.61511925357143
 20
16.70126216962535
 30
0.0
 10
-61.60278613523309
 20
16.71033019019467
 30
0.0
 10
-61.5799724256187
 20
16.72055384423643
 30
0.0
 10
-61.57055190242118
 20
16.72349428405459
 30
0.0
 10
-61.55190692023717
 20
16.72595803471665
 30
0.0
 10
-61.54341376806133
 20
16.72592197035771
 30
0.0
 10
-61.52574612049392
 20
16.72347886794668
 30
0.0
 10
-61.51710705906092
 20
16.72097724944757
 30
0.0
 10
-61.49642527025434
 20
16.71260510887384
 30
0.0
 10
-61.48503606960779
 20
16.70554151230621
 30
0.0
 10
-61.45339705740787
 20
16.68176269505824
 30
0.0
 10
-61.43471860968358
 20
16.66035792142676
 30
0.0
 10
-61.34852084147252
 20
16.54491670931054
 30
0.0
 10
-61.28389317769927
 20
16.37255070483036
 30
0.0
 10
-61.23610416694472
 20
16.13990987271396
 30
0.0
  0
SPLINE
  5
11F
330
2
100
AcDbEntity
  8
GEB-KONTUR-A
 48
25.0
100
AcDbSpline
210
0.0
220
0.0
230
1.0
 70
     8
 71
     3
 72
    16
 73
    12
 74
     0
 42
0.0000000001
 43
0.0000000001
 40
1.676880953268911
 40
1.676880953268911
 40
1.676880953268911
 40
1.676880953268911
 40
1.780979118027527
 40
1.780979118027527
 40
2.041461774907388
 40
2.041461774907388
 40
2.513255447206163
 40
2.513255447206163
 40
2.965658246933987
 40
2.965658246933987
 40
3.315140399757082
 40
3.315140399757082
 40
3.315140399757082
 40
3.315140399757082
 10
-62.02230210771893
 20
-0.0000000000154614
 30
0.0
 10
-62.02230210771893
 20
0.3819863123674167
 30
0.0
 10
-62.02272963765932
 20
0.7639799109638262
 30
0.0
 10
-62.0256567859588
 20
2.100550213729405
 30
0.0
 10
-62.03040030289179
 20
3.051405300864473
 30
0.0
 10
-62.04736931665405
 20
5.696710705053902
 30
0.0
 10
-62.06311372394356
 20
7.359638755914261
 30
0.0
 10
-62.06695491406859
 20
10.47087016956789
 30
0.0
 10
-62.05612589365668
 20
11.91515915625686
 30
0.0
 10
-61.96852562280494
 20
14.28784488901556
 30
0.0
 10
-61.90771989560011
 20
15.25389689304825
 30
0.0
 10
-61.80529484511601
 20
16.13990987271396
 30
0.0
  0
SPLINE
  5
120
330
2
100
AcDbEntity
  8
GEB-KONTUR-A
 48
25.0
100
AcDbSpline
210
0.0
220
0.0
230
1.0
 70
     8
 71
     3
 72
    14
 73
    10
 74
     0
 42
0.0000000001
 43
0.0000000001
 40
0.0010405006945525
 40
0.0010405006945525
 40
0.0010405006945525
 40
0.0010405006945525
 40
0.799721069876351
 40
0.799721069876351
 40
1.294895980592392
 40
1.294895980592392
 40
1.560560944278021
 40
1.560560944278021
 40
1.676880953268911
 40
1.676880953268911
 40
1.676880953268911
 40
1.676880953268911
 10
-61.80529484511601
 20
-16.13990987274894
 30
0.0
 10
-62.01841773127506
 20
-14.29632139016195
 30
0.0
 10
-62.06393767625593
 20
-12.02166948191893
 30
0.0
 10
-62.06604235113752
 20
-7.704891821199765
 30
0.0
 10
-62.04941430772658
 20
-5.966715671583699
 30
0.0
 10
-62.03135480689249
 20
-3.222556655138788
 30
0.0
 10
-62.0262503406571
 20
-2.253581214647226
 30
0.0
 10
-62.02283691678693
 20
-0.8536591951534546
 30
0.0
 10
-62.02230210771893
 20
-0.4268341463599655
 30
0.0
 10
-62.02230210771893
 20
-0.0000000000154614
 30
0.0
  0
SPLINE
  5
121
330
2
100
AcDbEntity
  8
GEB-KONTUR-A
 48
25.0
100
AcDbSpline
210
0.0
220
0.0
230
1.0
 70
     8
 71
     3
 72
    24
 73
    20
 74
     0
 42
0.0000000001
 43
0.0000000001
 40
0.000005582187637
 40
0.000005582187637
 40
0.000005582187637
 40
0.000005582187637
 40
0.0797062645506766
 40
0.0797062645506766
 40
0.1104873140281758
 40
0.1104873140281758
 40
0.1192869985896628
 40
0.1192869985896628
 40
0.1245841505064045
 40
0.1245841505064045
 40
0.1289625715537934
 40
0.1289625715537934
 40
0.1336538861310257
 40
0.1336538861310257
 40
0.1410144087414344
 40
0.1410144087414344
 40
0.1573264411725624
 40
0.1573264411725624
 40
0.2370684289273233
 40
0.2370684289273233
 40
0.2370684289273233
 40
0.2370684289273233
 10
-61.23610416694472
 20
-16.13990987274894
 30
0.0
 10
-61.27389053821599
 20
-16.32385703374717
 30
0.0
 10
-61.32227881978252
 20
-16.47051698767853
 30
0.0
 10
-61.39751821604
 20
-16.61037938483926
 30
0.0
 10
-61.42870403187919
 20
-16.65980765772974
 30
0.0
 10
-61.47857515129513
 20
-16.70126216966071
 30
0.0
 10
-61.49178538671231
 20
-16.71033019023002
 30
0.0
 10
-61.51558911541846
 20
-16.72055384427176
 30
0.0
 10
-61.52529466517771
 20
-16.72349428408995
 30
0.0
 10
-61.5441784867026
 20
-16.72595803475201
 30
0.0
 10
-61.55266814127961
 20
-16.72592197039307
 30
0.0
 10
-61.57009895435823
 20
-16.72347886798204
 30
0.0
 10
-61.57849553185056
 20
-16.7209772494829
 30
0.0
 10
-61.59836648602902
 20
-16.7126051089092
 30
0.0
 10
-61.60907218921306
 20
-16.70554151234154
 30
0.0
 10
-61.6384142489236
 20
-16.68176269509357
 30
0.0
 10
-61.65503179106034
 20
-16.66035792146209
 30
0.0
 10
-61.7301631188863
 20
-16.54491670934573
 30
0.0
 10
-61.77840105290187
 20
-16.37255070486534
 30
0.0
 10
-61.80529484511601
 20
-16.13990987274894
 30
0.0
  0
SPLINE
  5
122
330
2
100
AcDbEntity
  8
GEB-KONTUR-A
 48
25.0
100
AcDbSpline
210
0.0
220
0.0
230
1.0
 70
     8
 71
     3
 72
    12
 73
     8
 74
     0
 42
0.0000000001
 43
0.0000000001
 40
2.138197498438699
 40
2.138197498438699
 40
2.138197498438699
 40
2.138197498438699
 40
2.513255447205578
 40
2.513255447205578
 40
2.965658246933299
 40
2.965658246933299
 40
3.315140399756301
 40
3.315140399756301
 40
3.315140399756301
 40
3.315140399756301
 10
-60.45230198475593
 20
-5.035231942645765
 30
0.0
 10
-60.46951099660788
 20
-6.375498919417026
 30
0.0
 10
-60.49676266157951
 20
-7.685291613302865
 30
0.0
 10
-60.5986521948663
 20
-10.47087016960031
 30
0.0
 10
-60.68156675486173
 20
-11.91515915628974
 30
0.0
 10
-60.92005193269497
 20
-14.28784488904944
 30
0.0
 10
-61.05409964336775
 20
-15.25389689308267
 30
0.0
 10
-61.23610416694472
 20
-16.13990987274894
 30
0.0
  0
SPLINE
  5
123
330
2
100
AcDbEntity
  8
GEB-KONTUR-A
 48
25.0
100
AcDbSpline
210
0.0
220
0.0
230
1.0
 70
     8
 71
     3
 72
    10
 73
     6
 74
     0
 42
0.0000000001
 43
0.0000000001
 40
0.0010405006945499
 40
0.0010405006945499
 40
0.0010405006945499
 40
0.0010405006945499
 40
0.7997210698762248
 40
0.7997210698762248
 40
1.215570127766062
 40
1.215570127766062
 40
1.215570127766062
 40
1.215570127766062
 10
-61.23610416694472
 20
16.13990987271396
 30
0.0
 10
-60.85739476748242
 20
14.29632139012838
 30
0.0
 10
-60.66627668420349
 20
12.02166948188647
 30
0.0
 10
-60.50265047201048
 20
7.969552036097269
 30
0.0
 10
-60.47138562946864
 20
6.521409744374636
 30
0.0
 10
-60.45231696359678
 20
5.035231958099416
 30
0.0
  0
SPLINE
  5
124
330
2
100
AcDbEntity
  8
GEB-KONTUR-A
 48
25.0
100
AcDbSpline
210
0.0
220
0.0
230
1.0
 70
     8
 71
     3
 72
    24
 73
    20
 74
     0
 42
0.0000000001
 43
0.0000000001
 40
0.000005582187642
 40
0.000005582187642
 40
0.000005582187642
 40
0.000005582187642
 40
0.079706264550714
 40
0.079706264550714
 40
0.1104873140282755
 40
0.1104873140282755
 40
0.1192869985897779
 40
0.1192869985897779
 40
0.1245841505065726
 40
0.1245841505065726
 40
0.1289625715539968
 40
0.1289625715539968
 40
0.1336538861312346
 40
0.1336538861312346
 40
0.1410144087416874
 40
0.1410144087416874
 40
0.1573264411728512
 40
0.1573264411728512
 40
0.2370684289276556
 40
0.2370684289276556
 40
0.2370684289276556
 40
0.2370684289276556
 10
-67.5498221192118
 20
16.13990987271404
 30
0.0
 10
-67.52855742254922
 20
16.32385703371224
 30
0.0
 10
-67.49391902000525
 20
16.47051698764346
 30
0.0
 10
-67.43196472561766
 20
16.61037938480407
 30
0.0
 10
-67.40551653812085
 20
16.6598076576945
 30
0.0
 10
-67.35964652766719
 20
16.70126216962543
 30
0.0
 10
-67.34731340932881
 20
16.71033019019475
 30
0.0
 10
-67.32449969971447
 20
16.72055384423652
 30
0.0
 10
-67.31507917651692
 20
16.72349428405468
 30
0.0
 10
-67.29643419433293
 20
16.72595803471671
 30
0.0
 10
-67.28794104215706
 20
16.7259219703578
 30
0.0
 10
-67.2702733945897
 20
16.72347886794677
 30
0.0
 10
-67.26163433315668
 20
16.72097724944763
 30
0.0
 10
-67.2409525443501
 20
16.71260510887393
 30
0.0
 10
-67.22956334370349
 20
16.7055415123063
 30
0.0
 10
-67.1979243315036
 20
16.68176269505832
 30
0.0
 10
-67.1792458837794
 20
16.66035792142691
 30
0.0
 10
-67.09304811556828
 20
16.5449167093106
 30
0.0
 10
-67.028420451795
 20
16.37255070483036
 30
0.0
 10
-66.98063144104049
 20
16.13990987271404
 30
0.0
  0
SPLINE
  5
125
330
2
100
AcDbEntity
  8
GEB-KONTUR-A
 48
25.0
100
AcDbSpline
210
0.0
220
0.0
230
1.0
 70
     8
 71
     3
 72
    16
 73
    12
 74
     0
 42
0.0000000001
 43
0.0000000001
 40
1.676880953268805
 40
1.676880953268805
 40
1.676880953268805
 40
1.676880953268805
 40
1.780979118027429
 40
1.780979118027429
 40
2.041461774907258
 40
2.041461774907258
 40
2.513255447205938
 40
2.513255447205938
 40
2.965658246933675
 40
2.965658246933675
 40
3.315140399756709
 40
3.315140399756709
 40
3.315140399756709
 40
3.315140399756709
 10
-67.76682938181465
 20
-0.0000000000153761
 30
0.0
 10
-67.76682938181465
 20
0.381986312367502
 30
0.0
 10
-67.76725691175508
 20
0.763979910963883
 30
0.0
 10
-67.77018406005453
 20
2.10055021372932
 30
0.0
 10
-67.77492757698752
 20
3.051405300864473
 30
0.0
 10
-67.79189659074981
 20
5.696710705054073
 30
0.0
 10
-67.80764099803929
 20
7.359638755914403
 30
0.0
 10
-67.81148218816437
 20
10.470870169568
 30
0.0
 10
-67.80065316775244
 20
11.91515915625697
 30
0.0
 10
-67.7130528969007
 20
14.28784488901567
 30
0.0
 10
-67.65224716969584
 20
15.25389689304833
 30
0.0
 10
-67.5498221192118
 20
16.13990987271404
 30
0.0
  0
SPLINE
  5
126
330
2
100
AcDbEntity
  8
GEB-KONTUR-A
 48
25.0
100
AcDbSpline
210
0.0
220
0.0
230
1.0
 70
     8
 71
     3
 72
    14
 73
    10
 74
     0
 42
0.0000000001
 43
0.0000000001
 40
0.0010405006945526
 40
0.0010405006945526
 40
0.0010405006945526
 40
0.0010405006945526
 40
0.7997210698763092
 40
0.7997210698763092
 40
1.294895980592301
 40
1.294895980592301
 40
1.560560944277916
 40
1.560560944277916
 40
1.676880953268805
 40
1.676880953268805
 40
1.676880953268805
 40
1.676880953268805
 10
-67.5498221192118
 20
-16.13990987274888
 30
0.0
 10
-67.76294500537085
 20
-14.29632139016201
 30
0.0
 10
-67.80846495035167
 20
-12.02166948191899
 30
0.0
 10
-67.81056962523329
 20
-7.70489182119968
 30
0.0
 10
-67.79394158182234
 20
-5.966715671583585
 30
0.0
 10
-67.77588208098819
 20
-3.222556655138674
 30
0.0
 10
-67.77077761475283
 20
-2.253581214647084
 30
0.0
 10
-67.76736419088269
 20
-0.8536591951533694
 30
0.0
 10
-67.76682938181465
 20
-0.4268341463598518
 30
0.0
 10
-67.76682938181465
 20
-0.0000000000153761
 30
0.0
  0
SPLINE
  5
127
330
2
100
AcDbEntity
  8
GEB-KONTUR-A
 48
25.0
100
AcDbSpline
210
0.0
220
0.0
230
1.0
 70
     8
 71
     3
 72
    24
 73
    20
 74
     0
 42
0.0000000001
 43
0.0000000001
 40
0.0000055821876371
 40
0.0000055821876371
 40
0.0000055821876371
 40
0.0000055821876371
 40
0.0797062645507802
 40
0.0797062645507802
 40
0.1104873140283095
 40
0.1104873140283095
 40
0.1192869985898162
 40
0.1192869985898162
 40
0.1245841505065914
 40
0.1245841505065914
 40
0.1289625715540144
 40
0.1289625715540144
 40
0.133653886131285
 40
0.133653886131285
 40
0.141014408741743
 40
0.141014408741743
 40
0.1573264411729928
 40
0.1573264411729928
 40
0.2370684289282775
 40
0.2370684289282775
 40
0.2370684289282775
 40
0.2370684289282775
 10
-66.98063144104049
 20
-16.13990987274888
 30
0.0
 10
-67.01841781231184
 20
-16.32385703374734
 30
0.0
 10
-67.0668060938784
 20
-16.47051698767859
 30
0.0
 10
-67.1420454901357
 20
-16.61037938483912
 30
0.0
 10
-67.17323130597492
 20
-16.65980765772969
 30
0.0
 10
-67.22310242539089
 20
-16.70126216966068
 30
0.0
 10
-67.23631266080809
 20
-16.71033019022997
 30
0.0
 10
-67.26011638951425
 20
-16.72055384427167
 30
0.0
 10
-67.26982193927347
 20
-16.72349428408989
 30
0.0
 10
-67.28870576079836
 20
-16.72595803475192
 30
0.0
 10
-67.29719541537537
 20
-16.72592197039302
 30
0.0
 10
-67.31462622845396
 20
-16.72347886798195
 30
0.0
 10
-67.32302280594629
 20
-16.72097724948287
 30
0.0
 10
-67.34289376012478
 20
-16.71260510890914
 30
0.0
 10
-67.35359946330882
 20
-16.70554151234145
 30
0.0
 10
-67.38294152301932
 20
-16.68176269509348
 30
0.0
 10
-67.39955906515604
 20
-16.66035792146203
 30
0.0
 10
-67.47469039298201
 20
-16.54491670934575
 30
0.0
 10
-67.5229283269976
 20
-16.37255070486554
 30
0.0
 10
-67.5498221192118
 20
-16.13990987274888
 30
0.0
  0
SPLINE
  5
128
330
2
100
AcDbEntity
  8
GEB-KONTUR-A
 48
25.0
100
AcDbSpline
210
0.0
220
0.0
230
1.0
 70
     8
 71
     3
 72
    12
 73
     8
 74
     0
 42
0.0000000001
 43
0.0000000001
 40
2.138197498438722
 40
2.138197498438722
 40
2.138197498438722
 40
2.138197498438722
 40
2.513255447205578
 40
2.513255447205578
 40
2.965658246933299
 40
2.965658246933299
 40
3.315140399756302
 40
3.315140399756302
 40
3.315140399756302
 40
3.315140399756302
 10
-66.19682925885169
 20
-5.035231942645964
 30
0.0
 10
-66.21403827070364
 20
-6.375498919417111
 30
0.0
 10
-66.24128993567524
 20
-7.685291613302894
 30
0.0
 10
-66.34317946896203
 20
-10.47087016960023
 30
0.0
 10
-66.42609402895749
 20
-11.91515915628969
 30
0.0
 10
-66.66457920679073
 20
-14.28784488904938
 30
0.0
 10
-66.79862691746354
 20
-15.25389689308258
 30
0.0
 10
-66.98063144104049
 20
-16.13990987274888
 30
0.0
  0
SPLINE
  5
129
330
2
100
AcDbEntity
  8
GEB-KONTUR-A
 48
25.0
100
AcDbSpline
210
0.0
220
0.0
230
1.0
 70
     8
 71
     3
 72
    10
 73
     6
 74
     0
 42
0.0000000001
 43
0.0000000001
 40
0.0010405006945498
 40
0.0010405006945498
 40
0.0010405006945498
 40
0.0010405006945498
 40
0.7997210698762248
 40
0.7997210698762248
 40
1.215570127766067
 40
1.215570127766067
 40
1.215570127766067
 40
1.215570127766067
 10
-66.98063144104049
 20
16.13990987271404
 30
0.0
 10
-66.60192204157818
 20
14.29632139012847
 30
0.0
 10
-66.41080395829925
 20
12.02166948188653
 30
0.0
 10
-66.24717774610624
 20
7.969552036097297
 30
0.0
 10
-66.21591290356443
 20
6.521409744374693
 30
0.0
 10
-66.19684423769257
 20
5.035231958099444
 30
0.0
  0
ELLIPSE
  5
12A
330
2
100
AcDbEntity
  8
GEB-KONTUR-A
 48
25.0
100
AcDbEllipse
 10
-73.24398259465311
 20
-0.0000000000220268
 30
0.0
 11
-0.0000000000000009
 21
-26.84999999999995
 31
0.0
210
0.0
220
0.0
230
1.0
 40
0.0436193873653358
 41
0.0
 42
3.141592653278195
  0
LINE
  5
12B
330
2
100
AcDbEntity
  8
GEB-KONTUR-A
 48
25.0
100
AcDbLine
 10
-38.74003097572322
 20
22.49999999997988
 30
0.0
 11
-72.60488413827113
 21
22.49999999998033
 31
0.0
  0
LINE
  5
12C
330
2
100
AcDbEntity
  8
GEB-KONTUR-A
 48
25.0
100
AcDbLine
 10
-40.10972450665792
 20
19.95620204345502
 30
0.0
 11
-41.3206576441535
 21
19.95620204345502
 31
0.0
  0
LINE
  5
12D
330
2
100
AcDbEntity
  8
GEB-KONTUR-A
 48
25.0
100
AcDbLine
 10
-41.42500851590159
 20
21.029740844793
 30
0.0
 11
-72.51582292946011
 21
21.02974084479342
 31
0.0
  0
LINE
  5
12E
330
2
100
AcDbEntity
  8
GEB-VERDECKT
 48
25.0
100
AcDbLine
 10
-39.27634306086958
 20
-20.07500000002238
 30
0.0
 11
-36.27919839612398
 21
-20.07500000002242
 31
0.0
  0
LINE
  5
12F
330
2
100
AcDbEntity
  8
GEB-VERDECKT
 48
25.0
100
AcDbLine
 10
-39.27634306086955
 20
20.07499999997751
 30
0.0
 11
-36.27919839612398
 21
20.07499999997748
 31
0.0
  0
ELLIPSE
  5
130
330
2
100
AcDbEntity
  8
GEB-VERDECKT
 48
25.0
100
AcDbEllipse
 10
-36.27919839612398
 20
-0.0000000000224816
 30
0.0
 11
-0.0000000000000001
 21
18.07499999999996
 31
0.0
210
0.0
220
0.0
230
1.0
 40
0.0436193873653358
 41
0.0
 42
6.28318530717958
  0
ELLIPSE
  5
131
330
2
100
AcDbEntity
  8
GEB-VERDECKT
 48
25.0
100
AcDbEllipse
 10
-39.27634306086958
 20
-0.0000000000224532
 30
0.0
 11
-0.0000000000000001
 21
20.07499999999995
 31
0.0
210
0.0
220
0.0
230
1.0
 40
0.0436193873653358
 41
0.0
 42
6.28318530717958
  0
ELLIPSE
  5
132
330
2
100
AcDbEntity
  8
GEB-VERDECKT
 48
25.0
100
AcDbEllipse
 10
-36.27919839612398
 20
-0.0000000000224816
 30
0.0
 11
-0.0000000000000001
 21
20.07499999999995
 31
0.0
210
0.0
220
0.0
230
1.0
 40
0.0436193873653358
 41
0.0
 42
6.28318530717958
  0
CIRCLE
  5
133
330
2
100
AcDbEntity
  8
GEB-VERDECKT
 48
25.0
100
AcDbCircle
 10
0.0000000000011653
 20
-0.0000000000161435
 30
0.0
 40
37.6
  0
LINE
  5
134
330
2
100
AcDbEntity
  8
GEB-VERDECKT
 48
25.0
100
AcDbLine
 10
-39.66221439679862
 20
-20.07500000002242
 30
0.0
 11
-31.79236346986375
 21
-20.07500000002253
 31
0.0
  0
LINE
  5
135
330
2
100
AcDbEntity
  8
GEB-VERDECKT
 48
25.0
100
AcDbLine
 10
-39.66221439679862
 20
20.07499999997759
 30
0.0
 11
-31.79236346986375
 21
20.07499999997748
 31
0.0
  0
LINE
  5
136
330
2
100
AcDbEntity
  8
GEB-VERDECKT
 48
25.0
100
AcDbLine
 10
-30.06334658179583
 20
18.07499999997745
 30
0.0
 11
-39.66221439679862
 21
18.07499999997756
 31
0.0
  0
LINE
  5
137
330
2
100
AcDbEntity
  8
GEB-VERDECKT
 48
25.0
100
AcDbLine
 10
-30.0633465817958
 20
-18.07500000002253
 30
0.0
 11
-39.66221439679862
 21
-18.07500000002244
 31
0.0
  0
CIRCLE
  5
138
330
2
100
AcDbEntity
  8
GEB-VERDECKT
 48
25.0
100
AcDbCircle
 10
0.0000000000011653
 20
-0.0000000000291038
 30
0.0
 40
39.47499999999999
  0
ELLIPSE
  5
139
330
2
100
AcDbEntity
  8
GEB-VERDECKT
 48
25.0
100
AcDbEllipse
 10
-39.66221439679862
 20
-0.0000000000224247
 30
0.0
 11
0.0
 21
20.075
 31
0.0
210
0.0
220
0.0
230
1.0
 40
0.0436193873653368
 41
0.0
 42
6.28318530717958
  0
ELLIPSE
  5
13A
330
2
100
AcDbEntity
  8
GEB-VERDECKT
 48
25.0
100
AcDbEllipse
 10
-39.66221439679862
 20
-0.0000000000224247
 30
0.0
 11
0.0
 21
18.07499999999999
 31
0.0
210
0.0
220
0.0
230
1.0
 40
0.0436193873653368
 41
0.0
 42
6.28318530717958
  0
CIRCLE
  5
13B
330
2
100
AcDbEntity
  8
GEB-VERDECKT
 48
25.0
100
AcDbCircle
 10
0.0000000000011653
 20
-0.0000000000462705
 30
0.0
 40
36.98853863708269
  0
CIRCLE
  5
13C
330
2
100
AcDbEntity
  8
GEB-KONTUR-A
 48
25.0
100
AcDbCircle
 10
0.0000000000011653
 20
-0.0000000000462705
 30
0.0
 40
35.0
  0
SPLINE
  5
13D
330
2
100
AcDbEntity
  8
GEB-KONTUR-A
 48
25.0
100
AcDbSpline
210
0.0
220
0.0
230
1.0
 70
    11
 71
     3
 72
    66
 73
    62
 74
     0
 42
0.0000000001
 43
0.0000000001
 40
0.0
 40
0.0
 40
0.0
 40
0.0
 40
0.35104233668413
 40
0.35104233668413
 40
0.7020846733682601
 40
0.7020846733682601
 40
1.40416934673652
 40
1.40416934673652
 40
1.753083531128972
 40
1.753083531128972
 40
2.101997715521425
 40
2.101997715521425
 40
2.450911899913878
 40
2.450911899913878
 40
2.799826084306331
 40
2.799826084306331
 40
3.148740268698784
 40
3.148740268698784
 40
3.497654453091236
 40
3.497654453091236
 40
3.846568637483689
 40
3.846568637483689
 40
4.195482821876142
 40
4.195482821876142
 40
4.897567495244402
 40
4.897567495244402
 40
5.248609831928532
 40
5.248609831928532
 40
5.599652168612662
 40
5.599652168612662
 40
5.944990109936503
 40
5.944990109936503
 40
6.290328051260343
 40
6.290328051260343
 40
6.635665992584183
 40
6.635665992584183
 40
6.981003933908024
 40
6.981003933908024
 40
7.327985844546763
 40
7.327985844546763
 40
7.674967755185502
 40
7.674967755185502
 40
8.021949665824241
 40
8.021949665824241
 40
8.36893157646298
 40
8.36893157646298
 40
8.715913487101719
 40
8.715913487101719
 40
9.062895397740458
 40
9.062895397740458
 40
9.409877308379197
 40
9.409877308379197
 40
9.756859219017934
 40
9.756859219017934
 40
10.10219716034177
 40
10.10219716034177
 40
10.44753510166561
 40
10.44753510166561
 40
10.79287304298945
 40
10.79287304298945
 40
11.1382109843133
 40
11.1382109843133
 40
11.1382109843133
 40
11.1382109843133
 10
-30.06333744324525
 20
18.07499767332732
 30
0.0
 10
-30.06432396999108
 20
18.07559080337085
 30
0.0
 10
-30.13548251743856
 20
17.96108896584974
 30
0.0
 10
-30.41353576156021
 20
17.4908154211077
 30
0.0
 10
-30.61991356548924
 20
17.1352774369754
 30
0.0
 10
-31.37540322317898
 20
15.74321804830615
 30
0.0
 10
-32.05959333556365
 20
14.36510863691205
 30
0.0
 10
-32.98793538507982
 20
11.99853340401552
 30
0.0
 10
-33.30369125051959
 20
11.10888843323829
 30
0.0
 10
-33.89246235585827
 20
9.16172241033405
 30
0.0
 10
-34.16503640163455
 20
8.104124584250143
 30
0.0
 10
-34.61762301545446
 20
5.883238886606761
 30
0.0
 10
-34.79774311181072
 20
4.717747306852089
 30
0.0
 10
-35.03733294318261
 20
2.357677660868603
 30
0.0
 10
-35.09664619174799
 20
1.163047281291056
 30
0.0
 10
-35.09664619174799
 20
-1.163047281325304
 30
0.0
 10
-35.03733294318261
 20
-2.357677660902879
 30
0.0
 10
-34.79774311181072
 20
-4.71774730688665
 30
0.0
 10
-34.61762301545446
 20
-5.883238886641521
 30
0.0
 10
-34.16503640163455
 20
-8.104124584285472
 30
0.0
 10
-33.89246235585825
 20
-9.161722410369748
 30
0.0
 10
-33.30369125051956
 20
-11.10888843327478
 30
0.0
 10
-32.98793538507982
 20
-11.99853340405246
 30
0.0
 10
-32.05959333556365
 20
-14.36510863695042
 30
0.0
 10
-31.37540322317898
 20
-15.74321804834571
 30
0.0
 10
-30.61991356548924
 20
-17.13527743701701
 30
0.0
 10
-30.41353576156018
 20
-17.49081542114999
 30
0.0
 10
-30.13548251743856
 20
-17.96108896589345
 30
0.0
 10
-30.06432396999108
 20
-18.07559080341525
 30
0.0
 10
-30.06236694743928
 20
-18.07441418162079
 30
0.0
 10
-30.12933943833255
 20
-17.962287306636
 30
0.0
 10
-30.39874549565434
 20
-17.49788845742154
 30
0.0
 10
-30.60074003059961
 20
-17.14577525650568
 30
0.0
 10
-31.09739659117503
 20
-16.22292487572656
 30
0.0
 10
-31.3918094802728
 20
-15.65140676649619
 30
0.0
 10
-32.01121028702107
 20
-14.33742325403352
 30
0.0
 10
-32.33559260228378
 20
-13.59478293398081
 30
0.0
 10
-32.95441255687772
 20
-12.01309393622415
 30
0.0
 10
-33.2716548063581
 20
-11.11646039224331
 30
0.0
 10
-33.86188357460051
 20
-9.157603220734273
 30
0.0
 10
-34.13442524960442
 20
-8.095328199270028
 30
0.0
 10
-34.58588091952618
 20
-5.869169496275645
 30
0.0
 10
-34.76490268209483
 20
-4.703195773484907
 30
0.0
 10
-35.00255372429399
 20
-2.346935663301451
 30
0.0
 10
-35.06104892254337
 20
-1.156606368823645
 30
0.0
 10
-35.06104892254337
 20
1.156606368767938
 30
0.0
 10
-35.00255372429399
 20
2.346935663245801
 30
0.0
 10
-34.76490268209483
 20
4.70319577342957
 30
0.0
 10
-34.58588091952618
 20
5.869169496220507
 30
0.0
 10
-34.13442524960442
 20
8.09532819921543
 30
0.0
 10
-33.86188357460051
 20
9.157603220679987
 30
0.0
 10
-33.2716548063581
 20
11.11646039218982
 30
0.0
 10
-32.95441255687772
 20
12.01309393617109
 30
0.0
 10
-32.33559260228381
 20
13.59478293392865
 30
0.0
 10
-32.01121028702107
 20
14.33742325398188
 30
0.0
 10
-31.39180948027283
 20
15.65140676644572
 30
0.0
 10
-31.09739659117503
 20
16.22292487567674
 30
0.0
 10
-30.60074003059961
 20
17.14577525645717
 30
0.0
 10
-30.39874549565437
 20
17.49788845737362
 30
0.0
 10
-30.12933943833258
 20
17.9622873065895
 30
0.0
 10
-30.06236694743928
 20
18.07441418157504
 30
0.0
 10
-30.06333744324525
 20
18.07499767332732
 30
0.0
  0
CIRCLE
  5
13E
330
2
100
AcDbEntity
  8
GEB-KONTUR-A
 48
25.0
100
AcDbCircle
 10
0.0000000000011653
 20
-0.0000000000160867
 30
0.0
 40
35.09996670310262
  0
TEXT
  5
13F
330
2
100
AcDbEntity
  8
GEB-TEXT
100
AcDbText
 10
-55.60367479800568
 20
-57.80000000000007
 30
0.0
 40
3.5
  1
Abzweig PP-MD 87.5G d75/40
 72
     1
 11
-22.31428189213938
 21
-57.80000000000007
 31
0.0
100
AcDbText
  0
TEXT
  5
141
330
2
100
AcDbEntity
  8
GEB-TEXT
100
AcDbText
 10
-41.06649880891973
 20
-52.30000000000007
 30
0.0
 40
3.5
  1
Geberit Silent PP
 72
     1
 11
-22.31428189213938
 21
-52.30000000000007
 31
0.0
100
AcDbText
  0
TEXT
  5
142
330
2
100
AcDbEntity
  8
GEB-ART-NR
100
AcDbText
 10
-46.48972669178497
 20
-64.1427812542803
 30
0.0
 40
3.5
  1
GEB-ART-NR 390.347
 72
     1
 11
-21.7617253275285
 21
-64.1427812542803
 31
0.0
100
AcDbText
  0
ENDSEC
  0
SECTION
  2
OBJECTS
  0
DICTIONARY
  5
9
330
0
100
AcDbDictionary
281
     1
  3
ACAD_2007HEADERVARS_RT
350
171
  3
ACAD_COLOR
350
44
  3
ACAD_GROUP
350
31
  3
ACAD_LAYOUT
350
16
  3
ACAD_MATERIAL
350
B
  3
ACAD_MLEADERSTYLE
350
47
  3
ACAD_MLINESTYLE
350
32
  3
ACAD_PLOTSETTINGS
350
33
  3
ACAD_PLOTSTYLENAME
350
8
  3
ACAD_SCALELIST
350
45
  3
ACAD_TABLESTYLE
350
46
  3
ACAD_VISUALSTYLE
350
2B
  3
ACDB_RECOMPOSE_DATA
350
170
  3
AcDbVariableDictionary
350
146
  0
DICTIONARY
  5
2C
330
28
100
AcDbDictionary
280
     1
281
     1
  0
DICTIONARY
  5
1C
330
1B
100
AcDbDictionary
280
     1
281
     1
  3
ACAD_LAYERFILTERS
360
1D
  3
ACLYDICTIONARY
360
1E
  0
DICTIONARY
  5
3
330
2
100
AcDbDictionary
280
     1
281
     1
  3
ACAD_SORTENTS
360
144
  0
DICTIONARY
  5
171
102
{ACAD_REACTORS
330
9
102
}
330
9
100
AcDbDictionary
281
     1
  3
DIMARCSYM
350
172
  3
DIMLTEX1
350
174
  3
DIMLTEX2
350
175
  3
DIMLTYPE
350
173
  0
DICTIONARY
  5
44
102
{ACAD_REACTORS
330
9
102
}
330
9
100
AcDbDictionary
281
     1
  0
DICTIONARY
  5
31
102
{ACAD_REACTORS
330
9
102
}
330
9
100
AcDbDictionary
281
     1
  0
DICTIONARY
  5
16
102
{ACAD_REACTORS
330
9
102
}
330
9
100
AcDbDictionary
281
     1
  3
Layout1
350
1A
  3
Model
350
15
  0
DICTIONARY
  5
B
102
{ACAD_REACTORS
330
9
102
}
330
9
100
AcDbDictionary
281
     1
  3
ByBlock
350
3C
  3
ByLayer
350
34
  3
Global
350
A
  0
DICTIONARY
  5
47
102
{ACAD_REACTORS
330
9
102
}
330
9
100
AcDbDictionary
281
     1
  3
Standard
350
164
  0
DICTIONARY
  5
32
102
{ACAD_REACTORS
330
9
102
}
330
9
100
AcDbDictionary
281
     1
  3
Standard
350
48
  0
DICTIONARY
  5
33
102
{ACAD_REACTORS
330
9
102
}
330
9
100
AcDbDictionary
281
     1
  0
ACDBDICTIONARYWDFLT
  5
8
102
{ACAD_REACTORS
330
9
102
}
330
9
100
AcDbDictionary
281
     1
  3
Normal
350
7
100
AcDbDictionaryWithDefault
340
7
  0
DICTIONARY
  5
45
102
{ACAD_REACTORS
330
9
102
}
330
9
100
AcDbDictionary
281
     1
  3
A0
350
4D
  3
A1
350
4E
  3
A2
350
4F
  3
A3
350
50
  3
A4
350
51
  3
A5
350
52
  3
A6
350
53
  3
A7
350
54
  3
A8
350
55
  3
A9
350
56
  3
B0
350
57
  3
B1
350
58
  3
B2
350
59
  3
B3
350
5A
  3
B4
350
5B
  3
B5
350
5C
  3
B6
350
5D
  3
B7
350
5E
  3
B8
350
5F
  3
B9
350
60
  3
C0
350
61
  3
C1
350
62
  3
C2
350
63
  3
C3
350
64
  3
C4
350
65
  3
C5
350
66
  3
C6
350
67
  3
C7
350
68
  3
C8
350
69
  3
C9
350
6A
  3
D0
350
6B
  3
D1
350
6C
  3
D2
350
6D
  0
DICTIONARY
  5
46
102
{ACAD_REACTORS
330
9
102
}
330
9
100
AcDbDictionary
281
     1
  3
Standard
350
49
  0
DICTIONARY
  5
2B
102
{ACAD_REACTORS
330
9
102
}
330
9
100
AcDbDictionary
281
     1
  3
2dWireframe
350
2A
  3
Basic
350
153
  3
Brighten
350
157
  3
ColorChange
350
15B
  3
Conceptual
350
155
  3
Dim
350
156
  3
EdgeColorOff
350
163
  3
Facepattern
350
15A
  3
Flat
350
14F
  3
FlatWithEdges
350
150
  3
Gouraud
350
151
  3
GouraudWithEdges
350
152
  3
Hidden
350
154
  3
JitterOff
350
161
  3
Linepattern
350
159
  3
OverhangOff
350
162
  3
Realistic
350
4B
  3
Shaded
350
160
  3
Shaded with edges
350
15F
  3
Shades of Gray
350
15C
  3
Sketchy
350
15D
  3
Thicken
350
158
  3
Wireframe
350
4C
  3
X-Ray
350
15E
  0
XRECORD
  5
170
102
{ACAD_REACTORS
330
9
102
}
330
9
100
AcDbXrecord
280
     1
 90
        1
330
49
  0
DICTIONARY
  5
146
102
{ACAD_REACTORS
330
9
102
}
330
9
100
AcDbDictionary
281
     1
  3
CANNOSCALE
350
14A
  3
CMLEADERSTYLE
350
148
  3
CTABLESTYLE
350
147
  3
DIMASSOC
350
16D
  3
HIDETEXT
350
16C
  3
INDEXCTL
350
16B
  3
LAYEREVAL
350
14C
  3
LAYERNOTIFY
350
14D
  3
LIGHTINGUNITS
350
14B
  3
MSLTSCALE
350
149
  3
SORTENTS
350
16A
  3
XCLIPFRAME
350
16E
  0
DICTIONARY
  5
1D
102
{ACAD_REACTORS
330
1C
102
}
330
1C
100
AcDbDictionary
281
     1
  0
DICTIONARY
  5
1E
102
{ACAD_REACTORS
330
1C
102
}
330
1C
100
AcDbDictionary
281
     1
1001
ACAD
1000
<All
  0
SORTENTSTABLE
  5
144
102
{ACAD_REACTORS
330
3
102
}
330
3
100
AcDbSortentsTable
330
2
331
F5
  5
C3
331
BE
  5
FA
331
7F
  5
137
331
134
  5
84
331
13C
  5
79
331
C6
  5
F2
331
87
  5
131
331
FD
  5
BB
331
CE
  5
EA
331
8F
  5
129
331
105
  5
B3
331
10D
  5
AB
331
97
  5
121
331
D6
  5
E2
331
115
  5
A3
331
DE
  5
DA
331
9F
  5
119
331
E6
  5
D2
331
A7
  5
111
331
11D
  5
9B
331
EE
  5
CA
331
AF
  5
109
331
125
  5
93
331
B7
  5
101
331
12D
  5
8B
331
6E
  5
13E
331
135
  5
81
331
F6
  5
C2
331
80
  5
136
331
BF
  5
F9
331
13D
  5
75
331
FE
  5
BA
331
88
  5
130
331
C7
  5
F1
331
106
  5
B2
331
CF
  5
E9
331
90
  5
128
331
D7
  5
E1
331
10E
  5
AA
331
98
  5
120
331
DF
  5
D9
331
A0
  5
118
331
116
  5
A2
331
11E
  5
9A
331
A8
  5
110
331
E7
  5
D1
331
126
  5
92
331
EF
  5
C9
331
B0
  5
108
331
12E
  5
8A
331
79
  5
13C
331
B8
  5
100
331
F7
  5
C1
331
C0
  5
F8
331
81
  5
135
331
136
  5
80
331
13E
  5
6E
331
C8
  5
F0
331
89
  5
12F
331
FF
  5
B9
331
107
  5
B1
331
91
  5
127
331
D0
  5
E8
331
10F
  5
A9
331
99
  5
11F
331
D8
  5
E0
331
117
  5
A1
331
E0
  5
D8
331
A1
  5
117
331
E8
  5
D0
331
A9
  5
10F
331
11F
  5
99
331
B1
  5
107
331
127
  5
91
331
12F
  5
89
331
B9
  5
FF
331
7A
  5
13B
331
F0
  5
C8
331
137
  5
7F
331
F8
  5
C0
331
C1
  5
F7
331
100
  5
B8
331
8A
  5
12E
331
C9
  5
EF
331
13F
  5
142
331
108
  5
B0
331
D1
  5
E7
331
92
  5
126
331
D9
  5
DF
331
9A
  5
11E
331
110
  5
A8
331
118
  5
A0
331
A2
  5
116
331
E1
  5
D7
331
120
  5
98
331
AA
  5
10E
331
E9
  5
CF
331
128
  5
90
331
B2
  5
106
331
F1
  5
C7
331
BA
  5
FE
331
7B
  5
13A
331
130
  5
88
331
F9
  5
BF
331
C2
  5
F6
331
138
  5
7D
331
CA
  5
EE
331
8B
  5
12D
331
101
  5
B7
331
109
  5
AF
331
93
  5
125
331
D2
  5
E6
331
111
  5
A7
331
9B
  5
11D
331
DA
  5
DE
331
119
  5
9F
331
E2
  5
D6
331
A3
  5
115
331
EA
  5
CE
331
AB
  5
10D
331
121
  5
97
331
B3
  5
105
331
129
  5
8F
331
131
  5
87
331
BB
  5
FD
331
7C
  5
139
331
F2
  5
C6
331
139
  5
7C
331
FA
  5
BE
331
84
  5
134
331
C3
  5
F5
331
102
  5
B6
331
CB
  5
ED
331
8C
  5
12C
331
10A
  5
AE
331
D3
  5
E5
331
94
  5
124
331
DB
  5
DD
331
9C
  5
11C
331
112
  5
A6
331
11A
  5
9E
331
A4
  5
114
331
E3
  5
D5
331
122
  5
96
331
AC
  5
10C
331
EB
  5
CD
331
12A
  5
8E
331
B4
  5
104
331
F3
  5
C5
331
BC
  5
FC
331
7D
  5
138
331
132
  5
86
331
13A
  5
7B
331
C4
  5
F4
331
85
  5
133
331
FB
  5
BD
331
142
  5
13F
331
CC
  5
EC
331
8D
  5
12B
331
103
  5
B5
331
10B
  5
AD
331
95
  5
123
331
D4
  5
E4
331
113
  5
A5
331
9D
  5
11B
331
11B
  5
9D
331
E4
  5
D4
331
A5
  5
113
331
EC
  5
CC
331
AD
  5
10B
331
123
  5
95
331
B5
  5
103
331
12B
  5
8D
331
133
  5
85
331
BD
  5
FB
331
F4
  5
C4
331
13B
  5
7A
331
FC
  5
BC
331
86
  5
132
331
C5
  5
F3
331
104
  5
B4
331
CD
  5
EB
331
8E
  5
12A
331
D5
  5
E3
331
96
  5
122
331
10C
  5
AC
331
DD
  5
DB
331
9E
  5
11A
331
114
  5
A4
331
11C
  5
9C
331
A6
  5
112
331
E5
  5
D3
331
124
  5
94
331
ED
  5
CB
331
AE
  5
10A
331
12C
  5
8C
331
B6
  5
102
331
75
  5
13D
  0
XRECORD
  5
172
102
{ACAD_REACTORS
330
171
102
}
330
171
100
AcDbXrecord
280
     1
 70
     1
  0
XRECORD
  5
174
102
{ACAD_REACTORS
330
171
102
}
330
171
100
AcDbXrecord
280
     1
340
24
  0
XRECORD
  5
175
102
{ACAD_REACTORS
330
171
102
}
330
171
100
AcDbXrecord
280
     1
340
24
  0
XRECORD
  5
173
102
{ACAD_REACTORS
330
171
102
}
330
171
100
AcDbXrecord
280
     1
340
24
  0
LAYOUT
  5
1A
102
{ACAD_XDICTIONARY
360
179
102
}
102
{ACAD_REACTORS
330
16
102
}
330
16
100
AcDbPlotSettings
  1

  2
\\le-server\HP LaserJet 2100
  4

  6

 40
0.0
 41
0.0
 42
0.0
 43
0.0
 44
0.0
 45
0.0
 46
0.0
 47
0.0
 48
0.0
 49
0.0
140
0.0
141
0.0
142
1.0
143
1.0
 70
   688
 72
     0
 73
     0
 74
     5
  7

 75
    16
147
1.0
148
0.0
149
0.0
100
AcDbLayout
  1
Layout1
 70
     1
 71
     1
 10
0.0
 20
0.0
 11
1189.0
 21
840.9999999999998
 12
0.0
 22
0.0
 32
0.0
 14
0.0
 24
0.0
 34
0.0
 15
1189.0
 25
840.9999999999998
 35
0.0
146
0.0
 13
0.0
 23
0.0
 33
0.0
 16
1.0
 26
0.0
 36
0.0
 17
0.0
 27
1.0
 37
0.0
 76
     0
330
17
  0
LAYOUT
  5
15
102
{ACAD_XDICTIONARY
360
177
102
}
102
{ACAD_REACTORS
330
16
102
}
330
16
100
AcDbPlotSettings
  1

  2
\\le-server\HP LaserJet 2100
  4

  6

 40
0.0
 41
0.0
 42
0.0
 43
0.0
 44
0.0
 45
0.0
 46
0.0
 47
0.0
 48
0.0
 49
0.0
140
0.0
141
0.0
142
1.0
143
1.0
 70
  1712
 72
     0
 73
     0
 74
     0
  7

 75
     0
147
1.0
148
0.0
149
0.0
100
AcDbLayout
  1
Model
 70
     1
 71
     0
 10
0.0
 20
0.0
 11
12.0
 21
9.0
 12
0.0
 22
0.0
 32
0.0
 14
0.0
 24
0.0
 34
0.0
 15
0.0
 25
0.0
 35
0.0
146
0.0
 13
0.0
 23
0.0
 33
0.0
 16
1.0
 26
0.0
 36
0.0
 17
0.0
 27
1.0
 37
0.0
 76
     0
330
2
331
29
  0
MATERIAL
  5
3C
102
{ACAD_XDICTIONARY
360
3D
102
}
102
{ACAD_REACTORS
330
B
102
}
330
B
100
AcDbMaterial
  1
ByBlock
 72
     0
 43
0.0208333333333333
 43
0.0
 43
0.0
 43
0.0
 43
0.0
 43
0.0208333333333333
 43
0.0
 43
0.0
 43
0.0
 43
0.0
 43
1.0
 43
0.0
 43
0.0
 43
0.0
 43
0.0
 43
1.0
 77
     0
 47
0.0208333333333333
 47
0.0
 47
0.0
 47
0.0
 47
0.0
 47
0.0208333333333333
 47
0.0
 47
0.0
 47
0.0
 47
0.0
 47
1.0
 47
0.0
 47
0.0
 47
0.0
 47
0.0
 47
1.0
171
     0
 49
0.0208333333333333
 49
0.0
 49
0.0
 49
0.0
 49
0.0
 49
0.0208333333333333
 49
0.0
 49
0.0
 49
0.0
 49
0.0
 49
1.0
 49
0.0
 49
0.0
 49
0.0
 49
0.0
 49
1.0
175
     0
142
0.0208333333333333
142
0.0
142
0.0
142
0.0
142
0.0
142
0.0208333333333333
142
0.0
142
0.0
142
0.0
142
0.0
142
1.0
142
0.0
142
0.0
142
0.0
142
0.0
142
1.0
179
     0
144
0.0208333333333333
144
0.0
144
0.0
144
0.0
144
0.0
144
0.0208333333333333
144
0.0
144
0.0
144
0.0
144
0.0
144
1.0
144
0.0
144
0.0
144
0.0
144
0.0
144
1.0
147
0.0208333333333333
147
0.0
147
0.0
147
0.0
147
0.0
147
0.0208333333333333
147
0.0
147
0.0
147
0.0
147
0.0
147
1.0
147
0.0
147
0.0
147
0.0
147
0.0
147
1.0
  0
MATERIAL
  5
34
102
{ACAD_XDICTIONARY
360
35
102
}
102
{ACAD_REACTORS
330
B
102
}
330
B
100
AcDbMaterial
  1
ByLayer
 72
     0
 43
0.0208333333333333
 43
0.0
 43
0.0
 43
0.0
 43
0.0
 43
0.0208333333333333
 43
0.0
 43
0.0
 43
0.0
 43
0.0
 43
1.0
 43
0.0
 43
0.0
 43
0.0
 43
0.0
 43
1.0
 77
     0
 47
0.0208333333333333
 47
0.0
 47
0.0
 47
0.0
 47
0.0
 47
0.0208333333333333
 47
0.0
 47
0.0
 47
0.0
 47
0.0
 47
1.0
 47
0.0
 47
0.0
 47
0.0
 47
0.0
 47
1.0
171
     0
 49
0.0208333333333333
 49
0.0
 49
0.0
 49
0.0
 49
0.0
 49
0.0208333333333333
 49
0.0
 49
0.0
 49
0.0
 49
0.0
 49
1.0
 49
0.0
 49
0.0
 49
0.0
 49
0.0
 49
1.0
175
     0
142
0.0208333333333333
142
0.0
142
0.0
142
0.0
142
0.0
142
0.0208333333333333
142
0.0
142
0.0
142
0.0
142
0.0
142
1.0
142
0.0
142
0.0
142
0.0
142
0.0
142
1.0
179
     0
144
0.0208333333333333
144
0.0
144
0.0
144
0.0
144
0.0
144
0.0208333333333333
144
0.0
144
0.0
144
0.0
144
0.0
144
1.0
144
0.0
144
0.0
144
0.0
144
0.0
144
1.0
147
0.0208333333333333
147
0.0
147
0.0
147
0.0
147
0.0
147
0.0208333333333333
147
0.0
147
0.0
147
0.0
147
0.0
147
1.0
147
0.0
147
0.0
147
0.0
147
0.0
147
1.0
  0
MATERIAL
  5
A
102
{ACAD_XDICTIONARY
360
C
102
}
102
{ACAD_REACTORS
330
B
102
}
330
B
100
AcDbMaterial
  1
Global
 72
     0
 43
0.0208333333333333
 43
0.0
 43
0.0
 43
0.0
 43
0.0
 43
0.0208333333333333
 43
0.0
 43
0.0
 43
0.0
 43
0.0
 43
1.0
 43
0.0
 43
0.0
 43
0.0
 43
0.0
 43
1.0
 77
     0
 47
0.0208333333333333
 47
0.0
 47
0.0
 47
0.0
 47
0.0
 47
0.0208333333333333
 47
0.0
 47
0.0
 47
0.0
 47
0.0
 47
1.0
 47
0.0
 47
0.0
 47
0.0
 47
0.0
 47
1.0
171
     0
 49
0.0208333333333333
 49
0.0
 49
0.0
 49
0.0
 49
0.0
 49
0.0208333333333333
 49
0.0
 49
0.0
 49
0.0
 49
0.0
 49
1.0
 49
0.0
 49
0.0
 49
0.0
 49
0.0
 49
1.0
175
     0
142
0.0208333333333333
142
0.0
142
0.0
142
0.0
142
0.0
142
0.0208333333333333
142
0.0
142
0.0
142
0.0
142
0.0
142
1.0
142
0.0
142
0.0
142
0.0
142
0.0
142
1.0
179
     0
144
0.0208333333333333
144
0.0
144
0.0
144
0.0
144
0.0
144
0.0208333333333333
144
0.0
144
0.0
144
0.0
144
0.0
144
1.0
144
0.0
144
0.0
144
0.0
144
0.0
144
1.0
147
0.0208333333333333
147
0.0
147
0.0
147
0.0
147
0.0
147
0.0208333333333333
147
0.0
147
0.0
147
0.0
147
0.0
147
1.0
147
0.0
147
0.0
147
0.0
147
0.0
147
1.0
  0
MLEADERSTYLE
  5
164
102
{ACAD_REACTORS
330
47
102
}
330
47
100
AcDbMLeaderStyle
170
     2
171
     1
172
     0
 90
        2
 40
0.0
 41
0.0
173
     1
 91
-1056964608
340
24
 92
       -2
290
     1
 42
2.0
291
     1
 43
0.36
  3
Standard
 44
4.0
300

342
21
174
     1
178
     6
175
     1
176
     0
 93
-1056964608
 45
4.0
292
     0
297
     0
 46
4.0
 94
-1056964608
 47
1.0
 49
1.0
140
1.0
293
     1
141
0.0
294
     1
177
     0
142
1.0
295
     0
296
     0
143
0.125
1001
ACAD_MLEADERVER
1070
     2
  0
MLINESTYLE
  5
48
102
{ACAD_REACTORS
330
32
102
}
330
32
100
AcDbMlineStyle
  2
STANDARD
 70
     0
  3

 62
   256
 51
90.0
 52
90.0
 71
     2
 49
0.5
 62
   256
  6
BYLAYER
 49
-0.5
 62
   256
  6
BYLAYER
  0
ACDBPLACEHOLDER
  5
7
102
{ACAD_REACTORS
330
8
102
}
330
8
  0
SCALE
  5
4D
102
{ACAD_REACTORS
330
45
102
}
330
45
100
AcDbScale
 70
     0
300
1:1
140
1.0
141
1.0
290
     1
  0
SCALE
  5
4E
102
{ACAD_REACTORS
330
45
102
}
330
45
100
AcDbScale
 70
     0
300
1:2
140
1.0
141
2.0
290
     0
  0
SCALE
  5
4F
102
{ACAD_REACTORS
330
45
102
}
330
45
100
AcDbScale
 70
     0
300
1:4
140
1.0
141
4.0
290
     0
  0
SCALE
  5
50
102
{ACAD_REACTORS
330
45
102
}
330
45
100
AcDbScale
 70
     0
300
1:5
140
1.0
141
5.0
290
     0
  0
SCALE
  5
51
102
{ACAD_REACTORS
330
45
102
}
330
45
100
AcDbScale
 70
     0
300
1:8
140
1.0
141
8.0
290
     0
  0
SCALE
  5
52
102
{ACAD_REACTORS
330
45
102
}
330
45
100
AcDbScale
 70
     0
300
1:10
140
1.0
141
10.0
290
     0
  0
SCALE
  5
53
102
{ACAD_REACTORS
330
45
102
}
330
45
100
AcDbScale
 70
     0
300
1:16
140
1.0
141
16.0
290
     0
  0
SCALE
  5
54
102
{ACAD_REACTORS
330
45
102
}
330
45
100
AcDbScale
 70
     0
300
1:20
140
1.0
141
20.0
290
     0
  0
SCALE
  5
55
102
{ACAD_REACTORS
330
45
102
}
330
45
100
AcDbScale
 70
     0
300
1:30
140
1.0
141
30.0
290
     0
  0
SCALE
  5
56
102
{ACAD_REACTORS
330
45
102
}
330
45
100
AcDbScale
 70
     0
300
1:40
140
1.0
141
40.0
290
     0
  0
SCALE
  5
57
102
{ACAD_REACTORS
330
45
102
}
330
45
100
AcDbScale
 70
     0
300
1:50
140
1.0
141
50.0
290
     0
  0
SCALE
  5
58
102
{ACAD_REACTORS
330
45
102
}
330
45
100
AcDbScale
 70
     0
300
1:100
140
1.0
141
100.0
290
     0
  0
SCALE
  5
59
102
{ACAD_REACTORS
330
45
102
}
330
45
100
AcDbScale
 70
     0
300
2:1
140
2.0
141
1.0
290
     0
  0
SCALE
  5
5A
102
{ACAD_REACTORS
330
45
102
}
330
45
100
AcDbScale
 70
     0
300
4:1
140
4.0
141
1.0
290
     0
  0
SCALE
  5
5B
102
{ACAD_REACTORS
330
45
102
}
330
45
100
AcDbScale
 70
     0
300
8:1
140
8.0
141
1.0
290
     0
  0
SCALE
  5
5C
102
{ACAD_REACTORS
330
45
102
}
330
45
100
AcDbScale
 70
     0
300
10:1
140
10.0
141
1.0
290
     0
  0
SCALE
  5
5D
102
{ACAD_REACTORS
330
45
102
}
330
45
100
AcDbScale
 70
     0
300
100:1
140
100.0
141
1.0
290
     0
  0
SCALE
  5
5E
102
{ACAD_REACTORS
330
45
102
}
330
45
100
AcDbScale
 70
     0
300
1/128" = 1'-0"
140
0.0078125
141
12.0
290
     0
  0
SCALE
  5
5F
102
{ACAD_REACTORS
330
45
102
}
330
45
100
AcDbScale
 70
     0
300
1/64" = 1'-0"
140
0.015625
141
12.0
290
     0
  0
SCALE
  5
60
102
{ACAD_REACTORS
330
45
102
}
330
45
100
AcDbScale
 70
     0
300
1/32" = 1'-0"
140
0.03125
141
12.0
290
     0
  0
SCALE
  5
61
102
{ACAD_REACTORS
330
45
102
}
330
45
100
AcDbScale
 70
     0
300
1/16" = 1'-0"
140
0.0625
141
12.0
290
     0
  0
SCALE
  5
62
102
{ACAD_REACTORS
330
45
102
}
330
45
100
AcDbScale
 70
     0
300
3/32" = 1'-0"
140
0.09375
141
12.0
290
     0
  0
SCALE
  5
63
102
{ACAD_REACTORS
330
45
102
}
330
45
100
AcDbScale
 70
     0
300
1/8" = 1'-0"
140
0.125
141
12.0
290
     0
  0
SCALE
  5
64
102
{ACAD_REACTORS
330
45
102
}
330
45
100
AcDbScale
 70
     0
300
3/16" = 1'-0"
140
0.1875
141
12.0
290
     0
  0
SCALE
  5
65
102
{ACAD_REACTORS
330
45
102
}
330
45
100
AcDbScale
 70
     0
300
1/4" = 1'-0"
140
0.25
141
12.0
290
     0
  0
SCALE
  5
66
102
{ACAD_REACTORS
330
45
102
}
330
45
100
AcDbScale
 70
     0
300
3/8" = 1'-0"
140
0.375
141
12.0
290
     0
  0
SCALE
  5
67
102
{ACAD_REACTORS
330
45
102
}
330
45
100
AcDbScale
 70
     0
300
1/2" = 1'-0"
140
0.5
141
12.0
290
     0
  0
SCALE
  5
68
102
{ACAD_REACTORS
330
45
102
}
330
45
100
AcDbScale
 70
     0
300
3/4" = 1'-0"
140
0.75
141
12.0
290
     0
  0
SCALE
  5
69
102
{ACAD_REACTORS
330
45
102
}
330
45
100
AcDbScale
 70
     0
300
1" = 1'-0"
140
1.0
141
12.0
290
     0
  0
SCALE
  5
6A
102
{ACAD_REACTORS
330
45
102
}
330
45
100
AcDbScale
 70
     0
300
1-1/2" = 1'-0"
140
1.5
141
12.0
290
     0
  0
SCALE
  5
6B
102
{ACAD_REACTORS
330
45
102
}
330
45
100
AcDbScale
 70
     0
300
3" = 1'-0"
140
3.0
141
12.0
290
     0
  0
SCALE
  5
6C
102
{ACAD_REACTORS
330
45
102
}
330
45
100
AcDbScale
 70
     0
300
6" = 1'-0"
140
6.0
141
12.0
290
     0
  0
SCALE
  5
6D
102
{ACAD_REACTORS
330
45
102
}
330
45
100
AcDbScale
 70
     0
300
1'-0" = 1'-0"
140
12.0
141
12.0
290
     0
  0
TABLESTYLE
  5
49
102
{ACAD_XDICTIONARY
360
4A
102
}
102
{ACAD_REACTORS
330
46
102
}
330
46
100
AcDbTableStyle
  3
Standard
 70
     0
 71
     0
 40
0.06
 41
0.06
280
     0
281
     0
  7
STANDARD
140
0.18
170
     2
 62
     0
 63
     7
283
     0
274
    -2
284
     1
 64
     0
275
    -2
285
     1
 65
     0
276
    -2
286
     1
 66
     0
277
    -2
287
     1
 67
     0
278
    -2
288
     1
 68
     0
279
    -2
289
     1
 69
     0
  7
STANDARD
140
0.25
170
     5
 62
     0
 63
     7
283
     0
274
    -2
284
     1
 64
     0
275
    -2
285
     1
 65
     0
276
    -2
286
     1
 66
     0
277
    -2
287
     1
 67
     0
278
    -2
288
     1
 68
     0
279
    -2
289
     1
 69
     0
  7
STANDARD
140
0.18
170
     5
 62
     0
 63
     7
283
     0
274
    -2
284
     1
 64
     0
275
    -2
285
     1
 65
     0
276
    -2
286
     1
 66
     0
277
    -2
287
     1
 67
     0
278
    -2
288
     1
 68
     0
279
    -2
289
     1
 69
     0
  0
VISUALSTYLE
  5
2A
102
{ACAD_XDICTIONARY
360
17B
102
}
102
{ACAD_REACTORS
330
2B
102
}
330
2B
100
AcDbVisualStyle
  2
2dWireframe
 70
     4
 71
     0
 72
     2
 73
     0
 90
        0
 40
-0.6
 41
-30.0
 62
     5
 63
     7
 74
     1
 91
        4
 64
     7
 65
   257
 75
     1
175
     1
 42
1.0
 92
        0
 66
   257
 43
1.0
 76
     1
 77
     6
 78
     2
 67
     7
 79
     5
170
     0
171
     0
290
     0
174
     0
 93
        1
 44
0.0
173
     0
291
     0
 45
0.0
1001
ACAD
1000
AcDbSavedByObjectVersion
1070
     0
  0
VISUALSTYLE
  5
153
102
{ACAD_XDICTIONARY
360
18C
102
}
102
{ACAD_REACTORS
330
2B
102
}
330
2B
100
AcDbVisualStyle
  2
Basic
 70
     7
 71
     1
 72
     0
 73
     1
 90
        0
 40
-0.6
 41
-30.0
 62
     5
 63
     7
 74
     0
 91
        4
 64
     7
 65
   257
 75
     1
175
     1
 42
1.0
 92
        8
 66
     7
 43
1.0
 76
     1
 77
     6
 78
     2
 67
     7
 79
     5
170
     0
171
     0
290
     0
174
     0
 93
        1
 44
0.0
173
     0
291
     1
 45
0.0
1001
ACAD
1000
AcDbSavedByObjectVersion
1070
     0
  0
VISUALSTYLE
  5
157
102
{ACAD_XDICTIONARY
360
194
102
}
102
{ACAD_REACTORS
330
2B
102
}
330
2B
100
AcDbVisualStyle
  2
Brighten
 70
    12
 71
     2
 72
     2
 73
     0
 90
        0
 40
-0.6
 41
-30.0
 62
     5
 63
     7
 74
     1
 91
        4
 64
     7
 65
   257
 75
     1
175
     1
 42
1.0
 92
        8
 66
     7
 43
1.0
 76
     1
 77
     6
 78
     2
 67
     7
 79
     5
170
     0
171
     0
290
     0
174
     0
 93
        1
 44
50.0
173
     0
291
     1
 45
0.0
1001
ACAD
1000
AcDbSavedByObjectVersion
1070
     0
  0
VISUALSTYLE
  5
15B
102
{ACAD_XDICTIONARY
360
19C
102
}
102
{ACAD_REACTORS
330
2B
102
}
330
2B
100
AcDbVisualStyle
  2
ColorChange
 70
    16
 71
     2
 72
     2
 73
     3
 90
        0
 40
-0.6
 41
-30.0
 62
     5
 63
     8
 74
     1
 91
        4
 64
     7
 65
   257
 75
     1
175
     1
 42
1.0
 92
        8
 66
     8
 43
1.0
 76
     1
 77
     6
 78
     2
 67
     7
 79
     5
170
     0
171
     0
290
     0
174
     0
 93
        1
 44
0.0
173
     0
291
     1
 45
0.0
1001
ACAD
1000
AcDbSavedByObjectVersion
1070
     0
  0
VISUALSTYLE
  5
155
102
{ACAD_XDICTIONARY
360
190
102
}
102
{ACAD_REACTORS
330
2B
102
}
330
2B
100
AcDbVisualStyle
  2
Conceptual
 70
     9
 71
     3
 72
     2
 73
     0
 90
        0
 40
-0.6
 41
-30.0
 62
     5
 63
     7
 74
     2
 91
        2
 64
     7
 65
   257
 75
     1
175
     1
 42
179.0
 92
        8
 66
     7
 43
1.0
 76
     1
 77
     6
 78
     2
 67
     7
 79
     3
170
     0
171
     0
290
     0
174
     0
 93
        1
 44
0.0
173
     0
291
     0
 45
0.0
1001
ACAD
1000
AcDbSavedByObjectVersion
1070
     0
  0
VISUALSTYLE
  5
156
102
{ACAD_XDICTIONARY
360
192
102
}
102
{ACAD_REACTORS
330
2B
102
}
330
2B
100
AcDbVisualStyle
  2
Dim
 70
    11
 71
     2
 72
     2
 73
     0
 90
        0
 40
-0.6
 41
-30.0
 62
     5
 63
     7
 74
     1
 91
        4
 64
     7
 65
   257
 75
     1
175
     1
 42
1.0
 92
        8
 66
     7
 43
1.0
 76
     1
 77
     6
 78
     2
 67
     7
 79
     5
170
     0
171
     0
290
     0
174
     0
 93
        1
 44
-50.0
173
     0
291
     1
 45
0.0
1001
ACAD
1000
AcDbSavedByObjectVersion
1070
     0
  0
VISUALSTYLE
  5
163
102
{ACAD_XDICTIONARY
360
1AC
102
}
102
{ACAD_REACTORS
330
2B
102
}
330
2B
100
AcDbVisualStyle
  2
EdgeColorOff
 70
    22
 71
     2
 72
     2
 73
     0
 90
        0
 40
-0.6
 41
-30.0
 62
     5
 63
     7
 74
     1
 91
        4
 64
     7
 65
   257
 75
     1
175
     1
 42
1.0
 92
        8
 66
     7
 43
1.0
 76
     1
 77
     6
 78
     2
 67
     7
 79
     5
170
     0
171
     0
290
     0
174
     0
 93
        1
 44
0.0
173
     0
291
     1
 45
0.0
1001
ACAD
1000
AcDbSavedByObjectVersion
1070
     0
  0
VISUALSTYLE
  5
15A
102
{ACAD_XDICTIONARY
360
19A
102
}
102
{ACAD_REACTORS
330
2B
102
}
330
2B
100
AcDbVisualStyle
  2
Facepattern
 70
    15
 71
     2
 72
     2
 73
     0
 90
        0
 40
-0.6
 41
-30.0
 62
     5
 63
     7
 74
     1
 91
        4
 64
     7
 65
   257
 75
     1
175
     1
 42
1.0
 92
        8
 66
     7
 43
1.0
 76
     1
 77
     6
 78
     2
 67
     7
 79
     5
170
     0
171
     0
290
     0
174
     0
 93
        1
 44
0.0
173
     0
291
     1
 45
0.0
1001
ACAD
1000
AcDbSavedByObjectVersion
1070
     0
  0
VISUALSTYLE
  5
14F
102
{ACAD_XDICTIONARY
360
184
102
}
102
{ACAD_REACTORS
330
2B
102
}
330
2B
100
AcDbVisualStyle
  2
Flat
 70
     0
 71
     2
 72
     1
 73
     1
 90
        2
 40
-0.6
 41
30.0
 62
     5
 63
     7
 74
     0
 91
        0
 64
     7
 65
   257
 75
     1
175
     1
 42
1.0
 92
        8
 66
     7
 43
1.0
 76
     1
 77
     6
 78
     2
 67
     7
 79
     5
170
     0
171
     0
290
     0
174
     0
 93
       13
 44
0.0
173
     0
291
     1
 45
0.0
1001
ACAD
1000
AcDbSavedByObjectVersion
1070
     0
  0
VISUALSTYLE
  5
150
102
{ACAD_XDICTIONARY
360
186
102
}
102
{ACAD_REACTORS
330
2B
102
}
330
2B
100
AcDbVisualStyle
  2
FlatWithEdges
 70
     1
 71
     2
 72
     1
 73
     1
 90
        2
 40
-0.6
 41
30.0
 62
     5
 63
     7
 74
     1
 91
        0
 64
     7
 65
   257
 75
     1
175
     1
 42
1.0
 92
        0
 66
   257
 43
1.0
 76
     1
 77
     6
 78
     2
 67
     7
 79
     5
170
     0
171
     0
290
     0
174
     0
 93
       13
 44
0.0
173
     0
291
     1
 45
0.0
1001
ACAD
1000
AcDbSavedByObjectVersion
1070
     0
  0
VISUALSTYLE
  5
151
102
{ACAD_XDICTIONARY
360
188
102
}
102
{ACAD_REACTORS
330
2B
102
}
330
2B
100
AcDbVisualStyle
  2
Gouraud
 70
     2
 71
     2
 72
     2
 73
     1
 90
        2
 40
-0.6
 41
30.0
 62
     5
 63
     7
 74
     0
 91
        0
 64
     7
 65
   257
 75
     1
175
     1
 42
1.0
 92
        0
 66
     7
 43
1.0
 76
     1
 77
     6
 78
     2
 67
     7
 79
     5
170
     0
171
     0
290
     0
174
     0
 93
       13
 44
0.0
173
     0
291
     1
 45
0.0
1001
ACAD
1000
AcDbSavedByObjectVersion
1070
     0
  0
VISUALSTYLE
  5
152
102
{ACAD_XDICTIONARY
360
18A
102
}
102
{ACAD_REACTORS
330
2B
102
}
330
2B
100
AcDbVisualStyle
  2
GouraudWithEdges
 70
     3
 71
     2
 72
     2
 73
     1
 90
        2
 40
-0.6
 41
30.0
 62
     5
 63
     7
 74
     1
 91
        0
 64
     7
 65
   257
 75
     1
175
     1
 42
1.0
 92
        0
 66
   257
 43
1.0
 76
     1
 77
     6
 78
     2
 67
     7
 79
     5
170
     0
171
     0
290
     0
174
     0
 93
       13
 44
0.0
173
     0
291
     1
 45
0.0
1001
ACAD
1000
AcDbSavedByObjectVersion
1070
     0
  0
VISUALSTYLE
  5
154
102
{ACAD_XDICTIONARY
360
18E
102
}
102
{ACAD_REACTORS
330
2B
102
}
330
2B
100
AcDbVisualStyle
  2
Hidden
 70
     6
 71
     1
 72
     2
 73
     2
 90
        0
 40
-0.6
 41
-30.0
 62
     5
 63
     7
 74
     2
 91
        2
 64
     7
 65
   257
 75
     2
175
     1
 42
40.0
 92
        0
 66
   257
 43
1.0
 76
     1
 77
     6
 78
     2
 67
     7
 79
     3
170
     0
171
     0
290
     0
174
     0
 93
        1
 44
0.0
173
     0
291
     0
 45
0.0
1001
ACAD
1000
AcDbSavedByObjectVersion
1070
     0
  0
VISUALSTYLE
  5
161
102
{ACAD_XDICTIONARY
360
1A8
102
}
102
{ACAD_REACTORS
330
2B
102
}
330
2B
100
AcDbVisualStyle
  2
JitterOff
 70
    20
 71
     2
 72
     2
 73
     0
 90
        0
 40
-0.6
 41
-30.0
 62
     5
 63
     7
 74
     1
 91
        4
 64
     7
 65
   257
 75
     1
175
     1
 42
1.0
 92
       10
 66
     7
 43
1.0
 76
     1
 77
     6
 78
     2
 67
     7
 79
     5
170
     0
171
     0
290
     0
174
     0
 93
        1
 44
0.0
173
     0
291
     1
 45
0.0
1001
ACAD
1000
AcDbSavedByObjectVersion
1070
     0
  0
VISUALSTYLE
  5
159
102
{ACAD_XDICTIONARY
360
198
102
}
102
{ACAD_REACTORS
330
2B
102
}
330
2B
100
AcDbVisualStyle
  2
Linepattern
 70
    14
 71
     2
 72
     2
 73
     0
 90
        0
 40
-0.6
 41
-30.0
 62
     5
 63
     7
 74
     1
 91
        4
 64
     7
 65
   257
 75
     7
175
     7
 42
1.0
 92
        8
 66
     7
 43
1.0
 76
     1
 77
     6
 78
     2
 67
     7
 79
     5
170
     0
171
     0
290
     0
174
     0
 93
        1
 44
0.0
173
     0
291
     1
 45
0.0
1001
ACAD
1000
AcDbSavedByObjectVersion
1070
     0
  0
VISUALSTYLE
  5
162
102
{ACAD_XDICTIONARY
360
1AA
102
}
102
{ACAD_REACTORS
330
2B
102
}
330
2B
100
AcDbVisualStyle
  2
OverhangOff
 70
    21
 71
     2
 72
     2
 73
     0
 90
        0
 40
-0.6
 41
-30.0
 62
     5
 63
     7
 74
     1
 91
        4
 64
     7
 65
   257
 75
     1
175
     1
 42
1.0
 92
        9
 66
     7
 43
1.0
 76
     1
 77
     6
 78
     2
 67
     7
 79
     5
170
     0
171
     0
290
     0
174
     0
 93
        1
 44
0.0
173
     0
291
     1
 45
0.0
1001
ACAD
1000
AcDbSavedByObjectVersion
1070
     0
  0
VISUALSTYLE
  5
4B
102
{ACAD_XDICTIONARY
360
180
102
}
102
{ACAD_REACTORS
330
2B
102
}
330
2B
100
AcDbVisualStyle
  2
Realistic
 70
     8
 71
     2
 72
     2
 73
     0
 90
        0
 40
-0.6
 41
-30.0
 62
     5
 63
     7
 74
     1
 91
        0
 64
     7
 65
   257
 75
     1
175
     1
 42
1.0
 92
        8
 66
     8
 43
1.0
 76
     1
 77
     6
 78
     2
 67
     7
 79
     5
170
     0
171
     0
290
     0
174
     0
 93
       13
 44
0.0
173
     0
291
     0
 45
0.0
1001
ACAD
1000
AcDbSavedByObjectVersion
1070
     0
  0
VISUALSTYLE
  5
160
102
{ACAD_XDICTIONARY
360
1A6
102
}
102
{ACAD_REACTORS
330
2B
102
}
330
2B
100
AcDbVisualStyle
  2
Shaded
 70
    27
 71
     2
 72
     2
 73
     1
 90
        2
 40
-0.6
 41
30.0
 62
     5
 63
     7
 74
     0
 91
        4
 64
     7
 65
   257
 75
     1
175
     1
 42
1.0
 92
        8
 66
   257
 43
1.0
 76
     1
 77
     6
 78
     2
 67
     8
 79
     3
170
     0
171
     0
290
     0
174
     0
 93
        5
 44
0.0
173
     0
291
     0
 45
0.0
1001
ACAD
1000
AcDbSavedByObjectVersion
1070
     0
  0
VISUALSTYLE
  5
15F
102
{ACAD_XDICTIONARY
360
1A4
102
}
102
{ACAD_REACTORS
330
2B
102
}
330
2B
100
AcDbVisualStyle
  2
Shaded with edges
 70
    26
 71
     2
 72
     2
 73
     1
 90
        2
 40
-0.6
 41
30.0
 62
     5
 63
     7
 74
     1
 91
       10
 64
     7
 65
   257
 75
     2
175
     1
 42
1.0
 92
        8
 66
   257
 43
1.0
 76
     1
 77
     6
 78
     2
 67
     7
 79
     3
170
     0
171
     0
290
     0
174
     0
 93
        5
 44
0.0
173
     0
291
     0
 45
0.0
1001
ACAD
1000
AcDbSavedByObjectVersion
1070
     0
  0
VISUALSTYLE
  5
15C
102
{ACAD_XDICTIONARY
360
19E
102
}
102
{ACAD_REACTORS
330
2B
102
}
330
2B
100
AcDbVisualStyle
  2
Shades of Gray
 70
    23
 71
     2
 72
     2
 73
     3
 90
        0
 40
-0.6
 41
-30.0
 62
     5
 63
     7
 74
     2
 91
        2
 64
     7
 65
     7
 75
     1
175
     1
 42
40.0
 92
        8
 66
     7
 43
1.0
 76
     1
 77
     6
 78
     2
 67
     7
 79
     3
170
     0
171
     0
290
     0
174
     0
 93
        1
 44
0.0
173
     0
291
     0
 45
0.0
1001
ACAD
1000
AcDbSavedByObjectVersion
1070
     0
  0
VISUALSTYLE
  5
15D
102
{ACAD_XDICTIONARY
360
1A0
102
}
102
{ACAD_REACTORS
330
2B
102
}
330
2B
100
AcDbVisualStyle
  2
Sketchy
 70
    24
 71
     1
 72
     2
 73
     2
 90
        0
 40
-0.6
 41
-30.0
 62
     5
 63
     7
 74
     2
 91
        2
 64
     7
 65
     7
 75
     1
175
     1
 42
40.0
 92
       11
 66
     7
 43
1.0
 76
     1
 77
     6
 78
     2
 67
     7
 79
     6
170
     0
171
     0
290
     0
174
     0
 93
        1
 44
0.0
173
     0
291
     0
 45
0.0
1001
ACAD
1000
AcDbSavedByObjectVersion
1070
     0
  0
VISUALSTYLE
  5
158
102
{ACAD_XDICTIONARY
360
196
102
}
102
{ACAD_REACTORS
330
2B
102
}
330
2B
100
AcDbVisualStyle
  2
Thicken
 70
    13
 71
     2
 72
     2
 73
     0
 90
        0
 40
-0.6
 41
-30.0
 62
     5
 63
     7
 74
     1
 91
        4
 64
     7
 65
   257
 75
     1
175
     1
 42
1.0
 92
       12
 66
     7
 43
1.0
 76
     1
 77
     6
 78
     2
 67
     7
 79
     5
170
     0
171
     0
290
     0
174
     0
 93
        1
 44
0.0
173
     0
291
     1
 45
0.0
1001
ACAD
1000
AcDbSavedByObjectVersion
1070
     0
  0
VISUALSTYLE
  5
4C
102
{ACAD_XDICTIONARY
360
182
102
}
102
{ACAD_REACTORS
330
2B
102
}
330
2B
100
AcDbVisualStyle
  2
Wireframe
 70
     5
 71
     0
 72
     2
 73
     0
 90
        0
 40
-0.6
 41
-30.0
 62
     5
 63
     7
 74
     1
 91
        4
 64
     7
 65
   257
 75
     1
175
     1
 42
1.0
 92
        0
 66
   257
 43
1.0
 76
     1
 77
     6
 78
     2
 67
     7
 79
     3
170
     0
171
     0
290
     0
174
     0
 93
        1
 44
0.0
173
     0
291
     0
 45
0.0
1001
ACAD
1000
AcDbSavedByObjectVersion
1070
     0
  0
VISUALSTYLE
  5
15E
102
{ACAD_XDICTIONARY
360
1A2
102
}
102
{ACAD_REACTORS
330
2B
102
}
330
2B
100
AcDbVisualStyle
  2
X-Ray
 70
    25
 71
     2
 72
     2
 73
     1
 90
        1
 40
0.5
 41
-30.0
 62
     5
 63
     7
 74
     1
 91
        0
 64
     7
 65
   257
 75
     1
175
     1
 42
1.0
 92
        8
 66
     7
 43
1.0
 76
     1
 77
     6
 78
     2
 67
     7
 79
     3
170
     0
171
     0
290
     0
174
     0
 93
       13
 44
0.0
173
     0
291
     0
 45
0.0
1001
ACAD
1000
AcDbSavedByObjectVersion
1070
     0
  0
DICTIONARYVAR
  5
14A
102
{ACAD_REACTORS
330
146
102
}
330
146
100
DictionaryVariables
280
     0
  1
1:1
  0
DICTIONARYVAR
  5
148
102
{ACAD_REACTORS
330
146
102
}
330
146
100
DictionaryVariables
280
     0
  1
STANDARD
  0
DICTIONARYVAR
  5
147
102
{ACAD_REACTORS
330
146
102
}
330
146
100
DictionaryVariables
280
     0
  1
STANDARD
  0
DICTIONARYVAR
  5
16D
102
{ACAD_REACTORS
330
146
102
}
330
146
100
DictionaryVariables
280
     0
  1
1
  0
DICTIONARYVAR
  5
16C
102
{ACAD_REACTORS
330
146
102
}
330
146
100
DictionaryVariables
280
     0
  1
1
  0
DICTIONARYVAR
  5
16B
102
{ACAD_REACTORS
330
146
102
}
330
146
100
DictionaryVariables
280
     0
  1
0
  0
DICTIONARYVAR
  5
14C
102
{ACAD_REACTORS
330
146
102
}
330
146
100
DictionaryVariables
280
     0
  1
1
  0
DICTIONARYVAR
  5
14D
102
{ACAD_REACTORS
330
146
102
}
330
146
100
DictionaryVariables
280
     0
  1
15
  0
DICTIONARYVAR
  5
14B
102
{ACAD_REACTORS
330
146
102
}
330
146
100
DictionaryVariables
280
     0
  1
0
  0
DICTIONARYVAR
  5
149
102
{ACAD_REACTORS
330
146
102
}
330
146
100
DictionaryVariables
280
     0
  1
0
  0
DICTIONARYVAR
  5
16A
102
{ACAD_REACTORS
330
146
102
}
330
146
100
DictionaryVariables
280
     0
  1
127
  0
DICTIONARYVAR
  5
16E
102
{ACAD_REACTORS
330
146
102
}
330
146
100
DictionaryVariables
280
     0
  1
2
  0
DICTIONARY
  5
179
330
1A
100
AcDbDictionary
280
     1
281
     1
  3
ACAD_XREC_ROUNDTRIP
360
17A
  0
DICTIONARY
  5
177
330
15
100
AcDbDictionary
280
     1
281
     1
  3
ACAD_XREC_ROUNDTRIP
360
178
  0
DICTIONARY
  5
3D
330
3C
100
AcDbDictionary
280
     1
281
     1
  3
ACAD_XREC_ROUNDTRIP
360
17E
  3
BUMPTILE
360
3E
  3
DIFFUSETILE
360
3F
  3
OPACITYTILE
360
40
  3
REFLECTIONTILE
360
41
  3
REFRACTIONTILE
360
42
  3
SPECULARTILE
360
43
  0
DICTIONARY
  5
35
330
34
100
AcDbDictionary
280
     1
281
     1
  3
ACAD_XREC_ROUNDTRIP
360
17D
  3
BUMPTILE
360
36
  3
DIFFUSETILE
360
37
  3
OPACITYTILE
360
38
  3
REFLECTIONTILE
360
39
  3
REFRACTIONTILE
360
3A
  3
SPECULARTILE
360
3B
  0
DICTIONARY
  5
C
330
A
100
AcDbDictionary
280
     1
281
     1
  3
ACAD_XREC_ROUNDTRIP
360
176
  3
BUMPTILE
360
D
  3
DIFFUSETILE
360
E
  3
OPACITYTILE
360
F
  3
REFLECTIONTILE
360
10
  3
REFRACTIONTILE
360
11
  3
SPECULARTILE
360
12
  0
DICTIONARY
  5
4A
330
49
100
AcDbDictionary
280
     1
281
     1
  3
ACAD_ROUNDTRIP_2008_TABLESTYLE_CELLSTYLEMAP
360
16F
  3
ACAD_XREC_ROUNDTRIP
360
17F
  0
DICTIONARY
  5
17B
330
2A
100
AcDbDictionary
280
     1
281
     1
  3
ACAD_XREC_ROUNDTRIP
360
17C
  0
DICTIONARY
  5
18C
330
153
100
AcDbDictionary
280
     1
281
     1
  3
ACAD_XREC_ROUNDTRIP
360
18D
  0
DICTIONARY
  5
194
330
157
100
AcDbDictionary
280
     1
281
     1
  3
ACAD_XREC_ROUNDTRIP
360
195
  0
DICTIONARY
  5
19C
330
15B
100
AcDbDictionary
280
     1
281
     1
  3
ACAD_XREC_ROUNDTRIP
360
19D
  0
DICTIONARY
  5
190
330
155
100
AcDbDictionary
280
     1
281
     1
  3
ACAD_XREC_ROUNDTRIP
360
191
  0
DICTIONARY
  5
192
330
156
100
AcDbDictionary
280
     1
281
     1
  3
ACAD_XREC_ROUNDTRIP
360
193
  0
DICTIONARY
  5
1AC
330
163
100
AcDbDictionary
280
     1
281
     1
  3
ACAD_XREC_ROUNDTRIP
360
1AD
  0
DICTIONARY
  5
19A
330
15A
100
AcDbDictionary
280
     1
281
     1
  3
ACAD_XREC_ROUNDTRIP
360
19B
  0
DICTIONARY
  5
184
330
14F
100
AcDbDictionary
280
     1
281
     1
  3
ACAD_XREC_ROUNDTRIP
360
185
  0
DICTIONARY
  5
186
330
150
100
AcDbDictionary
280
     1
281
     1
  3
ACAD_XREC_ROUNDTRIP
360
187
  0
DICTIONARY
  5
188
330
151
100
AcDbDictionary
280
     1
281
     1
  3
ACAD_XREC_ROUNDTRIP
360
189
  0
DICTIONARY
  5
18A
330
152
100
AcDbDictionary
280
     1
281
     1
  3
ACAD_XREC_ROUNDTRIP
360
18B
  0
DICTIONARY
  5
18E
330
154
100
AcDbDictionary
280
     1
281
     1
  3
ACAD_XREC_ROUNDTRIP
360
18F
  0
DICTIONARY
  5
1A8
330
161
100
AcDbDictionary
280
     1
281
     1
  3
ACAD_XREC_ROUNDTRIP
360
1A9
  0
DICTIONARY
  5
198
330
159
100
AcDbDictionary
280
     1
281
     1
  3
ACAD_XREC_ROUNDTRIP
360
199
  0
DICTIONARY
  5
1AA
330
162
100
AcDbDictionary
280
     1
281
     1
  3
ACAD_XREC_ROUNDTRIP
360
1AB
  0
DICTIONARY
  5
180
330
4B
100
AcDbDictionary
280
     1
281
     1
  3
ACAD_XREC_ROUNDTRIP
360
181
  0
DICTIONARY
  5
1A6
330
160
100
AcDbDictionary
280
     1
281
     1
  3
ACAD_XREC_ROUNDTRIP
360
1A7
  0
DICTIONARY
  5
1A4
330
15F
100
AcDbDictionary
280
     1
281
     1
  3
ACAD_XREC_ROUNDTRIP
360
1A5
  0
DICTIONARY
  5
19E
330
15C
100
AcDbDictionary
280
     1
281
     1
  3
ACAD_XREC_ROUNDTRIP
360
19F
  0
DICTIONARY
  5
1A0
330
15D
100
AcDbDictionary
280
     1
281
     1
  3
ACAD_XREC_ROUNDTRIP
360
1A1
  0
DICTIONARY
  5
196
330
158
100
AcDbDictionary
280
     1
281
     1
  3
ACAD_XREC_ROUNDTRIP
360
197
  0
DICTIONARY
  5
182
330
4C
100
AcDbDictionary
280
     1
281
     1
  3
ACAD_XREC_ROUNDTRIP
360
183
  0
DICTIONARY
  5
1A2
330
15E
100
AcDbDictionary
280
     1
281
     1
  3
ACAD_XREC_ROUNDTRIP
360
1A3
  0
XRECORD
  5
17A
102
{ACAD_REACTORS
330
179
102
}
330
179
100
AcDbXrecord
280
     1
102
SHADEPLOT
 70
     0
102
SHADEPLOTRESLEVEL
 70
     2
102
SHADEPLOTCUSTOMDPI
 70
   300
  0
XRECORD
  5
178
102
{ACAD_REACTORS
330
177
102
}
330
177
100
AcDbXrecord
280
     1
102
SHADEPLOT
 70
     0
102
SHADEPLOTRESLEVEL
 70
     2
102
SHADEPLOTCUSTOMDPI
 70
   300
  0
XRECORD
  5
17E
102
{ACAD_REACTORS
330
3D
102
}
330
3D
100
AcDbXrecord
280
     1
102
MATERIAL
148
0.0
149
0.0
149
0.0
 93
        0
 94
      127
282
     0
 72
     0
 77
     0
171
     0
175
     0
179
     0
273
     0
  0
XRECORD
  5
3E
102
{ACAD_REACTORS
330
3D
102
}
330
3D
100
AcDbXrecord
280
     1
270
     1
271
     1
  0
XRECORD
  5
3F
102
{ACAD_REACTORS
330
3D
102
}
330
3D
100
AcDbXrecord
280
     1
270
     1
271
     1
  0
XRECORD
  5
40
102
{ACAD_REACTORS
330
3D
102
}
330
3D
100
AcDbXrecord
280
     1
270
     1
271
     1
  0
XRECORD
  5
41
102
{ACAD_REACTORS
330
3D
102
}
330
3D
100
AcDbXrecord
280
     1
270
     1
271
     1
  0
XRECORD
  5
42
102
{ACAD_REACTORS
330
3D
102
}
330
3D
100
AcDbXrecord
280
     1
270
     1
271
     1
  0
XRECORD
  5
43
102
{ACAD_REACTORS
330
3D
102
}
330
3D
100
AcDbXrecord
280
     1
270
     1
271
     1
  0
XRECORD
  5
17D
102
{ACAD_REACTORS
330
35
102
}
330
35
100
AcDbXrecord
280
     1
102
MATERIAL
148
0.0
149
0.0
149
0.0
 93
        0
 94
      127
282
     0
 72
     0
 77
     0
171
     0
175
     0
179
     0
273
     0
  0
XRECORD
  5
36
102
{ACAD_REACTORS
330
35
102
}
330
35
100
AcDbXrecord
280
     1
270
     1
271
     1
  0
XRECORD
  5
37
102
{ACAD_REACTORS
330
35
102
}
330
35
100
AcDbXrecord
280
     1
270
     1
271
     1
  0
XRECORD
  5
38
102
{ACAD_REACTORS
330
35
102
}
330
35
100
AcDbXrecord
280
     1
270
     1
271
     1
  0
XRECORD
  5
39
102
{ACAD_REACTORS
330
35
102
}
330
35
100
AcDbXrecord
280
     1
270
     1
271
     1
  0
XRECORD
  5
3A
102
{ACAD_REACTORS
330
35
102
}
330
35
100
AcDbXrecord
280
     1
270
     1
271
     1
  0
XRECORD
  5
3B
102
{ACAD_REACTORS
330
35
102
}
330
35
100
AcDbXrecord
280
     1
270
     1
271
     1
  0
XRECORD
  5
176
102
{ACAD_REACTORS
330
C
102
}
330
C
100
AcDbXrecord
280
     1
102
MATERIAL
148
0.0
149
0.0
149
0.0
 93
        0
 94
      127
282
     0
 72
     0
 77
     0
171
     0
175
     0
179
     0
273
     0
  0
XRECORD
  5
D
102
{ACAD_REACTORS
330
C
102
}
330
C
100
AcDbXrecord
280
     1
270
     1
271
     1
  0
XRECORD
  5
E
102
{ACAD_REACTORS
330
C
102
}
330
C
100
AcDbXrecord
280
     1
270
     1
271
     1
  0
XRECORD
  5
F
102
{ACAD_REACTORS
330
C
102
}
330
C
100
AcDbXrecord
280
     1
270
     1
271
     1
  0
XRECORD
  5
10
102
{ACAD_REACTORS
330
C
102
}
330
C
100
AcDbXrecord
280
     1
270
     1
271
     1
  0
XRECORD
  5
11
102
{ACAD_REACTORS
330
C
102
}
330
C
100
AcDbXrecord
280
     1
270
     1
271
     1
  0
XRECORD
  5
12
102
{ACAD_REACTORS
330
C
102
}
330
C
100
AcDbXrecord
280
     1
270
     1
271
     1
  0
CELLSTYLEMAP
  5
16F
102
{ACAD_REACTORS
330
4A
102
}
330
4A
100
AcDbCellStyleMap
 90
        3
300
CELLSTYLE
  1
TABLEFORMAT_BEGIN
 90
        5
170
     1
 91
        0
 92
    32768
 62
   257
 93
        1
300
CONTENTFORMAT
  1
CONTENTFORMAT_BEGIN
 90
        0
 91
        0
 92
      512
 93
        0
300

 40
0.0
140
1.0
 94
        5
 62
     0
340
21
144
0.25
309
CONTENTFORMAT_END
171
     0
 94
        0
309
TABLEFORMAT_END
  1
CELLSTYLE_BEGIN
 90
        1
 91
        1
300
_TITLE
309
CELLSTYLE_END
300
CELLSTYLE
  1
TABLEFORMAT_BEGIN
 90
        5
170
     1
 91
        0
 92
        0
 62
   257
 93
        1
300
CONTENTFORMAT
  1
CONTENTFORMAT_BEGIN
 90
        0
 91
        0
 92
      512
 93
        0
300

 40
0.0
140
1.0
 94
        5
 62
     0
340
21
144
0.18
309
CONTENTFORMAT_END
171
     0
 94
        0
309
TABLEFORMAT_END
  1
CELLSTYLE_BEGIN
 90
        2
 91
        1
300
_HEADER
309
CELLSTYLE_END
300
CELLSTYLE
  1
TABLEFORMAT_BEGIN
 90
        5
170
     1
 91
        0
 92
        0
 62
   257
 93
        1
300
CONTENTFORMAT
  1
CONTENTFORMAT_BEGIN
 90
        0
 91
        0
 92
      512
 93
        0
300

 40
0.0
140
1.0
 94
        2
 62
     0
340
21
144
0.18
309
CONTENTFORMAT_END
171
     0
 94
        0
309
TABLEFORMAT_END
  1
CELLSTYLE_BEGIN
 90
        3
 91
        2
300
_DATA
309
CELLSTYLE_END
  0
XRECORD
  5
17F
102
{ACAD_REACTORS
330
4A
102
}
330
4A
100
AcDbXrecord
280
     1
102
ACAD_ROUNDTRIP_PRE2007_TABLESTYLE
 90
      512
 91
        0
  1

 92
      512
 93
        0
  2

 94
      512
 95
        0
  3

  0
XRECORD
  5
17C
102
{ACAD_REACTORS
330
17B
102
}
330
17B
100
AcDbXrecord
280
     1
102
RTVSPropertyOp0
 70
     1
102
RTVSPropertyOp1
 70
     1
102
RTVSPropertyOp2
 70
     1
102
RTVSPropertyOp3
 70
     1
102
RTVSPropertyOp4
 70
     1
102
RTVSPropertyOp5
 70
     1
102
RTVSPropertyOp6
 70
     1
102
RTVSPropertyOp7
 70
     1
102
RTVSPropertyOp8
 70
     1
102
RTVSPropertyOp9
 70
     1
102
RTVSPropertyOp10
 70
     1
102
RTVSPropertyOp11
 70
     1
102
RTVSPropertyOp12
 70
     1
102
RTVSPropertyOp13
 70
     1
102
RTVSPropertyOp14
 70
     1
102
RTVSPropertyOp15
 70
     1
102
RTVSPropertyOp16
 70
     1
102
RTVSPropertyOp17
 70
     1
102
RTVSPropertyOp18
 70
     1
102
RTVSPropertyOp19
 70
     1
102
RTVSPropertyOp20
 70
     1
102
RTVSPropertyOp21
 70
     1
102
RTVSPropertyOp22
 70
     1
102
RTVSPropertyOp23
 70
     1
102
RTVSPropertyOp24
 70
     1
102
RTVSPropertyOp25
 70
     1
102
RTVSPropertyOp26
 70
     1
102
RTVSPropertyOp27
 70
     1
102
RTVSPropertyOp28
 70
     1
102
RTVSPropertyOp29
 70
     1
102
RTVSPropertyOp30
 70
     1
102
RTVSPropertyOp31
 70
     1
102
RTVSPropertyOp32
 70
     1
  0
XRECORD
  5
18D
102
{ACAD_REACTORS
330
18C
102
}
330
18C
100
AcDbXrecord
280
     1
102
RTVSPropertyOp0
 70
     1
102
RTVSPropertyOp1
 70
     1
102
RTVSPropertyOp2
 70
     1
102
RTVSPropertyOp3
 70
     1
102
RTVSPropertyOp4
 70
     1
102
RTVSPropertyOp5
 70
     1
102
RTVSPropertyOp6
 70
     1
102
RTVSPropertyOp7
 70
     1
102
RTVSPropertyOp8
 70
     1
102
RTVSPropertyOp9
 70
     1
102
RTVSPropertyOp10
 70
     1
102
RTVSPropertyOp11
 70
     1
102
RTVSPropertyOp12
 70
     1
102
RTVSPropertyOp13
 70
     1
102
RTVSPropertyOp14
 70
     1
102
RTVSPropertyOp15
 70
     1
102
RTVSPropertyOp16
 70
     1
102
RTVSPropertyOp17
 70
     1
102
RTVSPropertyOp18
 70
     1
102
RTVSPropertyOp19
 70
     1
102
RTVSPropertyOp20
 70
     1
102
RTVSPropertyOp21
 70
     1
102
RTVSPropertyOp22
 70
     1
102
RTVSPropertyOp23
 70
     1
102
RTVSPropertyOp24
 70
     1
102
RTVSPropertyOp25
 70
     1
102
RTVSPropertyOp26
 70
     1
102
RTVSPropertyOp27
 70
     1
102
RTVSPropertyOp28
 70
     1
102
RTVSPropertyOp29
 70
     1
102
RTVSPropertyOp30
 70
     1
102
RTVSPropertyOp31
 70
     1
102
RTVSPropertyOp32
 70
     1
  0
XRECORD
  5
195
102
{ACAD_REACTORS
330
194
102
}
330
194
100
AcDbXrecord
280
     1
102
RTVSPropertyOp0
 70
     1
102
RTVSPropertyOp1
 70
     1
102
RTVSPropertyOp2
 70
     1
102
RTVSPropertyOp3
 70
     1
102
RTVSPropertyOp4
 70
     1
102
RTVSPropertyOp5
 70
     1
102
RTVSPropertyOp6
 70
     1
102
RTVSPropertyOp7
 70
     1
102
RTVSPropertyOp8
 70
     1
102
RTVSPropertyOp9
 70
     1
102
RTVSPropertyOp10
 70
     1
102
RTVSPropertyOp11
 70
     1
102
RTVSPropertyOp12
 70
     1
102
RTVSPropertyOp13
 70
     1
102
RTVSPropertyOp14
 70
     1
102
RTVSPropertyOp15
 70
     1
102
RTVSPropertyOp16
 70
     1
102
RTVSPropertyOp17
 70
     1
102
RTVSPropertyOp18
 70
     1
102
RTVSPropertyOp19
 70
     1
102
RTVSPropertyOp20
 70
     1
102
RTVSPropertyOp21
 70
     1
102
RTVSPropertyOp22
 70
     1
102
RTVSPropertyOp23
 70
     1
102
RTVSPropertyOp24
 70
     1
102
RTVSPropertyOp25
 70
     1
102
RTVSPropertyOp26
 70
     1
102
RTVSPropertyOp27
 70
     1
102
RTVSPropertyOp28
 70
     1
102
RTVSPropertyOp29
 70
     1
102
RTVSPropertyOp30
 70
     1
102
RTVSPropertyOp31
 70
     1
102
RTVSPropertyOp32
 70
     1
  0
XRECORD
  5
19D
102
{ACAD_REACTORS
330
19C
102
}
330
19C
100
AcDbXrecord
280
     1
102
RTVSPropertyOp0
 70
     1
102
RTVSPropertyOp1
 70
     1
102
RTVSPropertyOp2
 70
     1
102
RTVSPropertyOp3
 70
     1
102
RTVSPropertyOp4
 70
     1
102
RTVSPropertyOp5
 70
     1
102
RTVSPropertyOp6
 70
     1
102
RTVSPropertyOp7
 70
     1
102
RTVSPropertyOp8
 70
     1
102
RTVSPropertyOp9
 70
     1
102
RTVSPropertyOp10
 70
     1
102
RTVSPropertyOp11
 70
     1
102
RTVSPropertyOp12
 70
     1
102
RTVSPropertyOp13
 70
     1
102
RTVSPropertyOp14
 70
     1
102
RTVSPropertyOp15
 70
     1
102
RTVSPropertyOp16
 70
     1
102
RTVSPropertyOp17
 70
     1
102
RTVSPropertyOp18
 70
     1
102
RTVSPropertyOp19
 70
     1
102
RTVSPropertyOp20
 70
     1
102
RTVSPropertyOp21
 70
     1
102
RTVSPropertyOp22
 70
     1
102
RTVSPropertyOp23
 70
     1
102
RTVSPropertyOp24
 70
     1
102
RTVSPropertyOp25
 70
     1
102
RTVSPropertyOp26
 70
     1
102
RTVSPropertyOp27
 70
     1
102
RTVSPropertyOp28
 70
     1
102
RTVSPropertyOp29
 70
     1
102
RTVSPropertyOp30
 70
     1
102
RTVSPropertyOp31
 70
     1
102
RTVSPropertyOp32
 70
     1
  0
XRECORD
  5
191
102
{ACAD_REACTORS
330
190
102
}
330
190
100
AcDbXrecord
280
     1
102
RTVSPropertyOp0
 70
     1
102
RTVSPropertyOp1
 70
     1
102
RTVSPropertyOp2
 70
     1
102
RTVSPropertyOp3
 70
     1
102
RTVSPropertyOp4
 70
     1
102
RTVSPropertyOp5
 70
     1
102
RTVSPropertyOp6
 70
     1
102
RTVSPropertyOp7
 70
     1
102
RTVSPropertyOp8
 70
     1
102
RTVSPropertyOp9
 70
     1
102
RTVSPropertyOp10
 70
     1
102
RTVSPropertyOp11
 70
     1
102
RTVSPropertyOp12
 70
     1
102
RTVSPropertyOp13
 70
     1
102
RTVSPropertyOp14
 70
     1
102
RTVSPropertyOp15
 70
     1
102
RTVSPropertyOp16
 70
     1
102
RTVSPropertyOp17
 70
     1
102
RTVSPropertyOp18
 70
     1
102
RTVSPropertyOp19
 70
     1
102
RTVSPropertyOp20
 70
     1
102
RTVSPropertyOp21
 70
     1
102
RTVSPropertyOp22
 70
     1
102
RTVSPropertyOp23
 70
     1
102
RTVSPropertyOp24
 70
     1
102
RTVSPropertyOp25
 70
     1
102
RTVSPropertyOp26
 70
     1
102
RTVSPropertyOp27
 70
     1
102
RTVSPropertyOp28
 70
     1
102
RTVSPropertyOp29
 70
     1
102
RTVSPropertyOp30
 70
     1
102
RTVSPropertyOp31
 70
     1
102
RTVSPropertyOp32
 70
     1
  0
XRECORD
  5
193
102
{ACAD_REACTORS
330
192
102
}
330
192
100
AcDbXrecord
280
     1
102
RTVSPropertyOp0
 70
     1
102
RTVSPropertyOp1
 70
     1
102
RTVSPropertyOp2
 70
     1
102
RTVSPropertyOp3
 70
     1
102
RTVSPropertyOp4
 70
     1
102
RTVSPropertyOp5
 70
     1
102
RTVSPropertyOp6
 70
     1
102
RTVSPropertyOp7
 70
     1
102
RTVSPropertyOp8
 70
     1
102
RTVSPropertyOp9
 70
     1
102
RTVSPropertyOp10
 70
     1
102
RTVSPropertyOp11
 70
     1
102
RTVSPropertyOp12
 70
     1
102
RTVSPropertyOp13
 70
     1
102
RTVSPropertyOp14
 70
     1
102
RTVSPropertyOp15
 70
     1
102
RTVSPropertyOp16
 70
     1
102
RTVSPropertyOp17
 70
     1
102
RTVSPropertyOp18
 70
     1
102
RTVSPropertyOp19
 70
     1
102
RTVSPropertyOp20
 70
     1
102
RTVSPropertyOp21
 70
     1
102
RTVSPropertyOp22
 70
     1
102
RTVSPropertyOp23
 70
     1
102
RTVSPropertyOp24
 70
     1
102
RTVSPropertyOp25
 70
     1
102
RTVSPropertyOp26
 70
     1
102
RTVSPropertyOp27
 70
     1
102
RTVSPropertyOp28
 70
     1
102
RTVSPropertyOp29
 70
     1
102
RTVSPropertyOp30
 70
     1
102
RTVSPropertyOp31
 70
     1
102
RTVSPropertyOp32
 70
     1
  0
XRECORD
  5
1AD
102
{ACAD_REACTORS
330
1AC
102
}
330
1AC
100
AcDbXrecord
280
     1
102
RTVSPropertyOp0
 70
     0
102
RTVSPropertyOp1
 70
     0
102
RTVSPropertyOp2
 70
     0
102
RTVSPropertyOp3
 70
     0
102
RTVSPropertyOp4
 70
     0
102
RTVSPropertyOp5
 70
     0
102
RTVSPropertyOp6
 70
     0
102
RTVSPropertyOp7
 70
     0
102
RTVSPropertyOp8
 70
     0
102
RTVSPropertyOp9
 70
     0
102
RTVSPropertyOp10
 70
     0
102
RTVSPropertyOp11
 70
     0
102
RTVSPropertyOp12
 70
     0
102
RTVSPropertyOp13
 70
     0
102
RTVSPropertyOp14
 70
     2
102
RTVSPropertyOp15
 70
     0
102
RTVSPropertyOp16
 70
     0
102
RTVSPropertyOp17
 70
     0
102
RTVSPropertyOp18
 70
     0
102
RTVSPropertyOp19
 70
     0
102
RTVSPropertyOp20
 70
     0
102
RTVSPropertyOp21
 70
     0
102
RTVSPropertyOp22
 70
     0
102
RTVSPropertyOp23
 70
     0
102
RTVSPropertyOp24
 70
     0
102
RTVSPropertyOp25
 70
     0
102
RTVSPropertyOp26
 70
     0
102
RTVSPropertyOp27
 70
     0
102
RTVSPropertyOp28
 70
     0
102
RTVSPropertyOp29
 70
     0
102
RTVSPropertyOp30
 70
     0
102
RTVSPropertyOp31
 70
     0
102
RTVSPropertyOp32
 70
     0
  0
XRECORD
  5
19B
102
{ACAD_REACTORS
330
19A
102
}
330
19A
100
AcDbXrecord
280
     1
102
RTVSPropertyOp0
 70
     1
102
RTVSPropertyOp1
 70
     1
102
RTVSPropertyOp2
 70
     1
102
RTVSPropertyOp3
 70
     1
102
RTVSPropertyOp4
 70
     1
102
RTVSPropertyOp5
 70
     1
102
RTVSPropertyOp6
 70
     1
102
RTVSPropertyOp7
 70
     1
102
RTVSPropertyOp8
 70
     1
102
RTVSPropertyOp9
 70
     1
102
RTVSPropertyOp10
 70
     1
102
RTVSPropertyOp11
 70
     1
102
RTVSPropertyOp12
 70
     1
102
RTVSPropertyOp13
 70
     1
102
RTVSPropertyOp14
 70
     1
102
RTVSPropertyOp15
 70
     1
102
RTVSPropertyOp16
 70
     1
102
RTVSPropertyOp17
 70
     1
102
RTVSPropertyOp18
 70
     1
102
RTVSPropertyOp19
 70
     1
102
RTVSPropertyOp20
 70
     1
102
RTVSPropertyOp21
 70
     1
102
RTVSPropertyOp22
 70
     1
102
RTVSPropertyOp23
 70
     1
102
RTVSPropertyOp24
 70
     1
102
RTVSPropertyOp25
 70
     1
102
RTVSPropertyOp26
 70
     1
102
RTVSPropertyOp27
 70
     1
102
RTVSPropertyOp28
 70
     1
102
RTVSPropertyOp29
 70
     1
102
RTVSPropertyOp30
 70
     1
102
RTVSPropertyOp31
 70
     1
102
RTVSPropertyOp32
 70
     1
  0
XRECORD
  5
185
102
{ACAD_REACTORS
330
184
102
}
330
184
100
AcDbXrecord
280
     1
102
RTVSPropertyOp0
 70
     1
102
RTVSPropertyOp1
 70
     1
102
RTVSPropertyOp2
 70
     1
102
RTVSPropertyOp3
 70
     1
102
RTVSPropertyOp4
 70
     1
102
RTVSPropertyOp5
 70
     1
102
RTVSPropertyOp6
 70
     1
102
RTVSPropertyOp7
 70
     1
102
RTVSPropertyOp8
 70
     1
102
RTVSPropertyOp9
 70
     1
102
RTVSPropertyOp10
 70
     1
102
RTVSPropertyOp11
 70
     1
102
RTVSPropertyOp12
 70
     1
102
RTVSPropertyOp13
 70
     1
102
RTVSPropertyOp14
 70
     1
102
RTVSPropertyOp15
 70
     1
102
RTVSPropertyOp16
 70
     1
102
RTVSPropertyOp17
 70
     1
102
RTVSPropertyOp18
 70
     1
102
RTVSPropertyOp19
 70
     1
102
RTVSPropertyOp20
 70
     1
102
RTVSPropertyOp21
 70
     1
102
RTVSPropertyOp22
 70
     1
102
RTVSPropertyOp23
 70
     1
102
RTVSPropertyOp24
 70
     1
102
RTVSPropertyOp25
 70
     1
102
RTVSPropertyOp26
 70
     1
102
RTVSPropertyOp27
 70
     1
102
RTVSPropertyOp28
 70
     1
102
RTVSPropertyOp29
 70
     1
102
RTVSPropertyOp30
 70
     1
102
RTVSPropertyOp31
 70
     1
102
RTVSPropertyOp32
 70
     1
  0
XRECORD
  5
187
102
{ACAD_REACTORS
330
186
102
}
330
186
100
AcDbXrecord
280
     1
102
RTVSPropertyOp0
 70
     1
102
RTVSPropertyOp1
 70
     1
102
RTVSPropertyOp2
 70
     1
102
RTVSPropertyOp3
 70
     1
102
RTVSPropertyOp4
 70
     1
102
RTVSPropertyOp5
 70
     1
102
RTVSPropertyOp6
 70
     1
102
RTVSPropertyOp7
 70
     1
102
RTVSPropertyOp8
 70
     1
102
RTVSPropertyOp9
 70
     1
102
RTVSPropertyOp10
 70
     1
102
RTVSPropertyOp11
 70
     1
102
RTVSPropertyOp12
 70
     1
102
RTVSPropertyOp13
 70
     1
102
RTVSPropertyOp14
 70
     1
102
RTVSPropertyOp15
 70
     1
102
RTVSPropertyOp16
 70
     1
102
RTVSPropertyOp17
 70
     1
102
RTVSPropertyOp18
 70
     1
102
RTVSPropertyOp19
 70
     1
102
RTVSPropertyOp20
 70
     1
102
RTVSPropertyOp21
 70
     1
102
RTVSPropertyOp22
 70
     1
102
RTVSPropertyOp23
 70
     1
102
RTVSPropertyOp24
 70
     1
102
RTVSPropertyOp25
 70
     1
102
RTVSPropertyOp26
 70
     1
102
RTVSPropertyOp27
 70
     1
102
RTVSPropertyOp28
 70
     1
102
RTVSPropertyOp29
 70
     1
102
RTVSPropertyOp30
 70
     1
102
RTVSPropertyOp31
 70
     1
102
RTVSPropertyOp32
 70
     1
  0
XRECORD
  5
189
102
{ACAD_REACTORS
330
188
102
}
330
188
100
AcDbXrecord
280
     1
102
RTVSPropertyOp0
 70
     1
102
RTVSPropertyOp1
 70
     1
102
RTVSPropertyOp2
 70
     1
102
RTVSPropertyOp3
 70
     1
102
RTVSPropertyOp4
 70
     1
102
RTVSPropertyOp5
 70
     1
102
RTVSPropertyOp6
 70
     1
102
RTVSPropertyOp7
 70
     1
102
RTVSPropertyOp8
 70
     1
102
RTVSPropertyOp9
 70
     1
102
RTVSPropertyOp10
 70
     1
102
RTVSPropertyOp11
 70
     1
102
RTVSPropertyOp12
 70
     1
102
RTVSPropertyOp13
 70
     1
102
RTVSPropertyOp14
 70
     1
102
RTVSPropertyOp15
 70
     1
102
RTVSPropertyOp16
 70
     1
102
RTVSPropertyOp17
 70
     1
102
RTVSPropertyOp18
 70
     1
102
RTVSPropertyOp19
 70
     1
102
RTVSPropertyOp20
 70
     1
102
RTVSPropertyOp21
 70
     1
102
RTVSPropertyOp22
 70
     1
102
RTVSPropertyOp23
 70
     1
102
RTVSPropertyOp24
 70
     1
102
RTVSPropertyOp25
 70
     1
102
RTVSPropertyOp26
 70
     1
102
RTVSPropertyOp27
 70
     1
102
RTVSPropertyOp28
 70
     1
102
RTVSPropertyOp29
 70
     1
102
RTVSPropertyOp30
 70
     1
102
RTVSPropertyOp31
 70
     1
102
RTVSPropertyOp32
 70
     1
  0
XRECORD
  5
18B
102
{ACAD_REACTORS
330
18A
102
}
330
18A
100
AcDbXrecord
280
     1
102
RTVSPropertyOp0
 70
     1
102
RTVSPropertyOp1
 70
     1
102
RTVSPropertyOp2
 70
     1
102
RTVSPropertyOp3
 70
     1
102
RTVSPropertyOp4
 70
     1
102
RTVSPropertyOp5
 70
     1
102
RTVSPropertyOp6
 70
     1
102
RTVSPropertyOp7
 70
     1
102
RTVSPropertyOp8
 70
     1
102
RTVSPropertyOp9
 70
     1
102
RTVSPropertyOp10
 70
     1
102
RTVSPropertyOp11
 70
     1
102
RTVSPropertyOp12
 70
     1
102
RTVSPropertyOp13
 70
     1
102
RTVSPropertyOp14
 70
     1
102
RTVSPropertyOp15
 70
     1
102
RTVSPropertyOp16
 70
     1
102
RTVSPropertyOp17
 70
     1
102
RTVSPropertyOp18
 70
     1
102
RTVSPropertyOp19
 70
     1
102
RTVSPropertyOp20
 70
     1
102
RTVSPropertyOp21
 70
     1
102
RTVSPropertyOp22
 70
     1
102
RTVSPropertyOp23
 70
     1
102
RTVSPropertyOp24
 70
     1
102
RTVSPropertyOp25
 70
     1
102
RTVSPropertyOp26
 70
     1
102
RTVSPropertyOp27
 70
     1
102
RTVSPropertyOp28
 70
     1
102
RTVSPropertyOp29
 70
     1
102
RTVSPropertyOp30
 70
     1
102
RTVSPropertyOp31
 70
     1
102
RTVSPropertyOp32
 70
     1
  0
XRECORD
  5
18F
102
{ACAD_REACTORS
330
18E
102
}
330
18E
100
AcDbXrecord
280
     1
102
RTVSPropertyOp0
 70
     1
102
RTVSPropertyOp1
 70
     1
102
RTVSPropertyOp2
 70
     1
102
RTVSPropertyOp3
 70
     1
102
RTVSPropertyOp4
 70
     1
102
RTVSPropertyOp5
 70
     1
102
RTVSPropertyOp6
 70
     1
102
RTVSPropertyOp7
 70
     1
102
RTVSPropertyOp8
 70
     1
102
RTVSPropertyOp9
 70
     1
102
RTVSPropertyOp10
 70
     1
102
RTVSPropertyOp11
 70
     1
102
RTVSPropertyOp12
 70
     1
102
RTVSPropertyOp13
 70
     1
102
RTVSPropertyOp14
 70
     1
102
RTVSPropertyOp15
 70
     1
102
RTVSPropertyOp16
 70
     1
102
RTVSPropertyOp17
 70
     1
102
RTVSPropertyOp18
 70
     1
102
RTVSPropertyOp19
 70
     1
102
RTVSPropertyOp20
 70
     1
102
RTVSPropertyOp21
 70
     1
102
RTVSPropertyOp22
 70
     1
102
RTVSPropertyOp23
 70
     1
102
RTVSPropertyOp24
 70
     1
102
RTVSPropertyOp25
 70
     1
102
RTVSPropertyOp26
 70
     1
102
RTVSPropertyOp27
 70
     1
102
RTVSPropertyOp28
 70
     1
102
RTVSPropertyOp29
 70
     1
102
RTVSPropertyOp30
 70
     1
102
RTVSPropertyOp31
 70
     1
102
RTVSPropertyOp32
 70
     1
  0
XRECORD
  5
1A9
102
{ACAD_REACTORS
330
1A8
102
}
330
1A8
100
AcDbXrecord
280
     1
102
RTVSPropertyOp0
 70
     0
102
RTVSPropertyOp1
 70
     0
102
RTVSPropertyOp2
 70
     0
102
RTVSPropertyOp3
 70
     0
102
RTVSPropertyOp4
 70
     0
102
RTVSPropertyOp5
 70
     0
102
RTVSPropertyOp6
 70
     0
102
RTVSPropertyOp7
 70
     0
102
RTVSPropertyOp8
 70
     0
102
RTVSPropertyOp9
 70
     0
102
RTVSPropertyOp10
 70
     0
102
RTVSPropertyOp11
 70
     0
102
RTVSPropertyOp12
 70
     0
102
RTVSPropertyOp13
 70
     0
102
RTVSPropertyOp14
 70
     2
102
RTVSPropertyOp15
 70
     0
102
RTVSPropertyOp16
 70
     0
102
RTVSPropertyOp17
 70
     0
102
RTVSPropertyOp18
 70
     0
102
RTVSPropertyOp19
 70
     0
102
RTVSPropertyOp20
 70
     0
102
RTVSPropertyOp21
 70
     0
102
RTVSPropertyOp22
 70
     0
102
RTVSPropertyOp23
 70
     0
102
RTVSPropertyOp24
 70
     0
102
RTVSPropertyOp25
 70
     0
102
RTVSPropertyOp26
 70
     0
102
RTVSPropertyOp27
 70
     0
102
RTVSPropertyOp28
 70
     0
102
RTVSPropertyOp29
 70
     0
102
RTVSPropertyOp30
 70
     0
102
RTVSPropertyOp31
 70
     0
102
RTVSPropertyOp32
 70
     0
  0
XRECORD
  5
199
102
{ACAD_REACTORS
330
198
102
}
330
198
100
AcDbXrecord
280
     1
102
RTVSPropertyOp0
 70
     1
102
RTVSPropertyOp1
 70
     1
102
RTVSPropertyOp2
 70
     1
102
RTVSPropertyOp3
 70
     1
102
RTVSPropertyOp4
 70
     1
102
RTVSPropertyOp5
 70
     1
102
RTVSPropertyOp6
 70
     1
102
RTVSPropertyOp7
 70
     1
102
RTVSPropertyOp8
 70
     1
102
RTVSPropertyOp9
 70
     1
102
RTVSPropertyOp10
 70
     1
102
RTVSPropertyOp11
 70
     1
102
RTVSPropertyOp12
 70
     1
102
RTVSPropertyOp13
 70
     1
102
RTVSPropertyOp14
 70
     1
102
RTVSPropertyOp15
 70
     1
102
RTVSPropertyOp16
 70
     1
102
RTVSPropertyOp17
 70
     1
102
RTVSPropertyOp18
 70
     1
102
RTVSPropertyOp19
 70
     1
102
RTVSPropertyOp20
 70
     1
102
RTVSPropertyOp21
 70
     1
102
RTVSPropertyOp22
 70
     1
102
RTVSPropertyOp23
 70
     1
102
RTVSPropertyOp24
 70
     1
102
RTVSPropertyOp25
 70
     1
102
RTVSPropertyOp26
 70
     1
102
RTVSPropertyOp27
 70
     1
102
RTVSPropertyOp28
 70
     1
102
RTVSPropertyOp29
 70
     1
102
RTVSPropertyOp30
 70
     1
102
RTVSPropertyOp31
 70
     1
102
RTVSPropertyOp32
 70
     1
  0
XRECORD
  5
1AB
102
{ACAD_REACTORS
330
1AA
102
}
330
1AA
100
AcDbXrecord
280
     1
102
RTVSPropertyOp0
 70
     0
102
RTVSPropertyOp1
 70
     0
102
RTVSPropertyOp2
 70
     0
102
RTVSPropertyOp3
 70
     0
102
RTVSPropertyOp4
 70
     0
102
RTVSPropertyOp5
 70
     0
102
RTVSPropertyOp6
 70
     0
102
RTVSPropertyOp7
 70
     0
102
RTVSPropertyOp8
 70
     0
102
RTVSPropertyOp9
 70
     0
102
RTVSPropertyOp10
 70
     0
102
RTVSPropertyOp11
 70
     0
102
RTVSPropertyOp12
 70
     0
102
RTVSPropertyOp13
 70
     0
102
RTVSPropertyOp14
 70
     2
102
RTVSPropertyOp15
 70
     0
102
RTVSPropertyOp16
 70
     0
102
RTVSPropertyOp17
 70
     0
102
RTVSPropertyOp18
 70
     0
102
RTVSPropertyOp19
 70
     0
102
RTVSPropertyOp20
 70
     0
102
RTVSPropertyOp21
 70
     0
102
RTVSPropertyOp22
 70
     0
102
RTVSPropertyOp23
 70
     0
102
RTVSPropertyOp24
 70
     0
102
RTVSPropertyOp25
 70
     0
102
RTVSPropertyOp26
 70
     0
102
RTVSPropertyOp27
 70
     0
102
RTVSPropertyOp28
 70
     0
102
RTVSPropertyOp29
 70
     0
102
RTVSPropertyOp30
 70
     0
102
RTVSPropertyOp31
 70
     0
102
RTVSPropertyOp32
 70
     0
  0
XRECORD
  5
181
102
{ACAD_REACTORS
330
180
102
}
330
180
100
AcDbXrecord
280
     1
102
RTVSPropertyOp0
 70
     1
102
RTVSPropertyOp1
 70
     1
102
RTVSPropertyOp2
 70
     1
102
RTVSPropertyOp3
 70
     1
102
RTVSPropertyOp4
 70
     1
102
RTVSPropertyOp5
 70
     1
102
RTVSPropertyOp6
 70
     1
102
RTVSPropertyOp7
 70
     1
102
RTVSPropertyOp8
 70
     1
102
RTVSPropertyOp9
 70
     1
102
RTVSPropertyOp10
 70
     1
102
RTVSPropertyOp11
 70
     1
102
RTVSPropertyOp12
 70
     1
102
RTVSPropertyOp13
 70
     1
102
RTVSPropertyOp14
 70
     1
102
RTVSPropertyOp15
 70
     1
102
RTVSPropertyOp16
 70
     1
102
RTVSPropertyOp17
 70
     1
102
RTVSPropertyOp18
 70
     1
102
RTVSPropertyOp19
 70
     1
102
RTVSPropertyOp20
 70
     1
102
RTVSPropertyOp21
 70
     1
102
RTVSPropertyOp22
 70
     1
102
RTVSPropertyOp23
 70
     1
102
RTVSPropertyOp24
 70
     1
102
RTVSPropertyOp25
 70
     1
102
RTVSPropertyOp26
 70
     1
102
RTVSPropertyOp27
 70
     1
102
RTVSPropertyOp28
 70
     1
102
RTVSPropertyOp29
 70
     1
102
RTVSPropertyOp30
 70
     1
102
RTVSPropertyOp31
 70
     1
102
RTVSPropertyOp32
 70
     1
  0
XRECORD
  5
1A7
102
{ACAD_REACTORS
330
1A6
102
}
330
1A6
100
AcDbXrecord
280
     1
102
RTVSPropertyOp0
 70
     1
102
RTVSPropertyOp1
 70
     1
102
RTVSPropertyOp2
 70
     1
102
RTVSPropertyOp3
 70
     1
102
RTVSPropertyOp4
 70
     1
102
RTVSPropertyOp5
 70
     1
102
RTVSPropertyOp6
 70
     1
102
RTVSPropertyOp7
 70
     1
102
RTVSPropertyOp8
 70
     1
102
RTVSPropertyOp9
 70
     1
102
RTVSPropertyOp10
 70
     1
102
RTVSPropertyOp11
 70
     1
102
RTVSPropertyOp12
 70
     1
102
RTVSPropertyOp13
 70
     1
102
RTVSPropertyOp14
 70
     1
102
RTVSPropertyOp15
 70
     1
102
RTVSPropertyOp16
 70
     1
102
RTVSPropertyOp17
 70
     1
102
RTVSPropertyOp18
 70
     1
102
RTVSPropertyOp19
 70
     1
102
RTVSPropertyOp20
 70
     1
102
RTVSPropertyOp21
 70
     1
102
RTVSPropertyOp22
 70
     1
102
RTVSPropertyOp23
 70
     1
102
RTVSPropertyOp24
 70
     1
102
RTVSPropertyOp25
 70
     1
102
RTVSPropertyOp26
 70
     1
102
RTVSPropertyOp27
 70
     1
102
RTVSPropertyOp28
 70
     1
102
RTVSPropertyOp29
 70
     1
102
RTVSPropertyOp30
 70
     1
102
RTVSPropertyOp31
 70
     1
102
RTVSPropertyOp32
 70
     1
  0
XRECORD
  5
1A5
102
{ACAD_REACTORS
330
1A4
102
}
330
1A4
100
AcDbXrecord
280
     1
102
RTVSPropertyOp0
 70
     1
102
RTVSPropertyOp1
 70
     1
102
RTVSPropertyOp2
 70
     1
102
RTVSPropertyOp3
 70
     1
102
RTVSPropertyOp4
 70
     1
102
RTVSPropertyOp5
 70
     1
102
RTVSPropertyOp6
 70
     1
102
RTVSPropertyOp7
 70
     1
102
RTVSPropertyOp8
 70
     1
102
RTVSPropertyOp9
 70
     1
102
RTVSPropertyOp10
 70
     1
102
RTVSPropertyOp11
 70
     1
102
RTVSPropertyOp12
 70
     1
102
RTVSPropertyOp13
 70
     1
102
RTVSPropertyOp14
 70
     1
102
RTVSPropertyOp15
 70
     1
102
RTVSPropertyOp16
 70
     1
102
RTVSPropertyOp17
 70
     1
102
RTVSPropertyOp18
 70
     1
102
RTVSPropertyOp19
 70
     1
102
RTVSPropertyOp20
 70
     1
102
RTVSPropertyOp21
 70
     1
102
RTVSPropertyOp22
 70
     1
102
RTVSPropertyOp23
 70
     1
102
RTVSPropertyOp24
 70
     1
102
RTVSPropertyOp25
 70
     1
102
RTVSPropertyOp26
 70
     1
102
RTVSPropertyOp27
 70
     1
102
RTVSPropertyOp28
 70
     1
102
RTVSPropertyOp29
 70
     1
102
RTVSPropertyOp30
 70
     1
102
RTVSPropertyOp31
 70
     1
102
RTVSPropertyOp32
 70
     1
  0
XRECORD
  5
19F
102
{ACAD_REACTORS
330
19E
102
}
330
19E
100
AcDbXrecord
280
     1
102
RTVSPropertyOp0
 70
     1
102
RTVSPropertyOp1
 70
     1
102
RTVSPropertyOp2
 70
     1
102
RTVSPropertyOp3
 70
     1
102
RTVSPropertyOp4
 70
     1
102
RTVSPropertyOp5
 70
     1
102
RTVSPropertyOp6
 70
     1
102
RTVSPropertyOp7
 70
     1
102
RTVSPropertyOp8
 70
     1
102
RTVSPropertyOp9
 70
     1
102
RTVSPropertyOp10
 70
     1
102
RTVSPropertyOp11
 70
     1
102
RTVSPropertyOp12
 70
     1
102
RTVSPropertyOp13
 70
     1
102
RTVSPropertyOp14
 70
     1
102
RTVSPropertyOp15
 70
     1
102
RTVSPropertyOp16
 70
     1
102
RTVSPropertyOp17
 70
     1
102
RTVSPropertyOp18
 70
     1
102
RTVSPropertyOp19
 70
     1
102
RTVSPropertyOp20
 70
     1
102
RTVSPropertyOp21
 70
     1
102
RTVSPropertyOp22
 70
     1
102
RTVSPropertyOp23
 70
     1
102
RTVSPropertyOp24
 70
     1
102
RTVSPropertyOp25
 70
     1
102
RTVSPropertyOp26
 70
     1
102
RTVSPropertyOp27
 70
     1
102
RTVSPropertyOp28
 70
     1
102
RTVSPropertyOp29
 70
     1
102
RTVSPropertyOp30
 70
     1
102
RTVSPropertyOp31
 70
     1
102
RTVSPropertyOp32
 70
     1
  0
XRECORD
  5
1A1
102
{ACAD_REACTORS
330
1A0
102
}
330
1A0
100
AcDbXrecord
280
     1
102
RTVSPropertyOp0
 70
     1
102
RTVSPropertyOp1
 70
     1
102
RTVSPropertyOp2
 70
     1
102
RTVSPropertyOp3
 70
     1
102
RTVSPropertyOp4
 70
     1
102
RTVSPropertyOp5
 70
     1
102
RTVSPropertyOp6
 70
     1
102
RTVSPropertyOp7
 70
     1
102
RTVSPropertyOp8
 70
     1
102
RTVSPropertyOp9
 70
     1
102
RTVSPropertyOp10
 70
     1
102
RTVSPropertyOp11
 70
     1
102
RTVSPropertyOp12
 70
     1
102
RTVSPropertyOp13
 70
     1
102
RTVSPropertyOp14
 70
     1
102
RTVSPropertyOp15
 70
     1
102
RTVSPropertyOp16
 70
     1
102
RTVSPropertyOp17
 70
     1
102
RTVSPropertyOp18
 70
     1
102
RTVSPropertyOp19
 70
     1
102
RTVSPropertyOp20
 70
     1
102
RTVSPropertyOp21
 70
     1
102
RTVSPropertyOp22
 70
     1
102
RTVSPropertyOp23
 70
     1
102
RTVSPropertyOp24
 70
     1
102
RTVSPropertyOp25
 70
     1
102
RTVSPropertyOp26
 70
     1
102
RTVSPropertyOp27
 70
     1
102
RTVSPropertyOp28
 70
     1
102
RTVSPropertyOp29
 70
     1
102
RTVSPropertyOp30
 70
     1
102
RTVSPropertyOp31
 70
     1
102
RTVSPropertyOp32
 70
     1
  0
XRECORD
  5
197
102
{ACAD_REACTORS
330
196
102
}
330
196
100
AcDbXrecord
280
     1
102
RTVSPropertyOp0
 70
     1
102
RTVSPropertyOp1
 70
     1
102
RTVSPropertyOp2
 70
     1
102
RTVSPropertyOp3
 70
     1
102
RTVSPropertyOp4
 70
     1
102
RTVSPropertyOp5
 70
     1
102
RTVSPropertyOp6
 70
     1
102
RTVSPropertyOp7
 70
     1
102
RTVSPropertyOp8
 70
     1
102
RTVSPropertyOp9
 70
     1
102
RTVSPropertyOp10
 70
     1
102
RTVSPropertyOp11
 70
     1
102
RTVSPropertyOp12
 70
     1
102
RTVSPropertyOp13
 70
     1
102
RTVSPropertyOp14
 70
     1
102
RTVSPropertyOp15
 70
     1
102
RTVSPropertyOp16
 70
     1
102
RTVSPropertyOp17
 70
     1
102
RTVSPropertyOp18
 70
     1
102
RTVSPropertyOp19
 70
     1
102
RTVSPropertyOp20
 70
     1
102
RTVSPropertyOp21
 70
     1
102
RTVSPropertyOp22
 70
     1
102
RTVSPropertyOp23
 70
     1
102
RTVSPropertyOp24
 70
     1
102
RTVSPropertyOp25
 70
     1
102
RTVSPropertyOp26
 70
     1
102
RTVSPropertyOp27
 70
     1
102
RTVSPropertyOp28
 70
     1
102
RTVSPropertyOp29
 70
     1
102
RTVSPropertyOp30
 70
     1
102
RTVSPropertyOp31
 70
     1
102
RTVSPropertyOp32
 70
     1
  0
XRECORD
  5
183
102
{ACAD_REACTORS
330
182
102
}
330
182
100
AcDbXrecord
280
     1
102
RTVSPropertyOp0
 70
     1
102
RTVSPropertyOp1
 70
     1
102
RTVSPropertyOp2
 70
     1
102
RTVSPropertyOp3
 70
     1
102
RTVSPropertyOp4
 70
     1
102
RTVSPropertyOp5
 70
     1
102
RTVSPropertyOp6
 70
     1
102
RTVSPropertyOp7
 70
     1
102
RTVSPropertyOp8
 70
     1
102
RTVSPropertyOp9
 70
     1
102
RTVSPropertyOp10
 70
     1
102
RTVSPropertyOp11
 70
     1
102
RTVSPropertyOp12
 70
     1
102
RTVSPropertyOp13
 70
     1
102
RTVSPropertyOp14
 70
     1
102
RTVSPropertyOp15
 70
     1
102
RTVSPropertyOp16
 70
     1
102
RTVSPropertyOp17
 70
     1
102
RTVSPropertyOp18
 70
     1
102
RTVSPropertyOp19
 70
     1
102
RTVSPropertyOp20
 70
     1
102
RTVSPropertyOp21
 70
     1
102
RTVSPropertyOp22
 70
     1
102
RTVSPropertyOp23
 70
     1
102
RTVSPropertyOp24
 70
     1
102
RTVSPropertyOp25
 70
     1
102
RTVSPropertyOp26
 70
     1
102
RTVSPropertyOp27
 70
     1
102
RTVSPropertyOp28
 70
     1
102
RTVSPropertyOp29
 70
     1
102
RTVSPropertyOp30
 70
     1
102
RTVSPropertyOp31
 70
     1
102
RTVSPropertyOp32
 70
     1
  0
XRECORD
  5
1A3
102
{ACAD_REACTORS
330
1A2
102
}
330
1A2
100
AcDbXrecord
280
     1
102
RTVSPropertyOp0
 70
     1
102
RTVSPropertyOp1
 70
     1
102
RTVSPropertyOp2
 70
     1
102
RTVSPropertyOp3
 70
     1
102
RTVSPropertyOp4
 70
     1
102
RTVSPropertyOp5
 70
     1
102
RTVSPropertyOp6
 70
     1
102
RTVSPropertyOp7
 70
     1
102
RTVSPropertyOp8
 70
     1
102
RTVSPropertyOp9
 70
     1
102
RTVSPropertyOp10
 70
     1
102
RTVSPropertyOp11
 70
     1
102
RTVSPropertyOp12
 70
     1
102
RTVSPropertyOp13
 70
     1
102
RTVSPropertyOp14
 70
     1
102
RTVSPropertyOp15
 70
     1
102
RTVSPropertyOp16
 70
     1
102
RTVSPropertyOp17
 70
     1
102
RTVSPropertyOp18
 70
     1
102
RTVSPropertyOp19
 70
     1
102
RTVSPropertyOp20
 70
     1
102
RTVSPropertyOp21
 70
     1
102
RTVSPropertyOp22
 70
     1
102
RTVSPropertyOp23
 70
     1
102
RTVSPropertyOp24
 70
     1
102
RTVSPropertyOp25
 70
     1
102
RTVSPropertyOp26
 70
     1
102
RTVSPropertyOp27
 70
     1
102
RTVSPropertyOp28
 70
     1
102
RTVSPropertyOp29
 70
     1
102
RTVSPropertyOp30
 70
     1
102
RTVSPropertyOp31
 70
     1
102
RTVSPropertyOp32
 70
     1
  0
ENDSEC
  0
EOF
