  0
SECTION
  2
HEADER
  9
$ACADVER
  1
AC1015
  9
$ACADMAINTVER
 70
    18
  9
$DWGCODEPAGE
  3
ANSI_1252
  9
$INSBASE
 10
0.0
 20
0.0
 30
0.0
  9
$EXTMIN
 10
-46.02802768073525
 20
-49.75214958907145
 30
-0.0015258207003583
  9
$EXTMAX
 10
29.35489033436716
 20
31.86345011282629
 30
0.0000000349246037
  9
$LIMMIN
 10
0.0
 20
0.0
  9
$LIMMAX
 10
1189.0
 20
840.9999999999998
  9
$ORTHOMODE
 70
     0
  9
$REGENMODE
 70
     1
  9
$FILLMODE
 70
     1
  9
$QTEXTMODE
 70
     0
  9
$MIRRTEXT
 70
     0
  9
$LTSCALE
 40
1.0
  9
$ATTMODE
 70
     1
  9
$TEXTSIZE
 40
0.2
  9
$TRACEWID
 40
0.05
  9
$TEXTSTYLE
  7
STANDARD
  9
$CLAYER
  8
0
  9
$CELTYPE
  6
ByLayer
  9
$CECOLOR
 62
   256
  9
$CELTSCALE
 40
1.0
  9
$DISPSILH
 70
     0
  9
$DIMSCALE
 40
1.0
  9
$DIMASZ
 40
180.0
  9
$DIMEXO
 40
0.0625
  9
$DIMDLI
 40
0.38
  9
$DIMRND
 40
0.0
  9
$DIMDLE
 40
0.0
  9
$DIMEXE
 40
0.18
  9
$DIMTP
 40
0.0
  9
$DIMTM
 40
0.0
  9
$DIMTXT
 40
34.99999940395355
  9
$DIMCEN
 40
0.09
  9
$DIMTSZ
 40
0.0
  9
$DIMTOL
 70
     0
  9
$DIMLIM
 70
     0
  9
$DIMTIH
 70
     1
  9
$DIMTOH
 70
     1
  9
$DIMSE1
 70
     0
  9
$DIMSE2
 70
     0
  9
$DIMTAD
 70
     0
  9
$DIMZIN
 70
     0
  9
$DIMBLK
  1

  9
$DIMASO
 70
     1
  9
$DIMSHO
 70
     1
  9
$DIMPOST
  1

  9
$DIMAPOST
  1

  9
$DIMALT
 70
     0
  9
$DIMALTD
 70
     2
  9
$DIMALTF
 40
25.4
  9
$DIMLFAC
 40
1.0
  9
$DIMTOFL
 70
     0
  9
$DIMTVP
 40
0.0
  9
$DIMTIX
 70
     0
  9
$DIMSOXD
 70
     0
  9
$DIMSAH
 70
     0
  9
$DIMBLK1
  1

  9
$DIMBLK2
  1

  9
$DIMSTYLE
  2
STANDARD
  9
$DIMCLRD
 70
     0
  9
$DIMCLRE
 70
     0
  9
$DIMCLRT
 70
     0
  9
$DIMTFAC
 40
1.0
  9
$DIMGAP
 40
0.09
  9
$DIMJUST
 70
     0
  9
$DIMSD1
 70
     0
  9
$DIMSD2
 70
     0
  9
$DIMTOLJ
 70
     1
  9
$DIMTZIN
 70
     0
  9
$DIMALTZ
 70
     0
  9
$DIMALTTZ
 70
     0
  9
$DIMUPT
 70
     0
  9
$DIMDEC
 70
     4
  9
$DIMTDEC
 70
     4
  9
$DIMALTU
 70
     2
  9
$DIMALTTD
 70
     2
  9
$DIMTXSTY
  7
STANDARD
  9
$DIMAUNIT
 70
     0
  9
$DIMADEC
 70
     0
  9
$DIMALTRND
 40
0.0
  9
$DIMAZIN
 70
     0
  9
$DIMDSEP
 70
    46
  9
$DIMATFIT
 70
     3
  9
$DIMFRAC
 70
     0
  9
$DIMLDRBLK
  1

  9
$DIMLUNIT
 70
     2
  9
$DIMLWD
 70
    -2
  9
$DIMLWE
 70
    -2
  9
$DIMTMOVE
 70
     0
  9
$LUNITS
 70
     2
  9
$LUPREC
 70
     4
  9
$SKETCHINC
 40
0.1
  9
$FILLETRAD
 40
0.0
  9
$AUNITS
 70
     0
  9
$AUPREC
 70
     0
  9
$MENU
  1
.
  9
$ELEVATION
 40
0.0
  9
$PELEVATION
 40
0.0
  9
$THICKNESS
 40
0.0
  9
$LIMCHECK
 70
     0
  9
$CHAMFERA
 40
0.0
  9
$CHAMFERB
 40
0.0
  9
$CHAMFERC
 40
0.0
  9
$CHAMFERD
 40
0.0
  9
$SKPOLY
 70
     0
  9
$TDCREATE
 40
2454871.497639329
  9
$TDUCREATE
 40
2454871.455972662
  9
$TDUPDATE
 40
2455943.988176713
  9
$TDUUPDATE
 40
2455943.946510046
  9
$TDINDWG
 40
0.0120375579
  9
$TDUSRTIMER
 40
0.0120375579
  9
$USRTIMER
 70
     1
  9
$ANGBASE
 50
0.0
  9
$ANGDIR
 70
     0
  9
$PDMODE
 70
     0
  9
$PDSIZE
 40
0.0
  9
$PLINEWID
 40
0.0
  9
$SPLFRAME
 70
     0
  9
$SPLINETYPE
 70
     6
  9
$SPLINESEGS
 70
     8
  9
$HANDSEED
  5
19A
  9
$SURFTAB1
 70
     6
  9
$SURFTAB2
 70
     6
  9
$SURFTYPE
 70
     6
  9
$SURFU
 70
     6
  9
$SURFV
 70
     6
  9
$UCSBASE
  2

  9
$UCSNAME
  2

  9
$UCSORG
 10
0.0
 20
0.0
 30
0.0
  9
$UCSXDIR
 10
1.0
 20
0.0
 30
0.0
  9
$UCSYDIR
 10
0.0
 20
1.0
 30
0.0
  9
$UCSORTHOREF
  2

  9
$UCSORTHOVIEW
 70
     0
  9
$UCSORGTOP
 10
0.0
 20
0.0
 30
0.0
  9
$UCSORGBOTTOM
 10
0.0
 20
0.0
 30
0.0
  9
$UCSORGLEFT
 10
0.0
 20
0.0
 30
0.0
  9
$UCSORGRIGHT
 10
0.0
 20
0.0
 30
0.0
  9
$UCSORGFRONT
 10
0.0
 20
0.0
 30
0.0
  9
$UCSORGBACK
 10
0.0
 20
0.0
 30
0.0
  9
$PUCSBASE
  2

  9
$PUCSNAME
  2

  9
$PUCSORG
 10
0.0
 20
0.0
 30
0.0
  9
$PUCSXDIR
 10
1.0
 20
0.0
 30
0.0
  9
$PUCSYDIR
 10
0.0
 20
1.0
 30
0.0
  9
$PUCSORTHOREF
  2

  9
$PUCSORTHOVIEW
 70
     0
  9
$PUCSORGTOP
 10
0.0
 20
0.0
 30
0.0
  9
$PUCSORGBOTTOM
 10
0.0
 20
0.0
 30
0.0
  9
$PUCSORGLEFT
 10
0.0
 20
0.0
 30
0.0
  9
$PUCSORGRIGHT
 10
0.0
 20
0.0
 30
0.0
  9
$PUCSORGFRONT
 10
0.0
 20
0.0
 30
0.0
  9
$PUCSORGBACK
 10
0.0
 20
0.0
 30
0.0
  9
$USERI1
 70
     0
  9
$USERI2
 70
     0
  9
$USERI3
 70
     0
  9
$USERI4
 70
     0
  9
$USERI5
 70
     0
  9
$USERR1
 40
0.0
  9
$USERR2
 40
0.0
  9
$USERR3
 40
0.0
  9
$USERR4
 40
0.0
  9
$USERR5
 40
0.0
  9
$WORLDVIEW
 70
     1
  9
$SHADEDGE
 70
     3
  9
$SHADEDIF
 70
    70
  9
$TILEMODE
 70
     1
  9
$MAXACTVP
 70
    64
  9
$PINSBASE
 10
0.0
 20
0.0
 30
0.0
  9
$PLIMCHECK
 70
     0
  9
$PEXTMIN
 10
0.0
 20
0.0
 30
0.0
  9
$PEXTMAX
 10
1189.0
 20
840.9999999999998
 30
0.0
  9
$PLIMMIN
 10
0.0
 20
0.0
  9
$PLIMMAX
 10
1189.0
 20
840.9999999999998
  9
$UNITMODE
 70
     0
  9
$VISRETAIN
 70
     1
  9
$PLINEGEN
 70
     0
  9
$PSLTSCALE
 70
     1
  9
$TREEDEPTH
 70
  3020
  9
$CMLSTYLE
  2
Standard
  9
$CMLJUST
 70
     0
  9
$CMLSCALE
 40
1.0
  9
$PROXYGRAPHICS
 70
     1
  9
$MEASUREMENT
 70
     1
  9
$CELWEIGHT
370
    -1
  9
$ENDCAPS
280
     0
  9
$JOINSTYLE
280
     0
  9
$LWDISPLAY
290
     0
  9
$INSUNITS
 70
     4
  9
$HYPERLINKBASE
  1

  9
$STYLESHEET
  1

  9
$XEDIT
290
     1
  9
$CEPSNTYPE
380
     0
  9
$PSTYLEMODE
290
     1
  9
$FINGERPRINTGUID
  2
{B9A9EB0E-C3B8-456F-9D7B-1815F5ECF416}
  9
$VERSIONGUID
  2
{81A07B68-6CA6-447D-A853-369596685E5E}
  9
$EXTNAMES
290
     1
  9
$PSVPSCALE
 40
0.0
  9
$OLESTARTUP
290
     0
  0
ENDSEC
  0
SECTION
  2
CLASSES
  0
CLASS
  1
ACDBDICTIONARYWDFLT
  2
AcDbDictionaryWithDefault
  3
ObjectDBX Classes
 90
        0
280
     0
281
     0
  0
CLASS
  1
MATERIAL
  2
AcDbMaterial
  3
ObjectDBX Classes
 90
     1153
280
     0
281
     0
  0
CLASS
  1
VISUALSTYLE
  2
AcDbVisualStyle
  3
ObjectDBX Classes
 90
     4095
280
     0
281
     0
  0
CLASS
  1
SCALE
  2
AcDbScale
  3
ObjectDBX Classes
 90
     1153
280
     0
281
     0
  0
CLASS
  1
TABLESTYLE
  2
AcDbTableStyle
  3
ObjectDBX Classes
 90
     4095
280
     0
281
     0
  0
CLASS
  1
MLEADERSTYLE
  2
AcDbMLeaderStyle
  3
ACDB_MLEADERSTYLE_CLASS
 90
     4095
280
     0
281
     0
  0
CLASS
  1
SORTENTSTABLE
  2
AcDbSortentsTable
  3
ObjectDBX Classes
 90
        0
280
     0
281
     0
  0
CLASS
  1
CELLSTYLEMAP
  2
AcDbCellStyleMap
  3
ObjectDBX Classes
 90
     1152
280
     0
281
     0
  0
CLASS
  1
DICTIONARYVAR
  2
AcDbDictionaryVar
  3
ObjectDBX Classes
 90
        0
280
     0
281
     0
  0
CLASS
  1
ACME_DOCUMENT
  2
AcMeDbDoc
  3
AcMeServices
 90
    33792
280
     1
281
     0
  0
CLASS
  1
AMGSETTINGSOBJ
  2
AmgSettingsObj
  3
"AcadM|Product Description: AutoCAD Mechanical|Company: Autodesk, Inc."
 90
    33792
280
     1
281
     0
  0
CLASS
  1
ACMESCOPE
  2
AcMeScope
  3
AcMeServices
 90
    33792
280
     1
281
     0
  0
CLASS
  1
ACMECOMMANDHISTORY
  2
AcMeCommandHistory
  3
AcMeServices
 90
    33792
280
     1
281
     0
  0
CLASS
  1
ACIMSYSVARMAN
  2
AcImSysVarManager
  3
AcMeServices
 90
    33792
280
     1
281
     0
  0
CLASS
  1
ACIMINTSYSVAR
  2
AcImIntSysVar
  3
AcMeServices
 90
    33792
280
     1
281
     0
  0
CLASS
  1
ACMEDRAWINGMAN
  2
AcMeDrawingMan
  3
AcMeServices
 90
    33792
280
     1
281
     0
  0
CLASS
  1
ACMEVIEW
  2
AcMeView
  3
AcMeServices
 90
    33792
280
     1
281
     0
  0
CLASS
  1
ACDBENTITYCACHE
  2
AcMeEntityCache
  3
AcMeServices
 90
    33792
280
     1
281
     0
  0
CLASS
  1
GSMANAGER
  2
AcMeGSManager
  3
AcMeServices
 90
    33792
280
     1
281
     0
  0
CLASS
  1
AMDTINTERNALREACTOR
  2
AmdtInternalReactor
  3
AcMeServices
 90
    33792
280
     1
281
     0
  0
CLASS
  1
ACMESTATEMGR
  2
AcMeStateMgr
  3
AcMeServices
 90
    33792
280
     1
281
     0
  0
CLASS
  1
ACGREFMASTER
  2
AcGrefMaster
  3
AcAttribServices
 90
    33792
280
     1
281
     0
  0
CLASS
  1
AM_DRAWING_MGR
  2
AcDmDwgMgr
  3
AcMechDwgViewMgmt
 90
    33792
280
     1
281
     0
  0
CLASS
  1
AM_DWG_DOCUMENT
  2
AcDmDwgDocument
  3
AcMechDwgViewMgmt
 90
    33792
280
     1
281
     0
  0
CLASS
  1
AM_DWG_SHEET
  2
AcDmSheet
  3
AcMechDwgViewMgmt
 90
    33792
280
     1
281
     0
  0
CLASS
  1
AM_VIEWDIMPARMAP
  2
AcDmViewDimParMap
  3
AcMechDwgViewMgmt
 90
    33792
280
     1
281
     0
  0
CLASS
  1
ACIMREALSYSVAR
  2
AcImRealSysVar
  3
AcMeServices
 90
    33792
280
     1
281
     0
  0
CLASS
  1
AM_DWGMGR_NAME
  2
AcDmDwgMgrName
  3
AcMechDwgViewMgmt
 90
    33792
280
     1
281
     0
  0
CLASS
  1
ACME_DATABASE
  2
AcMeDbDatabase
  3
AcMeServices
 90
    33792
280
     1
281
     0
  0
CLASS
  1
ACRFINSADJUSTERMGR
  2
AcRfInsAdjusterMgr
  3
AcMeServices
 90
    33792
280
     1
281
     0
  0
CLASS
  1
ACGREFACADMASTER
  2
AcGrefacadMaster
  3
AcGrefServices
 90
    33792
280
     1
281
     0
  0
CLASS
  1
AMDTMENUSTATEMGR
  2
AmdtMenuStateMgr
  3
McadcomServices
 90
    33792
280
     1
281
     0
  0
CLASS
  1
AMDTMCOMMENUSTATE
  2
AmdtMcomMenuState
  3
McadcomServices
 90
    33792
280
     1
281
     0
  0
CLASS
  1
AMIMASTER
  2
AmiMaster
  3
AmiServices
 90
    33792
280
     1
281
     0
  0
CLASS
  1
MAPIAMMOUDLE
  2
MApiAmModule
  3
MApiAmServices
 90
    33792
280
     1
281
     0
  0
CLASS
  1
ACIMSTRSYSVAR
  2
AcImStrSysVar
  3
AcMeServices
 90
    33792
280
     1
281
     0
  0
CLASS
  1
AMDTADMENUSTATE
  2
AmdtAdMenuState
  3
DesignerServices
 90
    33792
280
     1
281
     0
  0
CLASS
  1
ADAPPL
  2
AcAdAppl
  3
DesignerServices
 90
    33792
280
     1
281
     0
  0
CLASS
  1
DEPMGR
  2
AcAdDepMgr
  3
DesignerServices
 90
    33792
280
     1
281
     0
  0
CLASS
  1
PARAMMGR
  2
AcAdParamMgr
  3
DesignerServices
 90
    33792
280
     1
281
     0
  0
CLASS
  1
PARAMSCOPE
  2
AcAdParamScope
  3
DesignerServices
 90
    33792
280
     1
281
     0
  0
CLASS
  1
NAMEDAPPL
  2
AcAdNamedAppl
  3
DesignerServices
 90
    33792
280
     1
281
     0
  0
CLASS
  1
AMDTDMMENUSTATE
  2
AmdtDmMenuState
  3
AcMechDwgViewMgmt
 90
    33792
280
     1
281
     0
  0
CLASS
  1
AMDTAMMENUSTATE
  2
AmdtAmMenuState
  3
DesignerAssemblies
 90
    33792
280
     1
281
     0
  0
CLASS
  1
ACAMPROJECT
  2
AcAmProject
  3
DesignerAssemblies
 90
    33792
280
     1
281
     0
  0
CLASS
  1
ACAMGRCOMPDEF
  2
AcAmGrCompDef
  3
DesignerAssemblies
 90
    33792
280
     1
281
     0
  0
CLASS
  1
ACCMCONTEXT
  2
AcCmContext
  3
DesignerAssemblies
 90
    33792
280
     1
281
     0
  0
CLASS
  1
ACAMCOMPDEF
  2
AcAmCompDef
  3
DesignerAssemblies
 90
    33792
280
     1
281
     0
  0
CLASS
  1
ACAMCOMPDEFMGR
  2
AcAmCompDefMgr
  3
DesignerAssemblies
 90
    33792
280
     1
281
     0
  0
CLASS
  1
AMCONTEXTMGR
  2
AcAmContextMgr
  3
DesignerAssemblies
 90
    33792
280
     1
281
     0
  0
CLASS
  1
ACAMCONTEXTMODELER
  2
AcAmContextModeler
  3
DesignerAssemblies
 90
    33792
280
     1
281
     0
  0
CLASS
  1
ACMDATADICTIONARY
  2
AcmDataDictionary
  3
"AcmSymBB|Product Description: AutoCAD Mechanical|Company: Autodesk, Inc."
 90
    33792
280
     1
281
     0
  0
CLASS
  1
CATALOGSTATE
  2
AcAmCatalogState
  3
DesignerAssemblies
 90
    33792
280
     1
281
     0
  0
CLASS
  1
ACAMGRCOMPDEFSET
  2
AcAmGrCompDefSet
  3
DesignerAssemblies
 90
    33792
280
     1
281
     0
  0
CLASS
  1
AMDTBROWSERDBTAB
  2
AmdtBrowserDbTab
  3
McadcomServices
 90
    33792
280
     1
281
     0
  0
CLASS
  1
CBROWSERAPPOBJECT
  2
CBrowserAppObject
  3
McadcomServices
 90
    33792
280
     1
281
     0
  0
CLASS
  1
DM_PLACEHOLDER
  2
AcDmSelsetPlaceholder
  3
AcMechDwgViewMgmt
 90
    33792
280
     1
281
     0
  0
CLASS
  1
EXACXREFPANELOBJECT
  2
ExAcXREFPanelObject
  3
EXAC_ESW
 90
     1025
280
     0
281
     0
  0
CLASS
  1
NPOCOLLECTION
  2
AcDbImpNonPersistentObjectsCollection
  3
ObjectDBX Classes
 90
     1153
280
     0
281
     0
  0
CLASS
  1
ACMSTANDARDANSI
  2
AcmStandardANSI
  3
"Amdt_StdImp|Product Description: AutoCAD Mechanical|Company: Autodesk, Inc."
 90
    33792
280
     1
281
     0
  0
CLASS
  1
ACMSURFSTANDARDANSI
  2
AcmSurfTextStdANSI
  3
"Amdt_StdImp|Product Description: AutoCAD Mechanical|Company: Autodesk, Inc."
 90
    33792
280
     1
281
     0
  0
CLASS
  1
ACMFCFSTANDARDANSI
  2
AcmFCFStdANSI
  3
"Amdt_StdImp|Product Description: AutoCAD Mechanical|Company: Autodesk, Inc."
 90
    33792
280
     1
281
     0
  0
CLASS
  1
ACMWELDSTANDARDANSI
  2
AcmWeldingStdANSI
  3
"Amdt_StdImp|Product Description: AutoCAD Mechanical|Company: Autodesk, Inc."
 90
    33792
280
     1
281
     0
  0
CLASS
  1
ACMIDSTANDARDANSI
  2
AcmIdStdANSI
  3
"Amdt_StdImp|Product Description: AutoCAD Mechanical|Company: Autodesk, Inc."
 90
    33792
280
     1
281
     0
  0
CLASS
  1
ACMDATUMSTANDARDANSI
  2
AcmDatumStdANSI
  3
"Amdt_StdImp|Product Description: AutoCAD Mechanical|Company: Autodesk, Inc."
 90
    33792
280
     1
281
     0
  0
CLASS
  1
ACMBOMSTANDARDANSI
  2
AcmBOMStdANSI
  3
"Amdt_StdImp|Product Description: AutoCAD Mechanical|Company: Autodesk, Inc."
 90
    33792
280
     1
281
     0
  0
CLASS
  1
ACMDETAILSTANDARDANSI
  2
AmdtDetailSymStdANSI
  3
"Amdt_StdImp|Product Description: AutoCAD Mechanical|Company: Autodesk, Inc."
 90
    33792
280
     1
281
     0
  0
CLASS
  1
ACMSECTIONSTANDARDANSI
  2
AmdtSectionSymStdANSI
  3
"Amdt_StdImp|Product Description: AutoCAD Mechanical|Company: Autodesk, Inc."
 90
    33792
280
     1
281
     0
  0
CLASS
  1
ACMCENTERLINESTANDARDANSI
  2
AmdtCenterLineStdANSI
  3
"Amdt_StdImp|Product Description: AutoCAD Mechanical|Company: Autodesk, Inc."
 90
    33792
280
     1
281
     0
  0
CLASS
  1
ACMTHREADLINESTANDARDANSI
  2
AmdtThreadLineStdANSI
  3
"Amdt_StdImp|Product Description: AutoCAD Mechanical|Company: Autodesk, Inc."
 90
    33792
280
     1
281
     0
  0
CLASS
  1
ACMNOTESTANDARDANSI
  2
AmdtNoteStdANSI
  3
"Amdt_StdImp|Product Description: AutoCAD Mechanical|Company: Autodesk, Inc."
 90
    33792
280
     1
281
     0
  0
CLASS
  1
ACMTAPERSTANDARDANSI
  2
AcmTaperStdANSI
  3
"Amdt_StdImp|Product Description: AutoCAD Mechanical|Company: Autodesk, Inc."
 90
    33792
280
     1
281
     0
  0
CLASS
  1
ACMANOOTATIONVIEWSTANDARDANSI
  2
AmdtAnViewStdANSI
  3
"Amdt_StdImp|Product Description: AutoCAD Mechanical|Company: Autodesk, Inc."
 90
    33792
280
     1
281
     0
  0
CLASS
  1
ACAMGLAYSTD
  2
AcAmgLayStd
  3
"AmgLay|Product Description: AutoCAD Mechanical|Company: Autodesk, Inc."
 90
    33792
280
     1
281
     0
  0
CLASS
  1
ACAMGDIMSTD
  2
AcAmgDimStd
  3
"AmgDim|Product Description: AutoCAD Mechanical|Company: Autodesk, Inc."
 90
    33792
280
     1
281
     0
  0
CLASS
  1
AMGOBJPROPCFG
  2
AmgObjPropCfg
  3
"AmgLay|Product Description: AutoCAD Mechanical|Company: Autodesk, Inc."
 90
    33793
280
     1
281
     0
  0
CLASS
  1
ACAMGHOLECHARTSTDANSI
  2
AcAmgHoleChartStdANSI
  3
AmgDim|Product Description: AutoCAD Mechanical|Company: Autodesk, Inc.
 90
    33792
280
     1
281
     0
  0
CLASS
  1
ACAMGTITLESTD
  2
AcAmgTitleStd
  3
"AmgTitle|Product Description: AutoCAD Mechanical|Company: Autodesk, Inc."
 90
    36863
280
     1
281
     0
  0
CLASS
  1
AMDTNOTETEMPLATEDB
  2
AmdtNoteTemplateDB
  3
AcmSymBB|Product Description: AutoCAD Mechanical|Company: Autodesk, Inc.
 90
    33792
280
     1
281
     0
  0
CLASS
  1
ACAMGFILTERDAT
  2
AcAmgFilterDat
  3
"AcadM|Product Description: AutoCAD Mechanical|Company: Autodesk, Inc."
 90
    33792
280
     1
281
     0
  0
CLASS
  1
CAMSSTRUCTBTNSTATE
  2
StructBtnState
  3
DesignerAssemblies
 90
    33792
280
     1
281
     0
  0
CLASS
  1
ACDBPLACEHOLDER
  2
AcDbPlaceHolder
  3
ObjectDBX Classes
 90
        0
280
     0
281
     0
  0
CLASS
  1
LAYOUT
  2
AcDbLayout
  3
ObjectDBX Classes
 90
        0
280
     0
281
     0
  0
ENDSEC
  0
SECTION
  2
TABLES
  0
TABLE
  2
VPORT
  5
28
102
{ACAD_XDICTIONARY
360
2C
102
}
330
0
100
AcDbSymbolTable
 70
     1
  0
VPORT
  5
29
330
28
100
AcDbSymbolTableRecord
100
AcDbViewportTableRecord
  2
*ACTIVE
 70
     0
 10
0.0
 20
0.0
 11
1.0
 21
1.0
 12
-8.33656867318405
 22
-8.944349738122582
 13
0.0
 23
0.0
 14
1.0
 24
1.0
 15
0.0
 25
0.0
 16
0.0
 26
0.0
 36
1.0
 17
0.0
 27
0.0
 37
0.0
 40
91.378009870322
 41
1.141762452107279
 42
50.0
 43
0.0
 44
0.0
 50
0.0
 51
0.0
 71
     0
 72
   100
 73
     1
 74
     1
 75
     0
 76
     0
 77
     0
 78
     0
281
     0
 65
     1
110
0.0
120
0.0
130
0.0
111
1.0
121
0.0
131
0.0
112
0.0
122
1.0
132
0.0
 79
     0
146
0.0
  0
ENDTAB
  0
TABLE
  2
LTYPE
  5
23
330
0
100
AcDbSymbolTable
 70
     3
  0
LTYPE
  5
24
330
23
100
AcDbSymbolTableRecord
100
AcDbLinetypeTableRecord
  2
ByBlock
 70
     0
  3

 72
    65
 73
     0
 40
0.0
  0
LTYPE
  5
25
330
23
100
AcDbSymbolTableRecord
100
AcDbLinetypeTableRecord
  2
ByLayer
 70
     0
  3

 72
    65
 73
     0
 40
0.0
  0
LTYPE
  5
13
330
23
100
AcDbSymbolTableRecord
100
AcDbLinetypeTableRecord
  2
CONTINUOUS
 70
     0
  3
Solid line
 72
    65
 73
     0
 40
0.0
  0
LTYPE
  5
77
330
23
100
AcDbSymbolTableRecord
100
AcDbLinetypeTableRecord
  2
DASHDOT
 70
     0
  3
Dash dot __ . __ . __ . __ . __ . __ . __ . __
 72
    65
 73
     4
 40
1.0
 49
0.5
 74
     0
 49
-0.25
 74
     0
 49
0.0
 74
     0
 49
-0.25
 74
     0
  0
LTYPE
  5
7E
330
23
100
AcDbSymbolTableRecord
100
AcDbLinetypeTableRecord
  2
DASHED
 70
     0
  3
Dashed __ __ __ __ __ __ __ __ __ __ __ __ __ _
 72
    65
 73
     2
 40
0.75
 49
0.5
 74
     0
 49
-0.25
 74
     0
  0
ENDTAB
  0
TABLE
  2
LAYER
  5
1B
102
{ACAD_XDICTIONARY
360
1C
102
}
330
0
100
AcDbSymbolTable
 70
     7
  0
LAYER
  5
6
330
1B
100
AcDbSymbolTableRecord
100
AcDbLayerTableRecord
  2
0
 70
     0
 62
     7
  6
CONTINUOUS
370
    -3
390
7
  0
LAYER
  5
86
330
1B
100
AcDbSymbolTableRecord
100
AcDbLayerTableRecord
  2
GEB-KONTUR-A
 70
     0
 62
     5
  6
CONTINUOUS
370
    -3
390
7
  0
LAYER
  5
76
330
1B
100
AcDbSymbolTableRecord
100
AcDbLayerTableRecord
  2
GEB-SYMMETRIE
 70
     0
 62
     3
  6
DASHDOT
370
    -3
390
7
1001
AcAecLayerStandard
1000

1000

  0
LAYER
  5
7D
330
1B
100
AcDbSymbolTableRecord
100
AcDbLayerTableRecord
  2
GEB-VERDECKT
 70
     0
 62
     2
  6
DASHED
370
    -3
390
7
1001
AcAecLayerStandard
1000

1000

  0
LAYER
  5
12E
330
1B
100
AcDbSymbolTableRecord
100
AcDbLayerTableRecord
  2
GEB-ART-NR
 70
     0
 62
     1
  6
CONTINUOUS
370
    18
390
7
  0
LAYER
  5
72
330
1B
100
AcDbSymbolTableRecord
100
AcDbLayerTableRecord
  2
GEB-BEZUG
 70
     0
 62
     2
  6
CONTINUOUS
370
    25
390
7
  0
LAYER
  5
12B
330
1B
100
AcDbSymbolTableRecord
100
AcDbLayerTableRecord
  2
GEB-TEXT
 70
     0
 62
     5
  6
CONTINUOUS
370
    18
390
7
  0
ENDTAB
  0
TABLE
  2
STYLE
  5
20
330
0
100
AcDbSymbolTable
 70
     1
  0
STYLE
  5
21
330
20
100
AcDbSymbolTableRecord
100
AcDbTextStyleTableRecord
  2
STANDARD
 70
     0
 40
0.0
 41
1.0
 50
0.0
 71
     0
 42
0.2
  3
ARIAL.TTF
  4

1001
ACAD
1000
Arial
1071
       34
  0
ENDTAB
  0
TABLE
  2
VIEW
  5
26
330
0
100
AcDbSymbolTable
 70
     0
  0
ENDTAB
  0
TABLE
  2
UCS
  5
27
330
0
100
AcDbSymbolTable
 70
     0
  0
ENDTAB
  0
TABLE
  2
APPID
  5
2D
330
0
100
AcDbSymbolTable
 70
     3
  0
APPID
  5
1F
330
2D
100
AcDbSymbolTableRecord
100
AcDbRegAppTableRecord
  2
ACAD
 70
     0
  0
APPID
  5
78
330
2D
100
AcDbSymbolTableRecord
100
AcDbRegAppTableRecord
  2
AcAecLayerStandard
 70
     0
  0
APPID
  5
199
330
2D
100
AcDbSymbolTableRecord
100
AcDbRegAppTableRecord
  2
ACAD_MLEADERVER
 70
     0
  0
ENDTAB
  0
TABLE
  2
DIMSTYLE
  5
2E
330
0
100
AcDbSymbolTable
 70
     1
100
AcDbDimStyleTable
 71
     1
340
2F
  0
DIMSTYLE
105
2F
330
2E
100
AcDbSymbolTableRecord
100
AcDbDimStyleTableRecord
  2
STANDARD
 70
     0
279
     2
340
21
  0
ENDTAB
  0
TABLE
  2
BLOCK_RECORD
  5
1
330
0
100
AcDbSymbolTable
 70
     1
  0
BLOCK_RECORD
  5
2
102
{ACAD_XDICTIONARY
360
3
102
}
330
1
100
AcDbSymbolTableRecord
100
AcDbBlockTableRecord
  2
*Model_Space
340
15
  0
BLOCK_RECORD
  5
17
330
1
100
AcDbSymbolTableRecord
100
AcDbBlockTableRecord
  2
*Paper_Space
340
1A
  0
BLOCK_RECORD
  5
6F
330
1
100
AcDbSymbolTableRecord
100
AcDbBlockTableRecord
  2
Einfügepunkt
340
0
102
{BLKREFS
331
6E
102
}
  0
ENDTAB
  0
ENDSEC
  0
SECTION
  2
BLOCKS
  0
BLOCK
  5
5
330
2
100
AcDbEntity
  8
0
100
AcDbBlockBegin
  2
*Model_Space
 70
     0
 10
0.0
 20
0.0
 30
0.0
  3
*Model_Space
  1

  0
ENDBLK
  5
14
330
2
100
AcDbEntity
  8
0
100
AcDbBlockEnd
  0
BLOCK
  5
18
330
17
100
AcDbEntity
 67
     1
  8
0
100
AcDbBlockBegin
  2
*Paper_Space
 70
     0
 10
0.0
 20
0.0
 30
0.0
  3
*Paper_Space
  1

  0
ENDBLK
  5
19
330
17
100
AcDbEntity
 67
     1
  8
0
100
AcDbBlockEnd
  0
BLOCK
  5
70
330
6F
100
AcDbEntity
  8
0
100
AcDbBlockBegin
  2
Einfügepunkt
 70
     0
 10
0.0
 20
0.0
 30
0.0
  3
Einfügepunkt
  1

  0
LINE
  5
71
330
6F
100
AcDbEntity
  8
GEB-BEZUG
100
AcDbLine
 10
-0.7071067811865817
 20
-0.7071067811865106
 30
0.0
 11
0.7071067811864751
 21
0.7071067811865817
 31
0.0
  0
LINE
  5
73
330
6F
100
AcDbEntity
  8
GEB-BEZUG
100
AcDbLine
 10
-0.7071067811865106
 20
0.7071067811865817
 30
0.0
 11
0.7071067811865462
 21
-0.7071067811865106
 31
0.0
  0
ENDBLK
  5
74
330
6F
100
AcDbEntity
  8
0
100
AcDbBlockEnd
  0
ENDSEC
  0
SECTION
  2
ENTITIES
  0
INSERT
  5
6E
330
2
100
AcDbEntity
  8
0
 48
25.0
100
AcDbBlockReference
  2
Einfügepunkt
 10
0.0
 20
0.0
 30
0.0
  0
LINE
  5
75
330
2
100
AcDbEntity
  8
GEB-SYMMETRIE
 48
25.0
100
AcDbLine
 10
-15.95404054037067
 20
-30.0
 30
0.0
 11
-15.95404054037067
 21
30.0
 31
0.0
  0
LINE
  5
79
330
2
100
AcDbEntity
  8
GEB-SYMMETRIE
 48
25.0
100
AcDbLine
 10
-45.95404054037067
 20
0.0
 30
0.0
 11
14.04595945962933
 21
0.0
 31
0.0
  0
LINE
  5
7A
330
2
100
AcDbEntity
  8
GEB-SYMMETRIE
 48
25.0
100
AcDbLine
 10
0.0000000000001137
 20
29.32500000000004
 30
0.0
 11
0.0000000000001137
 21
-29.32500000000004
 31
0.0
  0
LINE
  5
7B
330
2
100
AcDbEntity
  8
GEB-SYMMETRIE
 48
25.0
100
AcDbLine
 10
29.32500000000016
 20
0.0
 30
0.0
 11
-29.32499999999993
 21
0.0
 31
0.0
  0
SPLINE
  5
7C
330
2
100
AcDbEntity
  8
GEB-VERDECKT
 48
25.0
100
AcDbSpline
210
0.0
220
0.0
230
1.0
 70
     8
 71
     3
 72
    20
 73
    16
 74
     0
 42
0.0000000001
 43
0.0000000001
 40
2.112828437278961
 40
2.112828437278961
 40
2.112828437278961
 40
2.112828437278961
 40
2.432700899026464
 40
2.432700899026464
 40
2.752759471321139
 40
2.752759471321139
 40
3.072967000280991
 40
3.072967000280991
 40
3.393242310866333
 40
3.393242310866333
 40
3.713490157182103
 40
3.713490157182103
 40
4.033620468687283
 40
4.033620468687283
 40
4.170356869900624
 40
4.170356869900624
 40
4.170356869900624
 40
4.170356869900624
 10
6.671294196353755
 20
21.1996981202476
 30
0.0
 10
8.856179011041604
 20
19.83755697243805
 30
0.0
 10
10.82798873593947
 20
18.1111344914749
 30
0.0
 10
14.14813542966794
 20
14.10314150098156
 30
0.0
 10
15.49555079527477
 20
11.82195246714445
 30
0.0
 10
17.42932403456291
 20
6.935375874512828
 30
0.0
 10
18.0150068415661
 20
4.330677461379991
 30
0.0
 10
18.36483446754971
 20
-0.9384816805236368
 30
0.0
 10
18.12874679073002
 20
-3.60205649045929
 30
0.0
 10
16.85825624518225
 20
-8.718000583740035
 30
0.0
 10
15.82413042277778
 20
-11.16951231681992
 30
0.0
 10
13.06236919131436
 20
-15.6116634068926
 30
0.0
 10
11.33544846525547
 20
-17.60169884789479
 30
0.0
 10
8.500643982550741
 20
-19.96899107911668
 30
0.0
 10
7.605270459874418
 20
-20.61742142947332
 30
0.0
 10
6.671294196353869
 20
-21.19969812024738
 30
0.0
  0
SPLINE
  5
7F
330
2
100
AcDbEntity
  8
GEB-VERDECKT
 48
25.0
100
AcDbSpline
210
0.0
220
0.0
230
1.0
 70
     8
 71
     3
 72
    26
 73
    22
 74
     0
 42
0.0000000001
 43
0.0000000001
 40
0.0000391708387166
 40
0.0000391708387166
 40
0.0000391708387166
 40
0.0000391708387166
 40
0.1016282074330492
 40
0.1016282074330492
 40
0.1434540828536613
 40
0.1434540828536613
 40
0.1521422978078977
 40
0.1521422978078977
 40
0.1572052970495344
 40
0.1572052970495344
 40
0.1610294660459663
 40
0.1610294660459663
 40
0.1649082037605579
 40
0.1649082037605579
 40
0.1705527000666514
 40
0.1705527000666514
 40
0.1822588238150959
 40
0.1822588238150959
 40
0.2179307321727795
 40
0.2179307321727795
 40
0.3305226454615864
 40
0.3305226454615864
 40
0.3305226454615864
 40
0.3305226454615864
 10
7.37381278214616
 20
20.49828697328712
 30
0.0
 10
7.138600527616063
 20
20.72313657095708
 30
0.0
 10
6.947049529392756
 20
20.9021691059238
 30
0.0
 10
6.766040707307411
 20
21.07595962341031
 30
0.0
 10
6.696837995553096
 20
21.14291605058361
 30
0.0
 10
6.655359420341369
 20
21.18979636417885
 30
0.0
 10
6.648545632911009
 20
21.19799303938726
 30
0.0
 10
6.642459657810832
 20
21.2074758724649
 30
0.0
 10
6.641131959086692
 20
21.21036537074724
 30
0.0
 10
6.641840296286545
 20
21.21311556308319
 30
0.0
 10
6.643118806949701
 20
21.21349177715092
 30
0.0
 10
6.647839000669137
 20
21.21246240068138
 30
0.0
 10
6.65115697721194
 20
21.21106488464852
 30
0.0
 10
6.660814586879382
 20
21.20613721318398
 30
0.0
 10
6.667801908257729
 20
21.2019455536589
 30
0.0
 10
6.689703866806667
 20
21.18799858332113
 30
0.0
 10
6.707401135444342
 20
21.17561460476691
 30
0.0
 10
6.772470919130682
 20
21.12870734459602
 30
0.0
 10
6.834460214913519
 20
21.08049192893679
 30
0.0
 10
7.038761560496027
 20
20.91810054297207
 30
0.0
 10
7.259562152855096
 20
20.73320837892072
 30
0.0
 10
7.521270517041216
 20
20.49828697328712
 30
0.0
  0
SPLINE
  5
80
330
2
100
AcDbEntity
  8
GEB-VERDECKT
 48
25.0
100
AcDbSpline
210
0.0
220
0.0
230
1.0
 70
     8
 71
     3
 72
    16
 73
    12
 74
     0
 42
0.0000000001
 43
0.0000000001
 40
2.31298095965889
 40
2.31298095965889
 40
2.31298095965889
 40
2.31298095965889
 40
2.424023217695545
 40
2.424023217695545
 40
2.775165182250167
 40
2.775165182250167
 40
3.380209907883936
 40
3.380209907883936
 40
4.090837416909556
 40
4.090837416909556
 40
4.620656223541891
 40
4.620656223541891
 40
4.620656223541891
 40
4.620656223541891
 10
16.09588343875214
 20
0.0
 30
0.0
 10
16.09588343875214
 20
0.3715840038980787
 30
0.0
 10
16.0886084468699
 20
0.7431978420181622
 30
0.0
 10
16.0280401487837
 20
2.289113322379762
 30
0.0
 10
15.90932251570223
 20
3.459345214385962
 30
0.0
 10
15.39078222922455
 20
6.614733065851282
 30
0.0
 10
14.85124174966609
 20
8.567582580128942
 30
0.0
 10
13.24708047594595
 20
12.64131005784054
 30
0.0
 10
12.11406044217801
 20
14.7143233513259
 30
0.0
 10
9.73887708384143
 20
18.01933411710354
 30
0.0
 10
8.603704991839435
 20
19.32257965701888
 30
0.0
 10
7.37381278214616
 20
20.49828697328712
 30
0.0
  0
SPLINE
  5
81
330
2
100
AcDbEntity
  8
GEB-VERDECKT
 48
25.0
100
AcDbSpline
210
0.0
220
0.0
230
1.0
 70
     8
 71
     3
 72
    14
 73
    10
 74
     0
 42
0.0000000001
 43
0.0000000001
 40
0.0018294068385544
 40
0.0018294068385544
 40
0.0018294068385544
 40
0.0018294068385544
 40
0.989715221512821
 40
0.989715221512821
 40
1.726746399294267
 40
1.726746399294267
 40
2.115193497023454
 40
2.115193497023454
 40
2.31298095965889
 40
2.31298095965889
 40
2.31298095965889
 40
2.31298095965889
 10
7.37381278214616
 20
-20.49828697328701
 30
0.0
 10
9.661347822983088
 20
-18.31153299392576
 30
0.0
 10
11.60928115137176
 20
-15.69256066774755
 30
0.0
 10
14.17090156386439
 20
-10.58032046045434
 30
0.0
 10
14.98549271819388
 20
-8.251184759576062
 30
0.0
 10
15.7567618886037
 20
-4.569624609901438
 30
0.0
 10
15.93607487996553
 20
-3.280964793173325
 30
0.0
 10
16.07280062387963
 20
-1.323629460215556
 30
0.0
 10
16.09588343875214
 20
-0.6618620567193148
 30
0.0
 10
16.09588343875214
 20
0.0
 30
0.0
  0
SPLINE
  5
82
330
2
100
AcDbEntity
  8
GEB-VERDECKT
 48
25.0
100
AcDbSpline
210
0.0
220
0.0
230
1.0
 70
     8
 71
     3
 72
    26
 73
    22
 74
     0
 42
0.0000000001
 43
0.0000000001
 40
0.0000391708387107
 40
0.0000391708387107
 40
0.0000391708387107
 40
0.0000391708387107
 40
0.1016282074330465
 40
0.1016282074330465
 40
0.1434540828535214
 40
0.1434540828535214
 40
0.1521422978077731
 40
0.1521422978077731
 40
0.1572052970493698
 40
0.1572052970493698
 40
0.1610294660458546
 40
0.1610294660458546
 40
0.1649082037605353
 40
0.1649082037605353
 40
0.1705527000667207
 40
0.1705527000667207
 40
0.182258823815353
 40
0.182258823815353
 40
0.2179307321734882
 40
0.2179307321734882
 40
0.3305226454636882
 40
0.3305226454636882
 40
0.3305226454636882
 40
0.3305226454636882
 10
7.52127051704133
 20
-20.49828697328701
 30
0.0
 10
7.270782400663051
 20
-20.72313657095697
 30
0.0
 10
7.057739755420698
 20
-20.90216910592369
 30
0.0
 10
6.840506756344666
 20
-21.07595962340997
 30
0.0
 10
6.754652248807929
 20
-21.14291605058349
 30
0.0
 10
6.686749348846433
 20
-21.18979636417873
 30
0.0
 10
6.67440763624495
 20
-21.19799303938714
 30
0.0
 10
6.658310921158999
 20
-21.20747587246467
 30
0.0
 10
6.652874162235207
 20
-21.21036537074713
 30
0.0
 10
6.645726493543406
 20
-21.21311556308308
 30
0.0
 10
6.643566815106964
 20
-21.21349177715081
 30
0.0
 10
6.641257109310572
 20
-21.21246240068115
 30
0.0
 10
6.641211740478752
 20
-21.21106488464841
 30
0.0
 10
6.64308797782894
 20
-21.20613721318375
 30
0.0
 10
6.645907685317638
 20
-21.20194555365879
 30
0.0
 10
6.656606200193664
 20
-21.1879985833209
 30
0.0
 10
6.667809683867631
 20
-21.17561460476668
 30
0.0
 10
6.711959694795154
 20
-21.12870734459568
 30
0.0
 10
6.761501456866767
 20
-21.08049192893668
 30
0.0
 10
6.930009718349879
 20
-20.91810054297184
 30
0.0
 10
7.12806453963617
 20
-20.73320837892061
 30
0.0
 10
7.37381278214616
 20
-20.49828697328701
 30
0.0
  0
SPLINE
  5
83
330
2
100
AcDbEntity
  8
GEB-VERDECKT
 48
25.0
100
AcDbSpline
210
0.0
220
0.0
230
1.0
 70
     8
 71
     3
 72
    16
 73
    12
 74
     0
 42
0.0000000001
 43
0.0000000001
 40
2.312980959658881
 40
2.312980959658881
 40
2.312980959658881
 40
2.312980959658881
 40
2.424023217695509
 40
2.424023217695509
 40
2.775165182250087
 40
2.775165182250087
 40
3.380209907883786
 40
3.380209907883786
 40
4.090837416909342
 40
4.090837416909342
 40
4.620656223541622
 40
4.620656223541622
 40
4.620656223541622
 40
4.620656223541622
 10
16.50999391091614
 20
0.0
 30
0.0
 10
16.50999391091614
 20
-0.371584003897965
 30
0.0
 10
16.5027194609637
 20
-0.7431978420178212
 30
0.0
 10
16.44214213969451
 20
-2.289113322379648
 30
0.0
 10
16.32343745391631
 20
-3.459345214385848
 30
0.0
 10
15.80356689925804
 20
-6.614733065850941
 30
0.0
 10
15.26192811156886
 20
-8.5675825801286
 30
0.0
 10
13.63628603149436
 20
-12.6413100578402
 30
0.0
 10
12.48121465353222
 20
-14.71432335132556
 30
0.0
 10
10.01869589530372
 20
-18.01933411710331
 30
0.0
 10
8.831038086634748
 20
-19.32257965701865
 30
0.0
 10
7.52127051704133
 20
-20.49828697328701
 30
0.0
  0
SPLINE
  5
84
330
2
100
AcDbEntity
  8
GEB-VERDECKT
 48
25.0
100
AcDbSpline
210
0.0
220
0.0
230
1.0
 70
     8
 71
     3
 72
    14
 73
    10
 74
     0
 42
0.0000000001
 43
0.0000000001
 40
0.0018294068385474
 40
0.0018294068385474
 40
0.0018294068385474
 40
0.0018294068385474
 40
0.9897152215128153
 40
0.9897152215128153
 40
1.726746399294245
 40
1.726746399294245
 40
2.11519349702344
 40
2.11519349702344
 40
2.312980959658881
 40
2.312980959658881
 40
2.312980959658881
 40
2.312980959658881
 10
7.521270517041216
 20
20.49828697328712
 30
0.0
 10
9.957369540340096
 20
18.31153299392588
 30
0.0
 10
11.96262633261858
 20
15.69256066774778
 30
0.0
 10
14.5765270947154
 20
10.58032046045434
 30
0.0
 10
15.39627960936161
 20
8.251184759576176
 30
0.0
 10
16.17072055033929
 20
4.569624609901666
 30
0.0
 10
16.35012622876104
 20
3.280964793173438
 30
0.0
 10
16.48691653391438
 20
1.32362946021567
 30
0.0
 10
16.50999391091614
 20
0.6618620567194285
 30
0.0
 10
16.50999391091614
 20
0.0
 30
0.0
  0
SPLINE
  5
85
330
2
100
AcDbEntity
  8
GEB-KONTUR-A
 48
25.0
100
AcDbSpline
210
0.0
220
0.0
230
1.0
 70
     8
 71
     3
 72
    14
 73
    10
 74
     0
 42
0.0000000001
 43
0.0000000001
 40
2.59579035434162
 40
2.59579035434162
 40
2.59579035434162
 40
2.59579035434162
 40
2.752759471321138
 40
2.752759471321138
 40
3.072967000280991
 40
3.072967000280991
 40
3.393242310866332
 40
3.393242310866332
 40
3.687394952837967
 40
3.687394952837967
 40
3.687394952837967
 40
3.687394952837967
 10
16.39135075613296
 20
12.84345702240193
 30
0.0
 10
17.04061802194144
 20
11.73671933341404
 30
0.0
 10
17.60574318639953
 20
10.57723700698409
 30
0.0
 10
19.04694306645365
 20
6.935375874512828
 30
0.0
 10
19.63262587345696
 20
4.330677461379991
 30
0.0
 10
19.98245349944056
 20
-0.9384816805235232
 30
0.0
 10
19.74636582262076
 20
-3.602056490459176
 30
0.0
 10
18.52763563896815
 20
-8.509574697667062
 30
0.0
 10
17.60804665949445
 20
-10.76948335516215
 30
0.0
 10
16.39135075613296
 20
-12.84345702240182
 30
0.0
  0
SPLINE
  5
87
330
2
100
AcDbEntity
  8
GEB-KONTUR-A
 48
25.0
100
AcDbSpline
210
0.0
220
0.0
230
1.0
 70
     8
 71
     3
 72
    18
 73
    14
 74
     0
 42
0.0000000001
 43
0.0000000001
 40
2.271769151520803
 40
2.271769151520803
 40
2.271769151520803
 40
2.271769151520803
 40
2.432700899026462
 40
2.432700899026462
 40
2.752759471321138
 40
2.752759471321138
 40
3.072967000280991
 40
3.072967000280991
 40
3.393242310866332
 40
3.393242310866332
 40
3.713490157182102
 40
3.713490157182102
 40
4.011416155658783
 40
4.011416155658783
 40
4.011416155658783
 40
4.011416155658783
 10
12.99389920860346
 20
18.91060325767887
 30
0.0
 10
13.97430142456585
 20
18.05400214643055
 30
0.0
 10
14.88785704707061
 20
17.115662737962
 30
0.0
 10
17.38337349344942
 20
14.10314150098156
 30
0.0
 10
18.73078885905647
 20
11.82195246714445
 30
0.0
 10
20.66456209834439
 20
6.935375874512828
 30
0.0
 10
21.2502449053477
 20
4.330677461379991
 30
0.0
 10
21.60007253133131
 20
-0.9384816805235232
 30
0.0
 10
21.36398485451173
 20
-3.602056490459176
 30
0.0
 10
20.09349430896373
 20
-8.718000583740035
 30
0.0
 10
19.05936848655926
 20
-11.16951231681992
 30
0.0
 10
16.39336787738512
 20
-15.45763736443757
 30
0.0
 10
14.80887551766943
 20
-17.32481459061694
 30
0.0
 10
12.99389920860346
 20
-18.91060325767876
 30
0.0
  0
SPLINE
  5
88
330
2
100
AcDbEntity
  8
GEB-KONTUR-A
 48
25.0
100
AcDbSpline
210
0.0
220
0.0
230
1.0
 70
     8
 71
     3
 72
    20
 73
    16
 74
     0
 42
0.0000000001
 43
0.0000000001
 40
2.112828437278961
 40
2.112828437278961
 40
2.112828437278961
 40
2.112828437278961
 40
2.432700899026464
 40
2.432700899026464
 40
2.752759471321139
 40
2.752759471321139
 40
3.072967000280991
 40
3.072967000280991
 40
3.393242310866333
 40
3.393242310866333
 40
3.713490157182103
 40
3.713490157182103
 40
4.033620468687283
 40
4.033620468687283
 40
4.170356869900624
 40
4.170356869900624
 40
4.170356869900624
 40
4.170356869900624
 10
11.52415129202609
 20
21.1996981202476
 30
0.0
 10
13.70903610671371
 20
19.83755697243805
 30
0.0
 10
15.68084583161169
 20
18.1111344914749
 30
0.0
 10
19.00099252534016
 20
14.10314150098156
 30
0.0
 10
20.3484078909471
 20
11.82195246714445
 30
0.0
 10
22.28218113023536
 20
6.935375874512828
 30
0.0
 10
22.86786393723844
 20
4.330677461379991
 30
0.0
 10
23.21769156322205
 20
-0.9384816805236368
 30
0.0
 10
22.98160388640235
 20
-3.60205649045929
 30
0.0
 10
21.71111334085458
 20
-8.718000583740035
 30
0.0
 10
20.67698751845
 20
-11.16951231681992
 30
0.0
 10
17.91522628698658
 20
-15.6116634068926
 30
0.0
 10
16.18830556092791
 20
-17.60169884789479
 30
0.0
 10
13.35350107822307
 20
-19.96899107911668
 30
0.0
 10
12.45812755554675
 20
-20.61742142947332
 30
0.0
 10
11.52415129202609
 20
-21.19969812024738
 30
0.0
  0
SPLINE
  5
89
330
2
100
AcDbEntity
  8
GEB-KONTUR-A
 48
25.0
100
AcDbSpline
210
0.0
220
0.0
230
1.0
 70
     8
 71
     3
 72
    20
 73
    16
 74
     0
 42
0.0000000001
 43
0.0000000001
 40
0.0000391708387167
 40
0.0000391708387167
 40
0.0000391708387167
 40
0.0000391708387167
 40
0.1016282074330707
 40
0.1016282074330707
 40
0.1434540828536505
 40
0.1434540828536505
 40
0.1521422978078362
 40
0.1521422978078362
 40
0.1572052970494271
 40
0.1572052970494271
 40
0.1610294660458171
 40
0.1610294660458171
 40
0.1649082037603628
 40
0.1649082037603628
 40
0.1695887269130667
 40
0.1695887269130667
 40
0.1695887269130667
 40
0.1695887269130667
 10
12.22666987781838
 20
20.49828697328712
 30
0.0
 10
11.99145762328828
 20
20.72313657095708
 30
0.0
 10
11.79990662506509
 20
20.9021691059238
 30
0.0
 10
11.61889780297986
 20
21.07595962341031
 30
0.0
 10
11.54969509122554
 20
21.14291605058361
 30
0.0
 10
11.50821651601382
 20
21.18979636417885
 30
0.0
 10
11.50140272858323
 20
21.19799303938726
 30
0.0
 10
11.49531675348316
 20
21.2074758724649
 30
0.0
 10
11.49398905475902
 20
21.21036537074724
 30
0.0
 10
11.49469739195888
 20
21.21311556308319
 30
0.0
 10
11.49597590262192
 20
21.21349177715092
 30
0.0
 10
11.50069609634124
 20
21.21246240068138
 30
0.0
 10
11.50401407288416
 20
21.21106488464852
 30
0.0
 10
11.51269410745226
 20
21.20663600834018
 30
0.0
 10
11.51830924151909
 20
21.20334019600205
 30
0.0
 10
11.52415128869006
 20
21.19969810059001
 30
0.0
  0
SPLINE
  5
8A
330
2
100
AcDbEntity
  8
GEB-KONTUR-A
 48
25.0
100
AcDbSpline
210
0.0
220
0.0
230
1.0
 70
     8
 71
     3
 72
    10
 73
     6
 74
     0
 42
0.0000000001
 43
0.0000000001
 40
3.795179735441177
 40
3.795179735441177
 40
3.795179735441177
 40
3.795179735441177
 40
4.090837416909611
 40
4.090837416909611
 40
4.620656223541957
 40
4.620656223541957
 40
4.620656223541957
 40
4.620656223541957
 10
17.18354793779713
 20
14.15495683698918
 30
0.0
 10
16.69905037671788
 20
15.00112034698827
 30
0.0
 10
16.17234108888647
 20
15.81995745272752
 30
0.0
 10
14.59173417951365
 20
18.01933411710354
 30
0.0
 10
13.45656208751165
 20
19.32257965701888
 30
0.0
 10
12.22666987781838
 20
20.49828697328712
 30
0.0
  0
SPLINE
  5
8B
330
2
100
AcDbEntity
  8
GEB-KONTUR-A
 48
25.0
100
AcDbSpline
210
0.0
220
0.0
230
1.0
 70
     8
 71
     3
 72
     8
 73
     4
 74
     0
 42
0.0000000001
 43
0.0000000001
 40
0.0018294068385545
 40
0.0018294068385545
 40
0.0018294068385545
 40
0.0018294068385545
 40
0.8305933058681134
 40
0.8305933058681134
 40
0.8305933058681134
 40
0.8305933058681134
 10
12.22666987781838
 20
-20.49828697328701
 30
0.0
 10
14.14574436137695
 20
-18.66376042453658
 30
0.0
 10
15.82580777129362
 20
-16.5250393816666
 30
0.0
 10
17.18345924174878
 20
-14.15494462681204
 30
0.0
  0
SPLINE
  5
8C
330
2
100
AcDbEntity
  8
GEB-KONTUR-A
 48
25.0
100
AcDbSpline
210
0.0
220
0.0
230
1.0
 70
     8
 71
     3
 72
    22
 73
    18
 74
     0
 42
0.0000000001
 43
0.0000000001
 40
0.1502152422215633
 40
0.1502152422215633
 40
0.1502152422215633
 40
0.1502152422215633
 40
0.152142297807936
 40
0.152142297807936
 40
0.1572052970494689
 40
0.1572052970494689
 40
0.1610294660458868
 40
0.1610294660458868
 40
0.1649082037604993
 40
0.1649082037604993
 40
0.1705527000665835
 40
0.1705527000665835
 40
0.1822588238150118
 40
0.1822588238150118
 40
0.2179307321728096
 40
0.2179307321728096
 40
0.3305226454616223
 40
0.3305226454616223
 40
0.3305226454616223
 40
0.3305226454616223
 10
11.52415140797507
 20
-21.19969778670929
 30
0.0
 10
11.52171292270009
 20
-21.20121814527897
 30
0.0
 10
11.51935034308985
 20
-21.2026555328066
 30
0.0
 10
11.51116801683145
 20
-21.20747587246467
 30
0.0
 10
11.50573125790754
 20
-21.21036537074713
 30
0.0
 10
11.49858358921574
 20
-21.21311556308308
 30
0.0
 10
11.4964239107793
 20
-21.21349177715081
 30
0.0
 10
11.49411420498291
 20
-21.21246240068115
 30
0.0
 10
11.4940688361512
 20
-21.21106488464841
 30
0.0
 10
11.49594507350127
 20
-21.20613721318375
 30
0.0
 10
11.49876478099008
 20
-21.20194555365879
 30
0.0
 10
11.509463295866
 20
-21.1879985833209
 30
0.0
 10
11.52066677954008
 20
-21.17561460476657
 30
0.0
 10
11.56481679046749
 20
-21.12870734459568
 30
0.0
 10
11.61435855253899
 20
-21.08049192893668
 30
0.0
 10
11.7828668140221
 20
-20.91810054297196
 30
0.0
 10
11.9809216353085
 20
-20.73320837892061
 30
0.0
 10
12.22666987781838
 20
-20.49828697328701
 30
0.0
  0
SPLINE
  5
8D
330
2
100
AcDbEntity
  8
GEB-VERDECKT
 48
25.0
100
AcDbSpline
210
0.0
220
0.0
230
1.0
 70
     8
 71
     3
 72
    20
 73
    16
 74
     0
 42
0.0000000001
 43
0.0000000001
 40
5.254421090868754
 40
5.254421090868754
 40
5.254421090868754
 40
5.254421090868754
 40
5.574293552616257
 40
5.574293552616257
 40
5.894352124910933
 40
5.894352124910933
 40
6.214559653870785
 40
6.214559653870785
 40
6.534834964456126
 40
6.534834964456126
 40
6.855082810771897
 40
6.855082810771897
 40
7.175213122277076
 40
7.175213122277076
 40
7.311949523490418
 40
7.311949523490418
 40
7.311949523490418
 40
7.311949523490418
 10
-25.57371826069334
 20
-21.19969812024738
 30
0.0
 10
-27.75860307538096
 20
-19.83755697243782
 30
0.0
 10
-29.73041280027883
 20
-18.11113449147478
 30
0.0
 10
-33.05055949400742
 20
-14.10314150098133
 30
0.0
 10
-34.39797485961435
 20
-11.82195246714434
 30
0.0
 10
-36.33174809890249
 20
-6.935375874512715
 30
0.0
 10
-36.91743090590558
 20
-4.330677461379877
 30
0.0
 10
-37.26725853188919
 20
0.9384816805238642
 30
0.0
 10
-37.0311708550696
 20
3.602056490459403
 30
0.0
 10
-35.76068030952172
 20
8.718000583740149
 30
0.0
 10
-34.72655448711726
 20
11.16951231682003
 30
0.0
 10
-31.96479325565383
 20
15.61166340689271
 30
0.0
 10
-30.23787252959505
 20
17.60169884789502
 30
0.0
 10
-27.40306804689021
 20
19.96899107911679
 30
0.0
 10
-26.50769452421389
 20
20.61742142947344
 30
0.0
 10
-25.57371826069334
 20
21.1996981202476
 30
0.0
  0
SPLINE
  5
8E
330
2
100
AcDbEntity
  8
GEB-VERDECKT
 48
25.0
100
AcDbSpline
210
0.0
220
0.0
230
1.0
 70
     8
 71
     3
 72
    20
 73
    16
 74
     0
 42
0.0000000001
 43
0.0000000001
 40
5.254421090868754
 40
5.254421090868754
 40
5.254421090868754
 40
5.254421090868754
 40
5.574293552616257
 40
5.574293552616257
 40
5.894352124910933
 40
5.894352124910933
 40
6.214559653870785
 40
6.214559653870785
 40
6.534834964456126
 40
6.534834964456126
 40
6.855082810771897
 40
6.855082810771897
 40
7.175213122277076
 40
7.175213122277076
 40
7.311949523490418
 40
7.311949523490418
 40
7.311949523490418
 40
7.311949523490418
 10
-23.95609922880248
 20
-21.19969812024738
 30
0.0
 10
-26.14098404349022
 20
-19.83755697243782
 30
0.0
 10
-28.11279376838809
 20
-18.11113449147478
 30
0.0
 10
-31.43294046211668
 20
-14.10314150098133
 30
0.0
 10
-32.78035582772361
 20
-11.82195246714434
 30
0.0
 10
-34.71412906701164
 20
-6.935375874512715
 30
0.0
 10
-35.29981187401495
 20
-4.330677461379877
 30
0.0
 10
-35.64963949999856
 20
0.9384816805238642
 30
0.0
 10
-35.41355182317875
 20
3.602056490459403
 30
0.0
 10
-34.14306127763098
 20
8.718000583740149
 30
0.0
 10
-33.1089354552264
 20
11.16951231682003
 30
0.0
 10
-30.34717422376298
 20
15.61166340689271
 30
0.0
 10
-28.62025349770431
 20
17.60169884789502
 30
0.0
 10
-25.78544901499936
 20
19.96899107911679
 30
0.0
 10
-24.89007549232315
 20
20.61742142947344
 30
0.0
 10
-23.95609922880248
 20
21.1996981202476
 30
0.0
  0
SPLINE
  5
8F
330
2
100
AcDbEntity
  8
GEB-VERDECKT
 48
25.0
100
AcDbSpline
210
0.0
220
0.0
230
1.0
 70
     8
 71
     3
 72
    20
 73
    16
 74
     0
 42
0.0000000001
 43
0.0000000001
 40
5.254421090868754
 40
5.254421090868754
 40
5.254421090868754
 40
5.254421090868754
 40
5.574293552616256
 40
5.574293552616256
 40
5.894352124910932
 40
5.894352124910932
 40
6.214559653870784
 40
6.214559653870784
 40
6.534834964456125
 40
6.534834964456125
 40
6.855082810771896
 40
6.855082810771896
 40
7.175213122277074
 40
7.175213122277074
 40
7.311949523490417
 40
7.311949523490417
 40
7.311949523490417
 40
7.311949523490417
 10
-22.33848019691163
 20
-21.19969812024738
 30
0.0
 10
-24.52336501159948
 20
-19.83755697243782
 30
0.0
 10
-26.49517473649735
 20
-18.11113449147478
 30
0.0
 10
-29.81532143022594
 20
-14.10314150098133
 30
0.0
 10
-31.16273679583276
 20
-11.82195246714434
 30
0.0
 10
-33.0965100351209
 20
-6.935375874512715
 30
0.0
 10
-33.68219284212398
 20
-4.330677461379877
 30
0.0
 10
-34.03202046810759
 20
0.9384816805236368
 30
0.0
 10
-33.79593279128801
 20
3.60205649045929
 30
0.0
 10
-32.52544224574024
 20
8.718000583740149
 30
0.0
 10
-31.49131642333578
 20
11.16951231682003
 30
0.0
 10
-28.72955519187235
 20
15.61166340689271
 30
0.0
 10
-27.00263446581357
 20
17.60169884789502
 30
0.0
 10
-24.16782998310862
 20
19.96899107911679
 30
0.0
 10
-23.27245646043241
 20
20.61742142947344
 30
0.0
 10
-22.33848019691186
 20
21.1996981202476
 30
0.0
  0
SPLINE
  5
90
330
2
100
AcDbEntity
  8
GEB-VERDECKT
 48
25.0
100
AcDbSpline
210
0.0
220
0.0
230
1.0
 70
     8
 71
     3
 72
    12
 73
     8
 74
     0
 42
0.0000000001
 43
0.0000000001
 40
3.687394952837967
 40
3.687394952837967
 40
3.687394952837967
 40
3.687394952837967
 40
3.713490157182102
 40
3.713490157182102
 40
4.033620468687281
 40
4.033620468687281
 40
4.170356869900624
 40
4.170356869900624
 40
4.170356869900624
 40
4.170356869900624
 10
16.39135075613296
 20
-12.84345702240182
 30
0.0
 10
16.28341384280088
 20
-13.02744573754035
 30
0.0
 10
16.17315627607831
 20
-13.20997928656845
 30
0.0
 10
14.6799882232051
 20
-15.6116634068926
 30
0.0
 10
12.95306749714643
 20
-17.60169884789479
 30
0.0
 10
10.11826301444159
 20
-19.96899107911668
 30
0.0
 10
9.222889491765158
 20
-20.61742142947332
 30
0.0
 10
8.288913228244609
 20
-21.19969812024738
 30
0.0
  0
SPLINE
  5
91
330
2
100
AcDbEntity
  8
GEB-VERDECKT
 48
25.0
100
AcDbSpline
210
0.0
220
0.0
230
1.0
 70
     8
 71
     3
 72
    10
 73
     6
 74
     0
 42
0.0000000001
 43
0.0000000001
 40
2.11282843727896
 40
2.11282843727896
 40
2.11282843727896
 40
2.11282843727896
 40
2.432700899026462
 40
2.432700899026462
 40
2.59579035434162
 40
2.59579035434162
 40
2.59579035434162
 40
2.59579035434162
 10
8.288913228244496
 20
21.1996981202476
 30
0.0
 10
10.47379804293223
 20
19.83755697243805
 30
0.0
 10
12.44560776783021
 20
18.1111344914749
 30
0.0
 10
14.95135342920821
 20
15.0862648175738
 30
0.0
 10
15.71676809444625
 20
13.99334720683464
 30
0.0
 10
16.39135075613296
 20
12.84345702240193
 30
0.0
  0
SPLINE
  5
92
330
2
100
AcDbEntity
  8
GEB-VERDECKT
 48
25.0
100
AcDbSpline
210
0.0
220
0.0
230
1.0
 70
     8
 71
     3
 72
    10
 73
     6
 74
     0
 42
0.0000000001
 43
0.0000000001
 40
4.011416155658783
 40
4.011416155658783
 40
4.011416155658783
 40
4.011416155658783
 40
4.033620468687281
 40
4.033620468687281
 40
4.170356869900625
 40
4.170356869900625
 40
4.170356869900625
 40
4.170356869900625
 10
12.99389920860346
 20
-18.91060325767876
 30
0.0
 10
12.85862970439154
 20
-19.02879149281284
 30
0.0
 10
12.72209057646591
 20
-19.14542677124507
 30
0.0
 10
11.73588204633233
 20
-19.96899107911668
 30
0.0
 10
10.8405085236559
 20
-20.61742142947332
 30
0.0
 10
9.90653226013535
 20
-21.19969812024738
 30
0.0
  0
SPLINE
  5
93
330
2
100
AcDbEntity
  8
GEB-VERDECKT
 48
25.0
100
AcDbSpline
210
0.0
220
0.0
230
1.0
 70
     8
 71
     3
 72
     8
 73
     4
 74
     0
 42
0.0000000001
 43
0.0000000001
 40
2.11282843727896
 40
2.11282843727896
 40
2.11282843727896
 40
2.11282843727896
 40
2.271769151520803
 40
2.271769151520803
 40
2.271769151520803
 40
2.271769151520803
 10
9.906532260135236
 20
21.1996981202476
 30
0.0
 10
10.99217480368361
 20
20.52286684271814
 30
0.0
 10
12.02562644164141
 20
19.75660657618141
 30
0.0
 10
12.99389920860346
 20
18.91060325767887
 30
0.0
  0
SPLINE
  5
94
330
2
100
AcDbEntity
  8
GEB-VERDECKT
 48
25.0
100
AcDbSpline
210
0.0
220
0.0
230
1.0
 70
     8
 71
     3
 72
    26
 73
    22
 74
     0
 42
0.0000000001
 43
0.0000000001
 40
0.0000391708387167
 40
0.0000391708387167
 40
0.0000391708387167
 40
0.0000391708387167
 40
0.1016282074330973
 40
0.1016282074330973
 40
0.1434540828537043
 40
0.1434540828537043
 40
0.1521422978079363
 40
0.1521422978079363
 40
0.1572052970495332
 40
0.1572052970495332
 40
0.1610294660460271
 40
0.1610294660460271
 40
0.1649082037606905
 40
0.1649082037606905
 40
0.1705527000667428
 40
0.1705527000667428
 40
0.1822588238151061
 40
0.1822588238151061
 40
0.217930732172669
 40
0.217930732172669
 40
0.3305226454609476
 40
0.3305226454609476
 40
0.3305226454609476
 40
0.3305226454609476
 10
8.9914318140369
 20
20.49828697328712
 30
0.0
 10
8.756219559506689
 20
20.72313657095708
 30
0.0
 10
8.564668561283497
 20
20.9021691059238
 30
0.0
 10
8.383659739198378
 20
21.07595962341031
 30
0.0
 10
8.314457027444063
 20
21.14291605058361
 30
0.0
 10
8.272978452232337
 20
21.18979636417885
 30
0.0
 10
8.266164664801749
 20
21.19799303938726
 30
0.0
 10
8.260078689701458
 20
21.2074758724649
 30
0.0
 10
8.258750990977546
 20
21.21036537074724
 30
0.0
 10
8.259459328177285
 20
21.21311556308319
 30
0.0
 10
8.260737838840441
 20
21.21349177715092
 30
0.0
 10
8.265458032559763
 20
21.21246240068138
 30
0.0
 10
8.268776009102566
 20
21.21106488464864
 30
0.0
 10
8.278433618770122
 20
21.20613721318398
 30
0.0
 10
8.285420940148696
 20
21.2019455536589
 30
0.0
 10
8.307322898697407
 20
21.18799858332113
 30
0.0
 10
8.32502016733531
 20
21.17561460476668
 30
0.0
 10
8.39008995102165
 20
21.12870734459602
 30
0.0
 10
8.45207924680426
 20
21.08049192893679
 30
0.0
 10
8.656380592386767
 20
20.91810054297207
 30
0.0
 10
8.87718118474595
 20
20.73320837892072
 30
0.0
 10
9.13888954893207
 20
20.49828697328712
 30
0.0
  0
SPLINE
  5
95
330
2
100
AcDbEntity
  8
GEB-VERDECKT
 48
25.0
100
AcDbSpline
210
0.0
220
0.0
230
1.0
 70
     8
 71
     3
 72
    16
 73
    12
 74
     0
 42
0.0000000001
 43
0.0000000001
 40
2.312980959658907
 40
2.312980959658907
 40
2.312980959658907
 40
2.312980959658907
 40
2.42402321769556
 40
2.42402321769556
 40
2.775165182250182
 40
2.775165182250182
 40
3.380209907883975
 40
3.380209907883975
 40
4.090837416909607
 40
4.090837416909607
 40
4.620656223541953
 40
4.620656223541953
 40
4.620656223541953
 40
4.620656223541953
 10
17.71350247064288
 20
0.0
 30
0.0
 10
17.71350247064288
 20
0.3715840038980787
 30
0.0
 10
17.70622747876064
 20
0.7431978420181622
 30
0.0
 10
17.64565918067444
 20
2.289113322379876
 30
0.0
 10
17.52694154759297
 20
3.459345214386075
 30
0.0
 10
17.00840126111529
 20
6.614733065851282
 30
0.0
 10
16.46886078155694
 20
8.567582580129055
 30
0.0
 10
14.86469950783669
 20
12.64131005784054
 30
0.0
 10
13.73167947406864
 20
14.7143233513259
 30
0.0
 10
11.35649611573217
 20
18.01933411710354
 30
0.0
 10
10.22132402373017
 20
19.32257965701888
 30
0.0
 10
8.9914318140369
 20
20.49828697328712
 30
0.0
  0
SPLINE
  5
96
330
2
100
AcDbEntity
  8
GEB-VERDECKT
 48
25.0
100
AcDbSpline
210
0.0
220
0.0
230
1.0
 70
     8
 71
     3
 72
    14
 73
    10
 74
     0
 42
0.0000000001
 43
0.0000000001
 40
0.0018294068385545
 40
0.0018294068385545
 40
0.0018294068385545
 40
0.0018294068385545
 40
0.9897152215128217
 40
0.9897152215128217
 40
1.726746399294263
 40
1.726746399294263
 40
2.115193497023462
 40
2.115193497023462
 40
2.312980959658907
 40
2.312980959658907
 40
2.312980959658907
 40
2.312980959658907
 10
8.9914318140369
 20
-20.49828697328701
 30
0.0
 10
11.27896685487383
 20
-18.31153299392576
 30
0.0
 10
13.22690018326261
 20
-15.69256066774755
 30
0.0
 10
15.78852059575513
 20
-10.58032046045423
 30
0.0
 10
16.60311175008462
 20
-8.251184759576062
 30
0.0
 10
17.37438092049444
 20
-4.569624609901325
 30
0.0
 10
17.55369391185638
 20
-3.280964793173211
 30
0.0
 10
17.69041965577048
 20
-1.323629460215443
 30
0.0
 10
17.71350247064288
 20
-0.6618620567193148
 30
0.0
 10
17.71350247064288
 20
0.0
 30
0.0
  0
SPLINE
  5
97
330
2
100
AcDbEntity
  8
GEB-VERDECKT
 48
25.0
100
AcDbSpline
210
0.0
220
0.0
230
1.0
 70
     8
 71
     3
 72
    26
 73
    22
 74
     0
 42
0.0000000001
 43
0.0000000001
 40
0.0000391708387108
 40
0.0000391708387108
 40
0.0000391708387108
 40
0.0000391708387108
 40
0.1016282074331349
 40
0.1016282074331349
 40
0.1434540828540005
 40
0.1434540828540005
 40
0.1521422978083581
 40
0.1521422978083581
 40
0.1572052970500164
 40
0.1572052970500164
 40
0.1610294660465477
 40
0.1610294660465477
 40
0.1649082037612755
 40
0.1649082037612755
 40
0.1705527000675295
 40
0.1705527000675295
 40
0.182258823816304
 40
0.182258823816304
 40
0.2179307321748727
 40
0.2179307321748727
 40
0.3305226454664493
 40
0.3305226454664493
 40
0.3305226454664493
 40
0.3305226454664493
 10
9.13888954893207
 20
-20.49828697328701
 30
0.0
 10
8.888401432553564
 20
-20.72313657095719
 30
0.0
 10
8.675358787311438
 20
-20.90216910592369
 30
0.0
 10
8.458125788234838
 20
-21.07595962341043
 30
0.0
 10
8.372271280698555
 20
-21.14291605058361
 30
0.0
 10
8.304368380737287
 20
-21.18979636417873
 30
0.0
 10
8.292026668135804
 20
-21.19799303938714
 30
0.0
 10
8.275929953049626
 20
-21.20747587246467
 30
0.0
 10
8.270493194126061
 20
-21.21036537074713
 30
0.0
 10
8.26334552543426
 20
-21.21311556308308
 30
0.0
 10
8.261185846997818
 20
-21.21349177715081
 30
0.0
 10
8.258876141201312
 20
-21.21246240068115
 30
0.0
 10
8.258830772369492
 20
-21.21106488464841
 30
0.0
 10
8.260707009719681
 20
-21.20613721318375
 30
0.0
 10
8.263526717208378
 20
-21.20194555365879
 30
0.0
 10
8.274225232084404
 20
-21.1879985833209
 30
0.0
 10
8.285428715758371
 20
-21.17561460476668
 30
0.0
 10
8.329578726685895
 20
-21.12870734459568
 30
0.0
 10
8.379120488757507
 20
-21.08049192893668
 30
0.0
 10
8.547628750240619
 20
-20.91810054297184
 30
0.0
 10
8.745683571527024
 20
-20.73320837892061
 30
0.0
 10
8.9914318140369
 20
-20.49828697328701
 30
0.0
  0
SPLINE
  5
98
330
2
100
AcDbEntity
  8
GEB-VERDECKT
 48
25.0
100
AcDbSpline
210
0.0
220
0.0
230
1.0
 70
     8
 71
     3
 72
    16
 73
    12
 74
     0
 42
0.0000000001
 43
0.0000000001
 40
2.312980959658903
 40
2.312980959658903
 40
2.312980959658903
 40
2.312980959658903
 40
2.424023217695532
 40
2.424023217695532
 40
2.775165182250115
 40
2.775165182250115
 40
3.380209907883823
 40
3.380209907883823
 40
4.090837416909387
 40
4.090837416909387
 40
4.620656223541676
 40
4.620656223541676
 40
4.620656223541676
 40
4.620656223541676
 10
18.12761294280699
 20
0.0
 30
0.0
 10
18.12761294280699
 20
-0.371584003897965
 30
0.0
 10
18.12033849285444
 20
-0.7431978420178212
 30
0.0
 10
18.05976117158525
 20
-2.289113322379648
 30
0.0
 10
17.94105648580728
 20
-3.459345214385848
 30
0.0
 10
17.42118593114878
 20
-6.614733065850941
 30
0.0
 10
16.8795471434596
 20
-8.5675825801286
 30
0.0
 10
15.2539050633851
 20
-12.6413100578402
 30
0.0
 10
14.09883368542296
 20
-14.71432335132556
 30
0.0
 10
11.63631492719446
 20
-18.01933411710331
 30
0.0
 10
10.44865711852549
 20
-19.32257965701865
 30
0.0
 10
9.13888954893207
 20
-20.49828697328701
 30
0.0
  0
SPLINE
  5
99
330
2
100
AcDbEntity
  8
GEB-VERDECKT
 48
25.0
100
AcDbSpline
210
0.0
220
0.0
230
1.0
 70
     8
 71
     3
 72
    14
 73
    10
 74
     0
 42
0.0000000001
 43
0.0000000001
 40
0.0018294068385468
 40
0.0018294068385468
 40
0.0018294068385468
 40
0.0018294068385468
 40
0.9897152215128192
 40
0.9897152215128192
 40
1.726746399294259
 40
1.726746399294259
 40
2.115193497023459
 40
2.115193497023459
 40
2.312980959658903
 40
2.312980959658903
 40
2.312980959658903
 40
2.312980959658903
 10
9.13888954893207
 20
20.49828697328712
 30
0.0
 10
11.57498857223095
 20
18.31153299392588
 30
0.0
 10
13.58024536450921
 20
15.69256066774755
 30
0.0
 10
16.19414612660625
 20
10.58032046045434
 30
0.0
 10
17.01389864125246
 20
8.251184759576176
 30
0.0
 10
17.78833958223003
 20
4.569624609901666
 30
0.0
 10
17.96774526065189
 20
3.280964793173438
 30
0.0
 10
18.10453556580512
 20
1.32362946021567
 30
0.0
 10
18.12761294280699
 20
0.6618620567194285
 30
0.0
 10
18.12761294280699
 20
0.0
 30
0.0
  0
SPLINE
  5
9A
330
2
100
AcDbEntity
  8
GEB-VERDECKT
 48
25.0
100
AcDbSpline
210
0.0
220
0.0
230
1.0
 70
     8
 71
     3
 72
    26
 73
    22
 74
     0
 42
0.0000000001
 43
0.0000000001
 40
0.0000391708387167
 40
0.0000391708387167
 40
0.0000391708387167
 40
0.0000391708387167
 40
0.1016282074330973
 40
0.1016282074330973
 40
0.1434540828537043
 40
0.1434540828537043
 40
0.1521422978079363
 40
0.1521422978079363
 40
0.1572052970495362
 40
0.1572052970495362
 40
0.1610294660460307
 40
0.1610294660460307
 40
0.1649082037606946
 40
0.1649082037606946
 40
0.1705527000667464
 40
0.1705527000667464
 40
0.1822588238150914
 40
0.1822588238150914
 40
0.2179307321725725
 40
0.2179307321725725
 40
0.3305226454607936
 40
0.3305226454607936
 40
0.3305226454607936
 40
0.3305226454607936
 10
10.60905084592764
 20
20.49828697328712
 30
0.0
 10
10.37383859139754
 20
20.72313657095708
 30
0.0
 10
10.18228759317423
 20
20.9021691059238
 30
0.0
 10
10.00127877108912
 20
21.07595962341031
 30
0.0
 10
9.932076059334804
 20
21.14291605058361
 30
0.0
 10
9.890597484122963
 20
21.18979636417885
 30
0.0
 10
9.883783696692489
 20
21.19799303938726
 30
0.0
 10
9.877697721592426
 20
21.2074758724649
 30
0.0
 10
9.876370022868286
 20
21.21036537074724
 30
0.0
 10
9.877078360068253
 20
21.21311556308319
 30
0.0
 10
9.878356870731295
 20
21.21349177715092
 30
0.0
 10
9.883077064450617
 20
21.21246240068138
 30
0.0
 10
9.886395040993193
 20
21.21106488464864
 30
0.0
 10
9.896052650660976
 20
21.20613721318398
 30
0.0
 10
9.903039972039323
 20
21.2019455536589
 30
0.0
 10
9.924941930588374
 20
21.18799858332113
 30
0.0
 10
9.94263919922605
 20
21.17561460476691
 30
0.0
 10
10.00770898291239
 20
21.1287073445958
 30
0.0
 10
10.06969827869511
 20
21.08049192893668
 30
0.0
 10
10.27399962427739
 20
20.91810054297218
 30
0.0
 10
10.49480021663635
 20
20.73320837892106
 30
0.0
 10
10.75650858082281
 20
20.49828697328712
 30
0.0
  0
SPLINE
  5
9B
330
2
100
AcDbEntity
  8
GEB-VERDECKT
 48
25.0
100
AcDbSpline
210
0.0
220
0.0
230
1.0
 70
     8
 71
     3
 72
    16
 73
    12
 74
     0
 42
0.0000000001
 43
0.0000000001
 40
2.312980959658907
 40
2.312980959658907
 40
2.312980959658907
 40
2.312980959658907
 40
2.42402321769556
 40
2.42402321769556
 40
2.775165182250182
 40
2.775165182250182
 40
3.380209907883975
 40
3.380209907883975
 40
4.090837416909607
 40
4.090837416909607
 40
4.620656223541953
 40
4.620656223541953
 40
4.620656223541953
 40
4.620656223541953
 10
19.33112150253373
 20
0.0
 30
0.0
 10
19.33112150253373
 20
0.3715840038980787
 30
0.0
 10
19.32384651065138
 20
0.7431978420181622
 30
0.0
 10
19.26327821256541
 20
2.289113322379876
 30
0.0
 10
19.14456057948371
 20
3.459345214386075
 30
0.0
 10
18.62602029300603
 20
6.614733065851282
 30
0.0
 10
18.08647981344779
 20
8.567582580129055
 30
0.0
 10
16.48231853972743
 20
12.64131005784054
 30
0.0
 10
15.34929850595949
 20
14.7143233513259
 30
0.0
 10
12.97411514762291
 20
18.01933411710354
 30
0.0
 10
11.83894305562091
 20
19.32257965701888
 30
0.0
 10
10.60905084592764
 20
20.49828697328712
 30
0.0
  0
SPLINE
  5
9C
330
2
100
AcDbEntity
  8
GEB-VERDECKT
 48
25.0
100
AcDbSpline
210
0.0
220
0.0
230
1.0
 70
     8
 71
     3
 72
    14
 73
    10
 74
     0
 42
0.0000000001
 43
0.0000000001
 40
0.0018294068385545
 40
0.0018294068385545
 40
0.0018294068385545
 40
0.0018294068385545
 40
0.9897152215128217
 40
0.9897152215128217
 40
1.726746399294263
 40
1.726746399294263
 40
2.115193497023462
 40
2.115193497023462
 40
2.312980959658907
 40
2.312980959658907
 40
2.312980959658907
 40
2.312980959658907
 10
10.60905084592764
 20
-20.49828697328701
 30
0.0
 10
12.89658588676457
 20
-18.31153299392576
 30
0.0
 10
14.84451921515324
 20
-15.69256066774755
 30
0.0
 10
17.40613962764598
 20
-10.58032046045423
 30
0.0
 10
18.22073078197536
 20
-8.251184759576062
 30
0.0
 10
18.99199995238518
 20
-4.569624609901325
 30
0.0
 10
19.17131294374712
 20
-3.280964793173211
 30
0.0
 10
19.30803868766122
 20
-1.323629460215443
 30
0.0
 10
19.33112150253373
 20
-0.6618620567193148
 30
0.0
 10
19.33112150253373
 20
0.0
 30
0.0
  0
SPLINE
  5
9D
330
2
100
AcDbEntity
  8
GEB-VERDECKT
 48
25.0
100
AcDbSpline
210
0.0
220
0.0
230
1.0
 70
     8
 71
     3
 72
    26
 73
    22
 74
     0
 42
0.0000000001
 43
0.0000000001
 40
0.0000391708387109
 40
0.0000391708387109
 40
0.0000391708387109
 40
0.0000391708387109
 40
0.1016282074331349
 40
0.1016282074331349
 40
0.14345408285393
 40
0.14345408285393
 40
0.152142297808257
 40
0.152142297808257
 40
0.1572052970498962
 40
0.1572052970498962
 40
0.1610294660464128
 40
0.1610294660464128
 40
0.1649082037611255
 40
0.1649082037611255
 40
0.1705527000673559
 40
0.1705527000673559
 40
0.1822588238160883
 40
0.1822588238160883
 40
0.2179307321748143
 40
0.2179307321748143
 40
0.3305226454665668
 40
0.3305226454665668
 40
0.3305226454665668
 40
0.3305226454665668
 10
10.75650858082281
 20
-20.49828697328701
 30
0.0
 10
10.50602046444442
 20
-20.72313657095719
 30
0.0
 10
10.29297781920218
 20
-20.90216910592369
 30
0.0
 10
10.07574482012569
 20
-21.07595962341031
 30
0.0
 10
9.989890312589409
 20
-21.14291605058361
 30
0.0
 10
9.921987412627913
 20
-21.18979636417873
 30
0.0
 10
9.909645700026658
 20
-21.19799303938714
 30
0.0
 10
9.893548984940593
 20
-21.20747587246467
 30
0.0
 10
9.888112226016801
 20
-21.21036537074713
 30
0.0
 10
9.880964557325
 20
-21.21311556308308
 30
0.0
 10
9.878804878888558
 20
-21.21349177715081
 30
0.0
 10
9.876495173092052
 20
-21.21246240068115
 30
0.0
 10
9.876449804260346
 20
-21.21106488464841
 30
0.0
 10
9.878326041610421
 20
-21.20613721318375
 30
0.0
 10
9.881145749099118
 20
-21.20194555365879
 30
0.0
 10
9.891844263975258
 20
-21.1879985833209
 30
0.0
 10
9.903047747649225
 20
-21.17561460476657
 30
0.0
 10
9.947197758576749
 20
-21.12870734459568
 30
0.0
 10
9.996739520648134
 20
-21.08049192893668
 30
0.0
 10
10.16524778213136
 20
-20.91810054297196
 30
0.0
 10
10.36330260341765
 20
-20.73320837892061
 30
0.0
 10
10.60905084592764
 20
-20.49828697328701
 30
0.0
  0
SPLINE
  5
9E
330
2
100
AcDbEntity
  8
GEB-VERDECKT
 48
25.0
100
AcDbSpline
210
0.0
220
0.0
230
1.0
 70
     8
 71
     3
 72
    16
 73
    12
 74
     0
 42
0.0000000001
 43
0.0000000001
 40
2.312980959658902
 40
2.312980959658902
 40
2.312980959658902
 40
2.312980959658902
 40
2.424023217695531
 40
2.424023217695531
 40
2.775165182250113
 40
2.775165182250113
 40
3.38020990788382
 40
3.38020990788382
 40
4.090837416909384
 40
4.090837416909384
 40
4.620656223541672
 40
4.620656223541672
 40
4.620656223541672
 40
4.620656223541672
 10
19.74523197469784
 20
0.0
 30
0.0
 10
19.74523197469784
 20
-0.371584003897965
 30
0.0
 10
19.73795752474518
 20
-0.7431978420178212
 30
0.0
 10
19.67738020347599
 20
-2.289113322379648
 30
0.0
 10
19.55867551769802
 20
-3.459345214385848
 30
0.0
 10
19.03880496303952
 20
-6.614733065850941
 30
0.0
 10
18.49716617535046
 20
-8.5675825801286
 30
0.0
 10
16.87152409527584
 20
-12.6413100578402
 30
0.0
 10
15.7164527173137
 20
-14.71432335132556
 30
0.0
 10
13.2539339590852
 20
-18.01933411710331
 30
0.0
 10
12.06627615041623
 20
-19.32257965701865
 30
0.0
 10
10.75650858082281
 20
-20.49828697328701
 30
0.0
  0
SPLINE
  5
9F
330
2
100
AcDbEntity
  8
GEB-VERDECKT
 48
25.0
100
AcDbSpline
210
0.0
220
0.0
230
1.0
 70
     8
 71
     3
 72
    14
 73
    10
 74
     0
 42
0.0000000001
 43
0.0000000001
 40
0.0018294068385467
 40
0.0018294068385467
 40
0.0018294068385467
 40
0.0018294068385467
 40
0.9897152215128194
 40
0.9897152215128194
 40
1.726746399294258
 40
1.726746399294258
 40
2.115193497023458
 40
2.115193497023458
 40
2.312980959658902
 40
2.312980959658902
 40
2.312980959658902
 40
2.312980959658902
 10
10.75650858082281
 20
20.49828697328712
 30
0.0
 10
13.1926076041218
 20
18.31153299392588
 30
0.0
 10
15.19786439640006
 20
15.69256066774755
 30
0.0
 10
17.81176515849711
 20
10.58032046045434
 30
0.0
 10
18.6315176731432
 20
8.251184759576176
 30
0.0
 10
19.40595861412077
 20
4.569624609901666
 30
0.0
 10
19.58536429254263
 20
3.280964793173438
 30
0.0
 10
19.72215459769586
 20
1.32362946021567
 30
0.0
 10
19.74523197469784
 20
0.6618620567194285
 30
0.0
 10
19.74523197469784
 20
0.0
 30
0.0
  0
SPLINE
  5
A0
330
2
100
AcDbEntity
  8
GEB-VERDECKT
 48
25.0
100
AcDbSpline
210
0.0
220
0.0
230
1.0
 70
     8
 71
     3
 72
    14
 73
    10
 74
     0
 42
0.0000000001
 43
0.0000000001
 40
0.1695887269130667
 40
0.1695887269130667
 40
0.1695887269130667
 40
0.1695887269130667
 40
0.1705527000663853
 40
0.1705527000663853
 40
0.1822588238146538
 40
0.1822588238146538
 40
0.217930732171736
 40
0.217930732171736
 40
0.3305226454587591
 40
0.3305226454587591
 40
0.3305226454587591
 40
0.3305226454587591
 10
11.52415128869006
 20
21.19969810059001
 30
0.0
 10
11.52535448253172
 20
21.19894799593613
 30
0.0
 10
11.52656730137187
 20
21.19818320295485
 30
0.0
 10
11.542560962479
 20
21.18799858332113
 30
0.0
 10
11.56025823111679
 20
21.17561460476691
 30
0.0
 10
11.62532801480313
 20
21.1287073445958
 30
0.0
 10
11.68731731058585
 20
21.08049192893668
 30
0.0
 10
11.89161865616825
 20
20.91810054297207
 30
0.0
 10
12.11241924852731
 20
20.73320837892083
 30
0.0
 10
12.37412761271355
 20
20.49828697328712
 30
0.0
  0
SPLINE
  5
A1
330
2
100
AcDbEntity
  8
GEB-VERDECKT
 48
25.0
100
AcDbSpline
210
0.0
220
0.0
230
1.0
 70
     8
 71
     3
 72
    14
 73
    10
 74
     0
 42
0.0000000001
 43
0.0000000001
 40
2.312980959658909
 40
2.312980959658909
 40
2.312980959658909
 40
2.312980959658909
 40
2.424023217695562
 40
2.424023217695562
 40
2.775165182250184
 40
2.775165182250184
 40
3.380209907883978
 40
3.380209907883978
 40
3.795179735441177
 40
3.795179735441177
 40
3.795179735441177
 40
3.795179735441177
 10
20.94874053442459
 20
0.0
 30
0.0
 10
20.94874053442459
 20
0.3715840038980787
 30
0.0
 10
20.94146554254212
 20
0.7431978420181622
 30
0.0
 10
20.88089724445604
 20
2.289113322379876
 30
0.0
 10
20.76217961137445
 20
3.459345214386075
 30
0.0
 10
20.24363932489678
 20
6.614733065851282
 30
0.0
 10
19.70409884533853
 20
8.567582580129055
 30
0.0
 10
18.46042446979493
 20
11.72586258599654
 30
0.0
 10
17.86356365182973
 20
12.96732550576325
 30
0.0
 10
17.18354793779713
 20
14.15495683698918
 30
0.0
  0
SPLINE
  5
A2
330
2
100
AcDbEntity
  8
GEB-VERDECKT
 48
25.0
100
AcDbSpline
210
0.0
220
0.0
230
1.0
 70
     8
 71
     3
 72
    14
 73
    10
 74
     0
 42
0.0000000001
 43
0.0000000001
 40
0.8305933058681134
 40
0.8305933058681134
 40
0.8305933058681134
 40
0.8305933058681134
 40
0.9897152215128222
 40
0.9897152215128222
 40
1.726746399294264
 40
1.726746399294264
 40
2.115193497023463
 40
2.115193497023463
 40
2.312980959658909
 40
2.312980959658909
 40
2.312980959658909
 40
2.312980959658909
 10
17.18345924174878
 20
-14.15494462681204
 30
0.0
 10
17.44412709058918
 20
-13.69988858721672
 30
0.0
 10
17.69290965817663
 20
-13.23630326782472
 30
0.0
 10
19.02375865953672
 20
-10.58032046045423
 30
0.0
 10
19.83834981386621
 20
-8.251184759576062
 30
0.0
 10
20.60961898427593
 20
-4.569624609901325
 30
0.0
 10
20.78893197563786
 20
-3.280964793173211
 30
0.0
 10
20.92565771955197
 20
-1.323629460215443
 30
0.0
 10
20.94874053442459
 20
-0.6618620567193148
 30
0.0
 10
20.94874053442459
 20
0.0
 30
0.0
  0
SPLINE
  5
A3
330
2
100
AcDbEntity
  8
GEB-VERDECKT
 48
25.0
100
AcDbSpline
210
0.0
220
0.0
230
1.0
 70
     8
 71
     3
 72
    12
 73
     8
 74
     0
 42
0.0000000001
 43
0.0000000001
 40
0.0000391708387109
 40
0.0000391708387109
 40
0.0000391708387109
 40
0.0000391708387109
 40
0.1016282074331316
 40
0.1016282074331316
 40
0.1434540828536704
 40
0.1434540828536704
 40
0.1502152422215633
 40
0.1502152422215633
 40
0.1502152422215633
 40
0.1502152422215633
 10
12.37412761271355
 20
-20.49828697328701
 30
0.0
 10
12.12363949633516
 20
-20.72313657095719
 30
0.0
 10
11.91059685109292
 20
-20.90216910592369
 30
0.0
 10
11.69336385201688
 20
-21.07595962340997
 30
0.0
 10
11.60750934448038
 20
-21.14291605058349
 30
0.0
 10
11.54219686358271
 20
-21.18800793307889
 30
0.0
 10
11.53270694092202
 20
-21.19436354173013
 30
0.0
 10
11.52415140797507
 20
-21.19969778670929
 30
0.0
  0
SPLINE
  5
A4
330
2
100
AcDbEntity
  8
GEB-VERDECKT
 48
25.0
100
AcDbSpline
210
0.0
220
0.0
230
1.0
 70
     8
 71
     3
 72
    16
 73
    12
 74
     0
 42
0.0000000001
 43
0.0000000001
 40
2.312980959658902
 40
2.312980959658902
 40
2.312980959658902
 40
2.312980959658902
 40
2.424023217695531
 40
2.424023217695531
 40
2.775165182250113
 40
2.775165182250113
 40
3.38020990788382
 40
3.38020990788382
 40
4.090837416909384
 40
4.090837416909384
 40
4.620656223541672
 40
4.620656223541672
 40
4.620656223541672
 40
4.620656223541672
 10
21.36285100658847
 20
0.0
 30
0.0
 10
21.36285100658847
 20
-0.371584003897965
 30
0.0
 10
21.35557655663593
 20
-0.7431978420178212
 30
0.0
 10
21.29499923536684
 20
-2.289113322379648
 30
0.0
 10
21.17629454958876
 20
-3.459345214385848
 30
0.0
 10
20.65642399493027
 20
-6.614733065850941
 30
0.0
 10
20.11478520724131
 20
-8.5675825801286
 30
0.0
 10
18.48914312716658
 20
-12.6413100578402
 30
0.0
 10
17.33407174920444
 20
-14.71432335132556
 30
0.0
 10
14.87155299097605
 20
-18.01933411710331
 30
0.0
 10
13.68389518230697
 20
-19.32257965701865
 30
0.0
 10
12.37412761271355
 20
-20.49828697328701
 30
0.0
  0
SPLINE
  5
A5
330
2
100
AcDbEntity
  8
GEB-VERDECKT
 48
25.0
100
AcDbSpline
210
0.0
220
0.0
230
1.0
 70
     8
 71
     3
 72
    14
 73
    10
 74
     0
 42
0.0000000001
 43
0.0000000001
 40
0.0018294068385467
 40
0.0018294068385467
 40
0.0018294068385467
 40
0.0018294068385467
 40
0.9897152215128194
 40
0.9897152215128194
 40
1.726746399294258
 40
1.726746399294258
 40
2.115193497023458
 40
2.115193497023458
 40
2.312980959658902
 40
2.312980959658902
 40
2.312980959658902
 40
2.312980959658902
 10
12.37412761271355
 20
20.49828697328712
 30
0.0
 10
14.81022663601254
 20
18.31153299392588
 30
0.0
 10
16.81548342829092
 20
15.69256066774755
 30
0.0
 10
19.42938419038785
 20
10.58032046045434
 30
0.0
 10
20.24913670503395
 20
8.251184759576176
 30
0.0
 10
21.02357764601163
 20
4.569624609901666
 30
0.0
 10
21.20298332443338
 20
3.280964793173438
 30
0.0
 10
21.3397736295866
 20
1.32362946021567
 30
0.0
 10
21.36285100658847
 20
0.6618620567194285
 30
0.0
 10
21.36285100658847
 20
0.0
 30
0.0
  0
SPLINE
  5
A6
330
2
100
AcDbEntity
  8
GEB-VERDECKT
 48
25.0
100
AcDbSpline
210
0.0
220
0.0
230
1.0
 70
     8
 71
     3
 72
    26
 73
    22
 74
     0
 42
0.0000000001
 43
0.0000000001
 40
0.0000391708387173
 40
0.0000391708387173
 40
0.0000391708387173
 40
0.0000391708387173
 40
0.1016282074330745
 40
0.1016282074330745
 40
0.143454082853683
 40
0.143454082853683
 40
0.1521422978079592
 40
0.1521422978079592
 40
0.1572052970495863
 40
0.1572052970495863
 40
0.161029466046017
 40
0.161029466046017
 40
0.1649082037605809
 40
0.1649082037605809
 40
0.1705527000665137
 40
0.1705527000665137
 40
0.1822588238146913
 40
0.1822588238146913
 40
0.217930732171623
 40
0.217930732171623
 40
0.3305226454580921
 40
0.3305226454580921
 40
0.3305226454580921
 40
0.3305226454580921
 10
-23.18845651759921
 20
-20.49828697328701
 30
0.0
 10
-22.93796840122082
 20
-20.72313657095697
 30
0.0
 10
-22.72492575597869
 20
-20.90216910592369
 30
0.0
 10
-22.50769275690243
 20
-21.0759596234102
 30
0.0
 10
-22.42183824936592
 20
-21.14291605058349
 30
0.0
 10
-22.35393534940442
 20
-21.18979636417873
 30
0.0
 10
-22.34159363680305
 20
-21.19799303938714
 30
0.0
 10
-22.32549692171688
 20
-21.20747587246478
 30
0.0
 10
-22.3200601627932
 20
-21.21036537074713
 30
0.0
 10
-22.31291249410151
 20
-21.21311556308308
 30
0.0
 10
-22.31075281566496
 20
-21.21349177715081
 30
0.0
 10
-22.30844310986856
 20
-21.21246240068126
 30
0.0
 10
-22.30839774103674
 20
-21.21106488464852
 30
0.0
 10
-22.31027397838693
 20
-21.20613721318386
 30
0.0
 10
-22.31309368587563
 20
-21.20194555365879
 30
0.0
 10
-22.32379220075154
 20
-21.18799858332102
 30
0.0
 10
-22.33499568442551
 20
-21.17561460476668
 30
0.0
 10
-22.37914569535303
 20
-21.1287073445958
 30
0.0
 10
-22.42868745742476
 20
-21.08049192893668
 30
0.0
 10
-22.59719571890764
 20
-20.91810054297196
 30
0.0
 10
-22.79525054019382
 20
-20.73320837892083
 30
0.0
 10
-23.04099878270404
 20
-20.49828697328701
 30
0.0
  0
SPLINE
  5
A7
330
2
100
AcDbEntity
  8
GEB-VERDECKT
 48
25.0
100
AcDbSpline
210
0.0
220
0.0
230
1.0
 70
     8
 71
     3
 72
    16
 73
    12
 74
     0
 42
0.0000000001
 43
0.0000000001
 40
2.312980959658923
 40
2.312980959658923
 40
2.312980959658923
 40
2.312980959658923
 40
2.424023217695559
 40
2.424023217695559
 40
2.775165182250124
 40
2.775165182250124
 40
3.380209907883828
 40
3.380209907883828
 40
4.090837416909357
 40
4.090837416909357
 40
4.620656223541628
 40
4.620656223541628
 40
4.620656223541628
 40
4.620656223541628
 10
-32.17717991147424
 20
0.0
 30
0.0
 10
-32.17717991147424
 20
-0.371584003897965
 30
0.0
 10
-32.16990546152158
 20
-0.7431978420179349
 30
0.0
 10
-32.10932814025239
 20
-2.289113322379762
 30
0.0
 10
-31.9906234544743
 20
-3.459345214386075
 30
0.0
 10
-31.47075289981581
 20
-6.614733065851169
 30
0.0
 10
-30.92911411212686
 20
-8.567582580128942
 30
0.0
 10
-29.30347203205213
 20
-12.64131005784043
 30
0.0
 10
-28.14840065408998
 20
-14.7143233513259
 30
0.0
 10
-25.68588189586149
 20
-18.01933411710365
 30
0.0
 10
-24.49822408719251
 20
-19.32257965701876
 30
0.0
 10
-23.18845651759921
 20
-20.49828697328701
 30
0.0
  0
SPLINE
  5
A8
330
2
100
AcDbEntity
  8
GEB-VERDECKT
 48
25.0
100
AcDbSpline
210
0.0
220
0.0
230
1.0
 70
     8
 71
     3
 72
    14
 73
    10
 74
     0
 42
0.0000000001
 43
0.0000000001
 40
0.001829406838556
 40
0.001829406838556
 40
0.001829406838556
 40
0.001829406838556
 40
0.9897152215128295
 40
0.9897152215128295
 40
1.726746399294278
 40
1.726746399294278
 40
2.115193497023479
 40
2.115193497023479
 40
2.312980959658923
 40
2.312980959658923
 40
2.312980959658923
 40
2.312980959658923
 10
-23.18845651759932
 20
20.49828697328712
 30
0.0
 10
-25.62455554089809
 20
18.31153299392588
 30
0.0
 10
-27.62981233317646
 20
15.69256066774755
 30
0.0
 10
-30.24371309527351
 20
10.58032046045434
 30
0.0
 10
-31.06346560991961
 20
8.251184759576176
 30
0.0
 10
-31.83790655089729
 20
4.569624609901438
 30
0.0
 10
-32.01731222931915
 20
3.280964793173325
 30
0.0
 10
-32.15410253447226
 20
1.32362946021567
 30
0.0
 10
-32.17717991147424
 20
0.6618620567194285
 30
0.0
 10
-32.17717991147424
 20
0.0
 30
0.0
  0
SPLINE
  5
A9
330
2
100
AcDbEntity
  8
GEB-VERDECKT
 48
25.0
100
AcDbSpline
210
0.0
220
0.0
230
1.0
 70
     8
 71
     3
 72
    26
 73
    22
 74
     0
 42
0.0000000001
 43
0.0000000001
 40
0.0000391708387107
 40
0.0000391708387107
 40
0.0000391708387107
 40
0.0000391708387107
 40
0.1016282074331206
 40
0.1016282074331206
 40
0.1434540828537708
 40
0.1434540828537708
 40
0.1521422978080049
 40
0.1521422978080049
 40
0.157205297049546
 40
0.157205297049546
 40
0.1610294660459513
 40
0.1610294660459513
 40
0.1649082037605192
 40
0.1649082037605192
 40
0.1705527000664778
 40
0.1705527000664778
 40
0.1822588238147044
 40
0.1822588238147044
 40
0.21793073217189
 40
0.21793073217189
 40
0.3305226454588759
 40
0.3305226454588759
 40
0.3305226454588759
 40
0.3305226454588759
 10
-23.04099878270404
 20
20.49828697328712
 30
0.0
 10
-22.80578652817383
 20
20.72313657095719
 30
0.0
 10
-22.61423552995075
 20
20.9021691059238
 30
0.0
 10
-22.4332267078654
 20
21.07595962341031
 30
0.0
 10
-22.3640239961112
 20
21.14291605058361
 30
0.0
 10
-22.32254542089947
 20
21.18979636417885
 30
0.0
 10
-22.31573163346888
 20
21.19799303938726
 30
0.0
 10
-22.30964565836882
 20
21.20747587246478
 30
0.0
 10
-22.3083179596448
 20
21.21036537074724
 30
0.0
 10
-22.30902629684454
 20
21.21311556308319
 30
0.0
 10
-22.31030480750758
 20
21.21349177715092
 30
0.0
 10
-22.31502500122701
 20
21.21246240068138
 30
0.0
 10
-22.3183429777697
 20
21.21106488464852
 30
0.0
 10
-22.32800058743737
 20
21.20613721318398
 30
0.0
 10
-22.33498790881583
 20
21.2019455536589
 30
0.0
 10
-22.35688986736466
 20
21.18799858332102
 30
0.0
 10
-22.37458713600245
 20
21.17561460476668
 30
0.0
 10
-22.43965691968879
 20
21.1287073445958
 30
0.0
 10
-22.5016462154714
 20
21.08049192893679
 30
0.0
 10
-22.70594756105413
 20
20.91810054297184
 30
0.0
 10
-22.9267481534132
 20
20.73320837892061
 30
0.0
 10
-23.18845651759932
 20
20.49828697328712
 30
0.0
  0
SPLINE
  5
AA
330
2
100
AcDbEntity
  8
GEB-VERDECKT
 48
25.0
100
AcDbSpline
210
0.0
220
0.0
230
1.0
 70
     8
 71
     3
 72
    16
 73
    12
 74
     0
 42
0.0000000001
 43
0.0000000001
 40
2.31298095965892
 40
2.31298095965892
 40
2.31298095965892
 40
2.31298095965892
 40
2.424023217695569
 40
2.424023217695569
 40
2.775165182250201
 40
2.775165182250201
 40
3.380209907883998
 40
3.380209907883998
 40
4.090837416909636
 40
4.090837416909636
 40
4.620656223541997
 40
4.620656223541997
 40
4.620656223541997
 40
4.620656223541997
 10
-31.76306943931013
 20
0.0
 30
0.0
 10
-31.76306943931013
 20
0.3715840038980787
 30
0.0
 10
-31.75579444742778
 20
0.7431978420179349
 30
0.0
 10
-31.69522614934169
 20
2.289113322379876
 30
0.0
 10
-31.57650851626022
 20
3.459345214385962
 30
0.0
 10
-31.05796822978255
 20
6.614733065851169
 30
0.0
 10
-30.51842775022419
 20
8.567582580128828
 30
0.0
 10
-28.91426647650394
 20
12.64131005784043
 30
0.0
 10
-27.78124644273589
 20
14.71432335132579
 30
0.0
 10
-25.40606308439931
 20
18.01933411710354
 30
0.0
 10
-24.27089099239743
 20
19.32257965701865
 30
0.0
 10
-23.04099878270404
 20
20.49828697328712
 30
0.0
  0
SPLINE
  5
AB
330
2
100
AcDbEntity
  8
GEB-VERDECKT
 48
25.0
100
AcDbSpline
210
0.0
220
0.0
230
1.0
 70
     8
 71
     3
 72
    14
 73
    10
 74
     0
 42
0.0000000001
 43
0.0000000001
 40
0.0018294068385467
 40
0.0018294068385467
 40
0.0018294068385467
 40
0.0018294068385467
 40
0.9897152215128175
 40
0.9897152215128175
 40
1.726746399294253
 40
1.726746399294253
 40
2.115193497023457
 40
2.115193497023457
 40
2.31298095965892
 40
2.31298095965892
 40
2.31298095965892
 40
2.31298095965892
 10
-23.04099878270404
 20
-20.49828697328701
 30
0.0
 10
-25.32853382354108
 20
-18.31153299392576
 30
0.0
 10
-27.27646715192975
 20
-15.69256066774755
 30
0.0
 10
-29.83808756442227
 20
-10.58032046045423
 30
0.0
 10
-30.65267871875176
 20
-8.251184759576062
 30
0.0
 10
-31.42394788916158
 20
-4.569624609901325
 30
0.0
 10
-31.60326088052341
 20
-3.280964793173211
 30
0.0
 10
-31.73998662443751
 20
-1.323629460215556
 30
0.0
 10
-31.76306943931013
 20
-0.6618620567193148
 30
0.0
 10
-31.76306943931013
 20
0.0
 30
0.0
  0
SPLINE
  5
AC
330
2
100
AcDbEntity
  8
GEB-VERDECKT
 48
25.0
100
AcDbSpline
210
0.0
220
0.0
230
1.0
 70
     8
 71
     3
 72
    26
 73
    22
 74
     0
 42
0.0000000001
 43
0.0000000001
 40
0.0000391708387173
 40
0.0000391708387173
 40
0.0000391708387173
 40
0.0000391708387173
 40
0.1016282074331644
 40
0.1016282074331644
 40
0.1434540828540754
 40
0.1434540828540754
 40
0.1521422978084655
 40
0.1521422978084655
 40
0.1572052970500767
 40
0.1572052970500767
 40
0.1610294660465854
 40
0.1610294660465854
 40
0.164908203761263
 40
0.164908203761263
 40
0.1705527000673019
 40
0.1705527000673019
 40
0.1822588238156898
 40
0.1822588238156898
 40
0.2179307321731002
 40
0.2179307321731002
 40
0.3305226454610289
 40
0.3305226454610289
 40
0.3305226454610289
 40
0.3305226454610289
 10
-24.80607554949006
 20
-20.49828697328701
 30
0.0
 10
-24.55558743311144
 20
-20.72313657095719
 30
0.0
 10
-24.3425447878692
 20
-20.90216910592369
 30
0.0
 10
-24.12531178879272
 20
-21.07595962341043
 30
0.0
 10
-24.03945728125655
 20
-21.14291605058361
 30
0.0
 10
-23.97155438129516
 20
-21.18979636417885
 30
0.0
 10
-23.95921266869379
 20
-21.19799303938714
 30
0.0
 10
-23.94311595360773
 20
-21.20747587246467
 30
0.0
 10
-23.93767919468405
 20
-21.21036537074713
 30
0.0
 10
-23.93053152599214
 20
-21.21311556308319
 30
0.0
 10
-23.92837184755581
 20
-21.21349177715081
 30
0.0
 10
-23.92606214175931
 20
-21.21246240068126
 30
0.0
 10
-23.92601677292748
 20
-21.21106488464852
 30
0.0
 10
-23.92789301027756
 20
-21.20613721318386
 30
0.0
 10
-23.93071271776637
 20
-21.20194555365879
 30
0.0
 10
-23.9414112326424
 20
-21.18799858332102
 30
0.0
 10
-23.95261471631625
 20
-21.17561460476668
 30
0.0
 10
-23.99676472724377
 20
-21.12870734459568
 30
0.0
 10
-24.04630648931539
 20
-21.08049192893657
 30
0.0
 10
-24.2148147507985
 20
-20.91810054297207
 30
0.0
 10
-24.41286957208467
 20
-20.73320837892095
 30
0.0
 10
-24.65861781459478
 20
-20.49828697328701
 30
0.0
  0
SPLINE
  5
AD
330
2
100
AcDbEntity
  8
GEB-VERDECKT
 48
25.0
100
AcDbSpline
210
0.0
220
0.0
230
1.0
 70
     8
 71
     3
 72
    16
 73
    12
 74
     0
 42
0.0000000001
 43
0.0000000001
 40
2.312980959658919
 40
2.312980959658919
 40
2.312980959658919
 40
2.312980959658919
 40
2.424023217695555
 40
2.424023217695555
 40
2.775165182250119
 40
2.775165182250119
 40
3.380209907883822
 40
3.380209907883822
 40
4.09083741690935
 40
4.09083741690935
 40
4.62065622354162
 40
4.62065622354162
 40
4.62065622354162
 40
4.62065622354162
 10
-33.79479894336498
 20
0.0
 30
0.0
 10
-33.79479894336498
 20
-0.371584003897965
 30
0.0
 10
-33.78752449341232
 20
-0.7431978420179349
 30
0.0
 10
-33.72694717214313
 20
-2.289113322379762
 30
0.0
 10
-33.60824248636516
 20
-3.459345214386075
 30
0.0
 10
-33.08837193170666
 20
-6.614733065851169
 30
0.0
 10
-32.5467331440176
 20
-8.567582580128942
 30
0.0
 10
-30.92109106394287
 20
-12.64131005784043
 30
0.0
 10
-29.76601968598073
 20
-14.7143233513259
 30
0.0
 10
-27.30350092775223
 20
-18.01933411710365
 30
0.0
 10
-26.11584311908337
 20
-19.32257965701876
 30
0.0
 10
-24.80607554949006
 20
-20.49828697328701
 30
0.0
  0
SPLINE
  5
AE
330
2
100
AcDbEntity
  8
GEB-VERDECKT
 48
25.0
100
AcDbSpline
210
0.0
220
0.0
230
1.0
 70
     8
 71
     3
 72
    14
 73
    10
 74
     0
 42
0.0000000001
 43
0.0000000001
 40
0.001829406838556
 40
0.001829406838556
 40
0.001829406838556
 40
0.001829406838556
 40
0.9897152215128286
 40
0.9897152215128286
 40
1.726746399294276
 40
1.726746399294276
 40
2.115193497023475
 40
2.115193497023475
 40
2.312980959658919
 40
2.312980959658919
 40
2.312980959658919
 40
2.312980959658919
 10
-24.80607554949006
 20
20.49828697328712
 30
0.0
 10
-27.24217457278894
 20
18.31153299392588
 30
0.0
 10
-29.2474313650672
 20
15.69256066774755
 30
0.0
 10
-31.86133212716425
 20
10.58032046045434
 30
0.0
 10
-32.68108464181046
 20
8.251184759576176
 30
0.0
 10
-33.45552558278792
 20
4.569624609901438
 30
0.0
 10
-33.63493126120989
 20
3.280964793173325
 30
0.0
 10
-33.77172156636311
 20
1.32362946021567
 30
0.0
 10
-33.79479894336498
 20
0.6618620567194285
 30
0.0
 10
-33.79479894336498
 20
0.0
 30
0.0
  0
SPLINE
  5
AF
330
2
100
AcDbEntity
  8
GEB-VERDECKT
 48
25.0
100
AcDbSpline
210
0.0
220
0.0
230
1.0
 70
     8
 71
     3
 72
    26
 73
    22
 74
     0
 42
0.0000000001
 43
0.0000000001
 40
0.0000391708387109
 40
0.0000391708387109
 40
0.0000391708387109
 40
0.0000391708387109
 40
0.101628207433055
 40
0.101628207433055
 40
0.1434540828535355
 40
0.1434540828535355
 40
0.1521422978077487
 40
0.1521422978077487
 40
0.1572052970493265
 40
0.1572052970493265
 40
0.1610294660457706
 40
0.1610294660457706
 40
0.1649082037603778
 40
0.1649082037603778
 40
0.1705527000663933
 40
0.1705527000663933
 40
0.1822588238147378
 40
0.1822588238147378
 40
0.2179307321722828
 40
0.2179307321722828
 40
0.3305226454604105
 40
0.3305226454604105
 40
0.3305226454604105
 40
0.3305226454604105
 10
-24.65861781459478
 20
20.49828697328712
 30
0.0
 10
-24.42340556006468
 20
20.72313657095708
 30
0.0
 10
-24.23185456184138
 20
20.9021691059238
 30
0.0
 10
-24.05084573975626
 20
21.0759596234102
 30
0.0
 10
-23.98164302800194
 20
21.14291605058361
 30
0.0
 10
-23.94016445279021
 20
21.18979636417885
 30
0.0
 10
-23.93335066535974
 20
21.19799303938726
 30
0.0
 10
-23.92726469025956
 20
21.2074758724649
 30
0.0
 10
-23.92593699153554
 20
21.21036537074724
 30
0.0
 10
-23.92664532873539
 20
21.21311556308319
 30
0.0
 10
-23.92792383939832
 20
21.21349177715092
 30
0.0
 10
-23.93264403311775
 20
21.21246240068138
 30
0.0
 10
-23.93596200966044
 20
21.21106488464852
 30
0.0
 10
-23.94561961932823
 20
21.20613721318398
 30
0.0
 10
-23.95260694070657
 20
21.2019455536589
 30
0.0
 10
-23.97450889925551
 20
21.18799858332102
 30
0.0
 10
-23.9922061678933
 20
21.17561460476668
 30
0.0
 10
-24.05727595157953
 20
21.1287073445958
 30
0.0
 10
-24.11926524736214
 20
21.08049192893679
 30
0.0
 10
-24.32356659294487
 20
20.91810054297184
 30
0.0
 10
-24.54436718530406
 20
20.73320837892061
 30
0.0
 10
-24.80607554949006
 20
20.49828697328712
 30
0.0
  0
SPLINE
  5
B0
330
2
100
AcDbEntity
  8
GEB-VERDECKT
 48
25.0
100
AcDbSpline
210
0.0
220
0.0
230
1.0
 70
     8
 71
     3
 72
    16
 73
    12
 74
     0
 42
0.0000000001
 43
0.0000000001
 40
2.31298095965892
 40
2.31298095965892
 40
2.31298095965892
 40
2.31298095965892
 40
2.424023217695569
 40
2.424023217695569
 40
2.775165182250201
 40
2.775165182250201
 40
3.380209907883998
 40
3.380209907883998
 40
4.090837416909636
 40
4.090837416909636
 40
4.620656223541997
 40
4.620656223541997
 40
4.620656223541997
 40
4.620656223541997
 10
-33.38068847120087
 20
0.0
 30
0.0
 10
-33.38068847120087
 20
0.3715840038980787
 30
0.0
 10
-33.37341347931852
 20
0.7431978420179349
 30
0.0
 10
-33.31284518123243
 20
2.289113322379876
 30
0.0
 10
-33.19412754815085
 20
3.459345214385962
 30
0.0
 10
-32.67558726167318
 20
6.614733065851169
 30
0.0
 10
-32.13604678211493
 20
8.567582580128828
 30
0.0
 10
-30.53188550839479
 20
12.64131005784043
 30
0.0
 10
-29.39886547462675
 20
14.71432335132579
 30
0.0
 10
-27.02368211629027
 20
18.01933411710354
 30
0.0
 10
-25.88851002428806
 20
19.32257965701865
 30
0.0
 10
-24.65861781459478
 20
20.49828697328712
 30
0.0
  0
SPLINE
  5
B1
330
2
100
AcDbEntity
  8
GEB-VERDECKT
 48
25.0
100
AcDbSpline
210
0.0
220
0.0
230
1.0
 70
     8
 71
     3
 72
    14
 73
    10
 74
     0
 42
0.0000000001
 43
0.0000000001
 40
0.0018294068385467
 40
0.0018294068385467
 40
0.0018294068385467
 40
0.0018294068385467
 40
0.9897152215128175
 40
0.9897152215128175
 40
1.726746399294253
 40
1.726746399294253
 40
2.115193497023457
 40
2.115193497023457
 40
2.31298095965892
 40
2.31298095965892
 40
2.31298095965892
 40
2.31298095965892
 10
-24.65861781459478
 20
-20.49828697328701
 30
0.0
 10
-26.94615285543182
 20
-18.31153299392576
 30
0.0
 10
-28.89408618382049
 20
-15.69256066774755
 30
0.0
 10
-31.45570659631301
 20
-10.58032046045423
 30
0.0
 10
-32.2702977506425
 20
-8.251184759576062
 30
0.0
 10
-33.04156692105244
 20
-4.569624609901325
 30
0.0
 10
-33.22087991241438
 20
-3.280964793173211
 30
0.0
 10
-33.35760565632836
 20
-1.323629460215556
 30
0.0
 10
-33.38068847120087
 20
-0.6618620567193148
 30
0.0
 10
-33.38068847120087
 20
0.0
 30
0.0
  0
SPLINE
  5
B2
330
2
100
AcDbEntity
  8
GEB-VERDECKT
 48
25.0
100
AcDbSpline
210
0.0
220
0.0
230
1.0
 70
     8
 71
     3
 72
    26
 73
    22
 74
     0
 42
0.0000000001
 43
0.0000000001
 40
0.0000391708387173
 40
0.0000391708387173
 40
0.0000391708387173
 40
0.0000391708387173
 40
0.1016282074331644
 40
0.1016282074331644
 40
0.1434540828541457
 40
0.1434540828541457
 40
0.1521422978085234
 40
0.1521422978085234
 40
0.1572052970502065
 40
0.1572052970502065
 40
0.1610294660466814
 40
0.1610294660466814
 40
0.1649082037612901
 40
0.1649082037612901
 40
0.1705527000672876
 40
0.1705527000672876
 40
0.182258823815599
 40
0.182258823815599
 40
0.2179307321729367
 40
0.2179307321729367
 40
0.3305226454606393
 40
0.3305226454606393
 40
0.3305226454606393
 40
0.3305226454606393
 10
-26.4236945813808
 20
-20.49828697328701
 30
0.0
 10
-26.17320646500218
 20
-20.72313657095719
 30
0.0
 10
-25.96016381976017
 20
-20.90216910592369
 30
0.0
 10
-25.74293082068357
 20
-21.07595962341065
 30
0.0
 10
-25.65707631314718
 20
-21.14291605058361
 30
0.0
 10
-25.58917341318602
 20
-21.18979636417873
 30
0.0
 10
-25.57683170058453
 20
-21.19799303938714
 30
0.0
 10
-25.56073498549847
 20
-21.20747587246478
 30
0.0
 10
-25.55529822657479
 20
-21.21036537074713
 30
0.0
 10
-25.54815055788299
 20
-21.21311556308308
 30
0.0
 10
-25.54599087944655
 20
-21.21349177715081
 30
0.0
 10
-25.54368117365005
 20
-21.21246240068126
 30
0.0
 10
-25.54363580481822
 20
-21.21106488464852
 30
0.0
 10
-25.54551204216841
 20
-21.20613721318386
 30
0.0
 10
-25.54833174965711
 20
-21.20194555365879
 30
0.0
 10
-25.55903026453302
 20
-21.18799858332102
 30
0.0
 10
-25.5702337482071
 20
-21.17561460476668
 30
0.0
 10
-25.61438375913463
 20
-21.1287073445958
 30
0.0
 10
-25.66392552120624
 20
-21.08049192893668
 30
0.0
 10
-25.83243378268913
 20
-20.91810054297207
 30
0.0
 10
-26.0304886039753
 20
-20.73320837892095
 30
0.0
 10
-26.27623684648552
 20
-20.49828697328701
 30
0.0
  0
SPLINE
  5
B3
330
2
100
AcDbEntity
  8
GEB-VERDECKT
 48
25.0
100
AcDbSpline
210
0.0
220
0.0
230
1.0
 70
     8
 71
     3
 72
    16
 73
    12
 74
     0
 42
0.0000000001
 43
0.0000000001
 40
2.312980959658919
 40
2.312980959658919
 40
2.312980959658919
 40
2.312980959658919
 40
2.424023217695555
 40
2.424023217695555
 40
2.775165182250119
 40
2.775165182250119
 40
3.380209907883822
 40
3.380209907883822
 40
4.09083741690935
 40
4.09083741690935
 40
4.62065622354162
 40
4.62065622354162
 40
4.62065622354162
 40
4.62065622354162
 10
-35.41241797525572
 20
0.0
 30
0.0
 10
-35.41241797525572
 20
-0.371584003897965
 30
0.0
 10
-35.40514352530306
 20
-0.7431978420179349
 30
0.0
 10
-35.34456620403387
 20
-2.289113322379762
 30
0.0
 10
-35.2258615182559
 20
-3.459345214386075
 30
0.0
 10
-34.70599096359752
 20
-6.614733065851169
 30
0.0
 10
-34.16435217590834
 20
-8.567582580128942
 30
0.0
 10
-32.53871009583361
 20
-12.64131005784043
 30
0.0
 10
-31.38363871787146
 20
-14.7143233513259
 30
0.0
 10
-28.92111995964319
 20
-18.01933411710365
 30
0.0
 10
-27.73346215097422
 20
-19.32257965701876
 30
0.0
 10
-26.4236945813808
 20
-20.49828697328701
 30
0.0
  0
SPLINE
  5
B4
330
2
100
AcDbEntity
  8
GEB-VERDECKT
 48
25.0
100
AcDbSpline
210
0.0
220
0.0
230
1.0
 70
     8
 71
     3
 72
    14
 73
    10
 74
     0
 42
0.0000000001
 43
0.0000000001
 40
0.001829406838556
 40
0.001829406838556
 40
0.001829406838556
 40
0.001829406838556
 40
0.9897152215128286
 40
0.9897152215128286
 40
1.726746399294276
 40
1.726746399294276
 40
2.115193497023475
 40
2.115193497023475
 40
2.312980959658919
 40
2.312980959658919
 40
2.312980959658919
 40
2.312980959658919
 10
-26.4236945813808
 20
20.49828697328712
 30
0.0
 10
-28.85979360467968
 20
18.31153299392588
 30
0.0
 10
-30.86505039695806
 20
15.69256066774755
 30
0.0
 10
-33.47895115905499
 20
10.58032046045434
 30
0.0
 10
-34.29870367370109
 20
8.251184759576176
 30
0.0
 10
-35.07314461467888
 20
4.569624609901438
 30
0.0
 10
-35.25255029310063
 20
3.280964793173325
 30
0.0
 10
-35.38934059825374
 20
1.32362946021567
 30
0.0
 10
-35.41241797525572
 20
0.6618620567194285
 30
0.0
 10
-35.41241797525572
 20
0.0
 30
0.0
  0
SPLINE
  5
B5
330
2
100
AcDbEntity
  8
GEB-VERDECKT
 48
25.0
100
AcDbSpline
210
0.0
220
0.0
230
1.0
 70
     8
 71
     3
 72
    26
 73
    22
 74
     0
 42
0.0000000001
 43
0.0000000001
 40
0.0000391708387108
 40
0.0000391708387108
 40
0.0000391708387108
 40
0.0000391708387108
 40
0.101628207433055
 40
0.101628207433055
 40
0.1434540828536067
 40
0.1434540828536067
 40
0.1521422978078509
 40
0.1521422978078509
 40
0.1572052970494482
 40
0.1572052970494482
 40
0.1610294660459076
 40
0.1610294660459076
 40
0.1649082037605307
 40
0.1649082037605307
 40
0.1705527000665689
 40
0.1705527000665689
 40
0.1822588238149449
 40
0.1822588238149449
 40
0.2179307321723555
 40
0.2179307321723555
 40
0.330522645460245
 40
0.330522645460245
 40
0.330522645460245
 40
0.330522645460245
 10
-26.27623684648552
 20
20.49828697328712
 30
0.0
 10
-26.04102459195542
 20
20.72313657095708
 30
0.0
 10
-25.84947359373234
 20
20.9021691059238
 30
0.0
 10
-25.668464771647
 20
21.07595962341031
 30
0.0
 10
-25.59926205989268
 20
21.14291605058361
 30
0.0
 10
-25.55778348468095
 20
21.18979636417885
 30
0.0
 10
-25.55096969725037
 20
21.19799303938726
 30
0.0
 10
-25.5448837221503
 20
21.2074758724649
 30
0.0
 10
-25.54355602342628
 20
21.21036537074724
 30
0.0
 10
-25.54426436062613
 20
21.21311556308319
 30
0.0
 10
-25.54554287128917
 20
21.21349177715092
 30
0.0
 10
-25.55026306500849
 20
21.21246240068138
 30
0.0
 10
-25.5535810415513
 20
21.21106488464852
 30
0.0
 10
-25.56323865121897
 20
21.20613721318398
 30
0.0
 10
-25.57022597259731
 20
21.2019455536589
 30
0.0
 10
-25.59212793114625
 20
21.18799858332113
 30
0.0
 10
-25.60982519978393
 20
21.17561460476691
 30
0.0
 10
-25.67489498347027
 20
21.1287073445958
 30
0.0
 10
-25.73688427925288
 20
21.08049192893679
 30
0.0
 10
-25.94118562483561
 20
20.91810054297184
 30
0.0
 10
-26.1619862171948
 20
20.73320837892061
 30
0.0
 10
-26.4236945813808
 20
20.49828697328712
 30
0.0
  0
SPLINE
  5
B6
330
2
100
AcDbEntity
  8
GEB-VERDECKT
 48
25.0
100
AcDbSpline
210
0.0
220
0.0
230
1.0
 70
     8
 71
     3
 72
    16
 73
    12
 74
     0
 42
0.0000000001
 43
0.0000000001
 40
2.312980959658919
 40
2.312980959658919
 40
2.312980959658919
 40
2.312980959658919
 40
2.424023217695567
 40
2.424023217695567
 40
2.775165182250199
 40
2.775165182250199
 40
3.380209907883995
 40
3.380209907883995
 40
4.090837416909633
 40
4.090837416909633
 40
4.620656223541995
 40
4.620656223541995
 40
4.620656223541995
 40
4.620656223541995
 10
-34.99830750309172
 20
0.0
 30
0.0
 10
-34.99830750309172
 20
0.3715840038980787
 30
0.0
 10
-34.99103251120926
 20
0.7431978420179349
 30
0.0
 10
-34.93046421312329
 20
2.289113322379876
 30
0.0
 10
-34.8117465800417
 20
3.459345214385962
 30
0.0
 10
-34.29320629356403
 20
6.614733065850941
 30
0.0
 10
-33.75366581400567
 20
8.567582580128828
 30
0.0
 10
-32.14950454028553
 20
12.64131005784043
 30
0.0
 10
-31.01648450651749
 20
14.71432335132579
 30
0.0
 10
-28.6413011481809
 20
18.01933411710354
 30
0.0
 10
-27.50612905617891
 20
19.32257965701865
 30
0.0
 10
-26.27623684648552
 20
20.49828697328712
 30
0.0
  0
SPLINE
  5
B7
330
2
100
AcDbEntity
  8
GEB-VERDECKT
 48
25.0
100
AcDbSpline
210
0.0
220
0.0
230
1.0
 70
     8
 71
     3
 72
    14
 73
    10
 74
     0
 42
0.0000000001
 43
0.0000000001
 40
0.0018294068385468
 40
0.0018294068385468
 40
0.0018294068385468
 40
0.0018294068385468
 40
0.9897152215128169
 40
0.9897152215128169
 40
1.726746399294252
 40
1.726746399294252
 40
2.115193497023455
 40
2.115193497023455
 40
2.312980959658919
 40
2.312980959658919
 40
2.312980959658919
 40
2.312980959658919
 10
-26.27623684648552
 20
-20.49828697328701
 30
0.0
 10
-28.56377188732256
 20
-18.31153299392576
 30
0.0
 10
-30.51170521571135
 20
-15.69256066774755
 30
0.0
 10
-33.07332562820398
 20
-10.58032046045423
 30
0.0
 10
-33.88791678253324
 20
-8.251184759576062
 30
0.0
 10
-34.65918595294307
 20
-4.569624609901325
 30
0.0
 10
-34.838498944305
 20
-3.280964793173211
 30
0.0
 10
-34.9752246882191
 20
-1.323629460215556
 30
0.0
 10
-34.99830750309172
 20
-0.6618620567193148
 30
0.0
 10
-34.99830750309172
 20
0.0
 30
0.0
  0
SPLINE
  5
B8
330
2
100
AcDbEntity
  8
GEB-VERDECKT
 48
25.0
100
AcDbSpline
210
0.0
220
0.0
230
1.0
 70
     8
 71
     3
 72
    20
 73
    16
 74
     0
 42
0.0000000001
 43
0.0000000001
 40
5.254421090868754
 40
5.254421090868754
 40
5.254421090868754
 40
5.254421090868754
 40
5.574293552616256
 40
5.574293552616256
 40
5.894352124910932
 40
5.894352124910932
 40
6.214559653870784
 40
6.214559653870784
 40
6.534834964456125
 40
6.534834964456125
 40
6.855082810771896
 40
6.855082810771896
 40
7.175213122277074
 40
7.175213122277074
 40
7.311949523490417
 40
7.311949523490417
 40
7.311949523490417
 40
7.311949523490417
 10
-27.19133729258397
 20
-21.19969812024738
 30
0.0
 10
-29.3762221072717
 20
-19.83755697243782
 30
0.0
 10
-31.34803183216957
 20
-18.11113449147478
 30
0.0
 10
-34.66817852589816
 20
-14.10314150098133
 30
0.0
 10
-36.01559389150509
 20
-11.82195246714434
 30
0.0
 10
-37.94936713079323
 20
-6.935375874512715
 30
0.0
 10
-38.53504993779643
 20
-4.330677461379877
 30
0.0
 10
-38.88487756378004
 20
0.9384816805236368
 30
0.0
 10
-38.64878988696034
 20
3.60205649045929
 30
0.0
 10
-37.37829934141257
 20
8.718000583740149
 30
0.0
 10
-36.34417351900788
 20
11.16951231682003
 30
0.0
 10
-33.58241228754446
 20
15.61166340689271
 30
0.0
 10
-31.85549156148579
 20
17.60169884789502
 30
0.0
 10
-29.02068707878107
 20
19.96899107911679
 30
0.0
 10
-28.12531355610474
 20
20.61742142947344
 30
0.0
 10
-27.19133729258397
 20
21.1996981202476
 30
0.0
  0
SPLINE
  5
B9
330
2
100
AcDbEntity
  8
GEB-VERDECKT
 48
25.0
100
AcDbSpline
210
0.0
220
0.0
230
1.0
 70
     8
 71
     3
 72
    26
 73
    22
 74
     0
 42
0.0000000001
 43
0.0000000001
 40
0.0000391708387172
 40
0.0000391708387172
 40
0.0000391708387172
 40
0.0000391708387172
 40
0.1016282074330208
 40
0.1016282074330208
 40
0.143454082853465
 40
0.143454082853465
 40
0.1521422978076768
 40
0.1521422978076768
 40
0.1572052970492714
 40
0.1572052970492714
 40
0.1610294660456817
 40
0.1610294660456817
 40
0.1649082037602255
 40
0.1649082037602255
 40
0.1705527000661301
 40
0.1705527000661301
 40
0.1822588238142513
 40
0.1822588238142513
 40
0.217930732171014
 40
0.217930732171014
 40
0.3305226454569128
 40
0.3305226454569128
 40
0.3305226454569128
 40
0.3305226454569128
 10
-28.04131361327154
 20
-20.49828697328701
 30
0.0
 10
-27.79082549689338
 20
-20.72313657095685
 30
0.0
 10
-27.57778285165102
 20
-20.90216910592358
 30
0.0
 10
-27.36054985257488
 20
-21.07595962340997
 30
0.0
 10
-27.27469534503825
 20
-21.14291605058349
 30
0.0
 10
-27.20679244507676
 20
-21.18979636417873
 30
0.0
 10
-27.19445073247527
 20
-21.19799303938714
 30
0.0
 10
-27.17835401738921
 20
-21.20747587246478
 30
0.0
 10
-27.17291725846553
 20
-21.21036537074713
 30
0.0
 10
-27.16576958977384
 20
-21.21311556308308
 30
0.0
 10
-27.16360991133729
 20
-21.21349177715081
 30
0.0
 10
-27.1613002055409
 20
-21.21246240068126
 30
0.0
 10
-27.16125483670897
 20
-21.21106488464852
 30
0.0
 10
-27.16313107405927
 20
-21.20613721318386
 30
0.0
 10
-27.16595078154796
 20
-21.20194555365879
 30
0.0
 10
-27.17664929642399
 20
-21.18799858332102
 30
0.0
 10
-27.18785278009796
 20
-21.17561460476668
 30
0.0
 10
-27.23200279102548
 20
-21.1287073445958
 30
0.0
 10
-27.28154455309709
 20
-21.08049192893668
 30
0.0
 10
-27.45005281457998
 20
-20.91810054297207
 30
0.0
 10
-27.64810763586615
 20
-20.73320837892095
 30
0.0
 10
-27.89385587837626
 20
-20.49828697328701
 30
0.0
  0
SPLINE
  5
BA
330
2
100
AcDbEntity
  8
GEB-VERDECKT
 48
25.0
100
AcDbSpline
210
0.0
220
0.0
230
1.0
 70
     8
 71
     3
 72
    16
 73
    12
 74
     0
 42
0.0000000001
 43
0.0000000001
 40
2.312980959658895
 40
2.312980959658895
 40
2.312980959658895
 40
2.312980959658895
 40
2.424023217695535
 40
2.424023217695535
 40
2.775165182250144
 40
2.775165182250144
 40
3.380209907883905
 40
3.380209907883905
 40
4.090837416909509
 40
4.090837416909509
 40
4.620656223541841
 40
4.620656223541841
 40
4.620656223541841
 40
4.620656223541841
 10
-37.03003700714646
 20
0.0
 30
0.0
 10
-37.03003700714646
 20
-0.371584003897965
 30
0.0
 10
-37.0227625571938
 20
-0.7431978420179349
 30
0.0
 10
-36.96218523592484
 20
-2.289113322379762
 30
0.0
 10
-36.84348055014664
 20
-3.459345214386075
 30
0.0
 10
-36.32360999548826
 20
-6.614733065851055
 30
0.0
 10
-35.78197120779919
 20
-8.567582580128828
 30
0.0
 10
-34.15632912772435
 20
-12.64131005784043
 30
0.0
 10
-33.0012577497622
 20
-14.7143233513259
 30
0.0
 10
-30.53873899153382
 20
-18.01933411710342
 30
0.0
 10
-29.35108118286496
 20
-19.32257965701876
 30
0.0
 10
-28.04131361327154
 20
-20.49828697328701
 30
0.0
  0
SPLINE
  5
BB
330
2
100
AcDbEntity
  8
GEB-VERDECKT
 48
25.0
100
AcDbSpline
210
0.0
220
0.0
230
1.0
 70
     8
 71
     3
 72
    14
 73
    10
 74
     0
 42
0.0000000001
 43
0.0000000001
 40
0.0018294068385547
 40
0.0018294068385547
 40
0.0018294068385547
 40
0.0018294068385547
 40
0.9897152215128242
 40
0.9897152215128242
 40
1.726746399294271
 40
1.726746399294271
 40
2.11519349702346
 40
2.11519349702346
 40
2.312980959658895
 40
2.312980959658895
 40
2.312980959658895
 40
2.312980959658895
 10
-28.04131361327154
 20
20.49828697328712
 30
0.0
 10
-30.47741263657042
 20
18.31153299392588
 30
0.0
 10
-32.4826694288488
 20
15.69256066774755
 30
0.0
 10
-35.09657019094573
 20
10.58032046045434
 30
0.0
 10
-35.91632270559194
 20
8.251184759576176
 30
0.0
 10
-36.69076364656962
 20
4.569624609901666
 30
0.0
 10
-36.87016932499137
 20
3.280964793173438
 30
0.0
 10
-37.00695963014459
 20
1.32362946021567
 30
0.0
 10
-37.03003700714646
 20
0.6618620567194285
 30
0.0
 10
-37.03003700714646
 20
0.0
 30
0.0
  0
SPLINE
  5
BC
330
2
100
AcDbEntity
  8
GEB-VERDECKT
 48
25.0
100
AcDbSpline
210
0.0
220
0.0
230
1.0
 70
     8
 71
     3
 72
    26
 73
    22
 74
     0
 42
0.0000000001
 43
0.0000000001
 40
0.0000391708387107
 40
0.0000391708387107
 40
0.0000391708387107
 40
0.0000391708387107
 40
0.1016282074330473
 40
0.1016282074330473
 40
0.143454082853291
 40
0.143454082853291
 40
0.1521422978074287
 40
0.1521422978074287
 40
0.1572052970488886
 40
0.1572052970488886
 40
0.1610294660453383
 40
0.1610294660453383
 40
0.1649082037599804
 40
0.1649082037599804
 40
0.1705527000659491
 40
0.1705527000659491
 40
0.1822588238141186
 40
0.1822588238141186
 40
0.2179307321709014
 40
0.2179307321709014
 40
0.3305226454568052
 40
0.3305226454568052
 40
0.3305226454568052
 40
0.3305226454568052
 10
-27.89385587837626
 20
20.49828697328712
 30
0.0
 10
-27.65864362384628
 20
20.72313657095708
 30
0.0
 10
-27.46709262562308
 20
20.9021691059238
 30
0.0
 10
-27.28608380353819
 20
21.07595962340986
 30
0.0
 10
-27.21688109178354
 20
21.14291605058349
 30
0.0
 10
-27.17540251657169
 20
21.18979636417885
 30
0.0
 10
-27.16858872914134
 20
21.19799303938726
 30
0.0
 10
-27.16250275404104
 20
21.20747587246478
 30
0.0
 10
-27.16117505531702
 20
21.21036537074724
 30
0.0
 10
-27.16188339251687
 20
21.21311556308331
 30
0.0
 10
-27.16316190318003
 20
21.21349177715092
 30
0.0
 10
-27.16788209689935
 20
21.21246240068138
 30
0.0
 10
-27.17120007344192
 20
21.21106488464864
 30
0.0
 10
-27.18085768310971
 20
21.20613721318398
 30
0.0
 10
-27.18784500448805
 20
21.2019455536589
 30
0.0
 10
-27.20974696303699
 20
21.18799858332113
 30
0.0
 10
-27.22744423167467
 20
21.17561460476691
 30
0.0
 10
-27.29251401536101
 20
21.1287073445958
 30
0.0
 10
-27.35450331114384
 20
21.08049192893679
 30
0.0
 10
-27.55880465672635
 20
20.91810054297184
 30
0.0
 10
-27.77960524908554
 20
20.73320837892061
 30
0.0
 10
-28.04131361327154
 20
20.49828697328712
 30
0.0
  0
SPLINE
  5
BD
330
2
100
AcDbEntity
  8
GEB-VERDECKT
 48
25.0
100
AcDbSpline
210
0.0
220
0.0
230
1.0
 70
     8
 71
     3
 72
    16
 73
    12
 74
     0
 42
0.0000000001
 43
0.0000000001
 40
2.312980959658919
 40
2.312980959658919
 40
2.312980959658919
 40
2.312980959658919
 40
2.424023217695567
 40
2.424023217695567
 40
2.775165182250199
 40
2.775165182250199
 40
3.380209907883995
 40
3.380209907883995
 40
4.090837416909633
 40
4.090837416909633
 40
4.620656223542009
 40
4.620656223542009
 40
4.620656223542009
 40
4.620656223542009
 10
-36.61592653498246
 20
0.0
 30
0.0
 10
-36.61592653498246
 20
0.3715840038980787
 30
0.0
 10
-36.60865154310022
 20
0.7431978420179349
 30
0.0
 10
-36.54808324501403
 20
2.289113322379876
 30
0.0
 10
-36.42936561193233
 20
3.459345214385962
 30
0.0
 10
-35.91082532545466
 20
6.614733065850941
 30
0.0
 10
-35.37128484589653
 20
8.567582580128828
 30
0.0
 10
-33.76712357217627
 20
12.64131005784043
 30
0.0
 10
-32.63410353840823
 20
14.71432335132579
 30
0.0
 10
-30.25892018007175
 20
18.01933411710354
 30
0.0
 10
-29.12374808806954
 20
19.32257965701888
 30
0.0
 10
-27.89385587837626
 20
20.49828697328712
 30
0.0
  0
SPLINE
  5
BE
330
2
100
AcDbEntity
  8
GEB-VERDECKT
 48
25.0
100
AcDbSpline
210
0.0
220
0.0
230
1.0
 70
     8
 71
     3
 72
    14
 73
    10
 74
     0
 42
0.0000000001
 43
0.0000000001
 40
0.0018294068385469
 40
0.0018294068385469
 40
0.0018294068385469
 40
0.0018294068385469
 40
0.9897152215128169
 40
0.9897152215128169
 40
1.726746399294252
 40
1.726746399294252
 40
2.115193497023455
 40
2.115193497023455
 40
2.312980959658919
 40
2.312980959658919
 40
2.312980959658919
 40
2.312980959658919
 10
-27.89385587837626
 20
-20.49828697328701
 30
0.0
 10
-30.18139091921341
 20
-18.31153299392576
 30
0.0
 10
-32.12932424760209
 20
-15.69256066774755
 30
0.0
 10
-34.6909446600946
 20
-10.58032046045423
 30
0.0
 10
-35.5055358144241
 20
-8.251184759576062
 30
0.0
 10
-36.27680498483392
 20
-4.569624609901325
 30
0.0
 10
-36.45611797619586
 20
-3.280964793173211
 30
0.0
 10
-36.59284372010984
 20
-1.323629460215556
 30
0.0
 10
-36.61592653498246
 20
-0.6618620567193148
 30
0.0
 10
-36.61592653498246
 20
0.0
 30
0.0
  0
LINE
  5
BF
330
2
100
AcDbEntity
  8
GEB-KONTUR-A
 48
25.0
100
AcDbLine
 10
9.392489002754132
 20
27.5
 30
0.0
 11
3.759079978556087
 21
27.5
 31
0.0
  0
LINE
  5
C0
330
2
100
AcDbEntity
  8
GEB-KONTUR-A
 48
25.0
100
AcDbLine
 10
9.392489002754132
 20
27.5
 30
0.0
 11
9.392489002754132
 21
24.428721160073
 31
0.0
  0
LINE
  5
C1
330
2
100
AcDbEntity
  8
GEB-VERDECKT
 48
25.0
100
AcDbLine
 10
0.4576751095803502
 20
25.5
 30
0.0
 11
-2.158985436406169
 21
25.5
 31
0.0
  0
LINE
  5
C2
330
2
100
AcDbEntity
  8
GEB-VERDECKT
 48
25.0
100
AcDbLine
 10
-11.74084694233624
 20
25.89763502716028
 30
0.0
 11
-11.74084694233624
 21
24.83319351191062
 31
0.0
  0
LINE
  5
C3
330
2
100
AcDbEntity
  8
GEB-VERDECKT
 48
25.0
100
AcDbLine
 10
-11.74084694233624
 20
24.83319351191062
 30
0.0
 11
-11.09379932958006
 21
24.83319351191062
 31
0.0
  0
LINE
  5
C4
330
2
100
AcDbEntity
  8
GEB-VERDECKT
 48
25.0
100
AcDbLine
 10
-11.09379932958006
 20
24.83319351191062
 30
0.0
 11
-11.09379932958006
 21
23.76315425190865
 31
0.0
  0
LINE
  5
C5
330
2
100
AcDbEntity
  8
GEB-VERDECKT
 48
25.0
100
AcDbLine
 10
-8.477138783593545
 20
27.5
 30
0.0
 11
-8.477138783593545
 21
23.76315425190865
 31
0.0
  0
ELLIPSE
  5
C6
330
2
100
AcDbEntity
  8
GEB-VERDECKT
 48
25.0
100
AcDbEllipse
 10
0.4576751095803502
 20
0.0
 30
0.0
 11
0.0000000000000222
 21
25.49999999999999
 31
0.0
210
0.0
220
0.0
230
1.0
 40
0.9659258262890665
 41
5.911973359541647
 42
6.654397254817526
  0
LINE
  5
C7
330
2
100
AcDbEntity
  8
GEB-VERDECKT
 48
25.0
100
AcDbLine
 10
-8.477138783593545
 20
23.76315425190865
 30
0.0
 11
-11.09379932958006
 21
23.76315425190865
 31
0.0
  0
ELLIPSE
  5
C8
330
2
100
AcDbEntity
  8
GEB-VERDECKT
 48
25.0
100
AcDbEllipse
 10
-2.158985436406169
 20
0.0
 30
0.0
 11
-0.0000000000000089
 21
25.49999999999999
 31
0.0
210
0.0
220
0.0
230
1.0
 40
0.9659258262890665
 41
5.911973359541647
 42
6.654397254817524
  0
LINE
  5
C9
330
2
100
AcDbEntity
  8
GEB-VERDECKT
 48
25.0
100
AcDbLine
 10
3.759079978556087
 20
27.5
 30
0.0
 11
-2.826358116535857
 21
27.5
 31
0.0
  0
LINE
  5
CA
330
2
100
AcDbEntity
  8
GEB-VERDECKT
 48
25.0
100
AcDbLine
 10
9.392489002754132
 20
24.428721160073
 30
0.0
 11
9.392489002754132
 21
23.76315425190865
 31
0.0
  0
LINE
  5
CB
330
2
100
AcDbEntity
  8
GEB-VERDECKT
 48
25.0
100
AcDbLine
 10
6.775828456767612
 20
23.76315425190865
 30
0.0
 11
9.392489002754132
 21
23.76315425190865
 31
0.0
  0
LINE
  5
CC
330
2
100
AcDbEntity
  8
GEB-VERDECKT
 48
25.0
100
AcDbLine
 10
6.775828456767612
 20
23.76315425190865
 30
0.0
 11
6.775828456767612
 21
24.83319351191062
 31
0.0
  0
LINE
  5
CD
330
2
100
AcDbEntity
  8
GEB-VERDECKT
 48
25.0
100
AcDbLine
 10
6.775828456767612
 20
24.83319351191062
 30
0.0
 11
6.12878084401143
 21
24.83319351191062
 31
0.0
  0
LINE
  5
CE
330
2
100
AcDbEntity
  8
GEB-VERDECKT
 48
25.0
100
AcDbLine
 10
6.12878084401143
 20
24.83319351191062
 30
0.0
 11
6.12878084401143
 21
25.89763502716028
 31
0.0
  0
LINE
  5
CF
330
2
100
AcDbEntity
  8
GEB-VERDECKT
 48
25.0
100
AcDbLine
 10
6.12878084401143
 20
25.89763502716028
 30
0.0
 11
-2.826358116535857
 21
25.89763502716028
 31
0.0
  0
LINE
  5
D0
330
2
100
AcDbEntity
  8
GEB-VERDECKT
 48
25.0
100
AcDbLine
 10
-20.69598590288365
 20
25.89763502716028
 30
0.0
 11
-11.74084694233624
 21
25.89763502716028
 31
0.0
  0
LINE
  5
D1
330
2
100
AcDbEntity
  8
GEB-VERDECKT
 48
25.0
100
AcDbLine
 10
-20.69598590288365
 20
27.5
 30
0.0
 11
-20.69598590288365
 21
25.89763502716028
 31
0.0
  0
LINE
  5
D2
330
2
100
AcDbEntity
  8
GEB-VERDECKT
 48
25.0
100
AcDbLine
 10
-15.95404054037067
 20
27.5
 30
0.0
 11
-20.69598590288365
 21
27.5
 31
0.0
  0
LINE
  5
D3
330
2
100
AcDbEntity
  8
GEB-VERDECKT
 48
25.0
100
AcDbLine
 10
-2.826358116535857
 20
27.5
 30
0.0
 11
-15.04817388251183
 21
27.5
 31
0.0
  0
LINE
  5
D4
330
2
100
AcDbEntity
  8
GEB-VERDECKT
 48
25.0
100
AcDbLine
 10
-2.826358116535857
 20
25.89763502716028
 30
0.0
 11
-2.826358116535857
 21
27.5
 31
0.0
  0
LINE
  5
D5
330
2
100
AcDbEntity
  8
GEB-VERDECKT
 48
25.0
100
AcDbLine
 10
-1.382528301098659
 20
23.07500000000004
 30
0.0
 11
-2.314219092894518
 21
23.07500000000004
 31
0.0
  0
LINE
  5
D6
330
2
100
AcDbEntity
  8
GEB-VERDECKT
 48
25.0
100
AcDbLine
 10
-1.382528301098659
 20
-23.07500000000004
 30
0.0
 11
-2.314219092894518
 21
-23.07500000000004
 31
0.0
  0
LINE
  5
D7
330
2
100
AcDbEntity
  8
GEB-VERDECKT
 48
25.0
100
AcDbLine
 10
-3.401316852898389
 20
25.5
 30
0.0
 11
-12.27881009991483
 21
25.5
 31
0.0
  0
LINE
  5
D8
330
2
100
AcDbEntity
  8
GEB-VERDECKT
 48
25.0
100
AcDbLine
 10
-3.401316852898162
 20
-25.49999999999989
 30
0.0
 11
-12.27881009991483
 21
-25.49999999999989
 31
0.0
  0
LINE
  5
D9
330
2
100
AcDbEntity
  8
GEB-VERDECKT
 48
25.0
100
AcDbLine
 10
-12.27881009991483
 20
29.85000000000002
 30
0.0
 11
-14.53053579230686
 21
29.85000000000002
 31
0.0
  0
LINE
  5
DA
330
2
100
AcDbEntity
  8
GEB-VERDECKT
 48
25.0
100
AcDbLine
 10
-12.27881009991483
 20
-29.84999999999991
 30
0.0
 11
-14.53053579230664
 21
-29.84999999999991
 31
0.0
  0
LINE
  5
DB
330
2
100
AcDbEntity
  8
GEB-VERDECKT
 48
25.0
100
AcDbLine
 10
-14.53053579230664
 20
25.5
 30
0.0
 11
-15.95404054037067
 21
25.5
 31
0.0
  0
LINE
  5
DC
330
2
100
AcDbEntity
  8
GEB-VERDECKT
 48
25.0
100
AcDbLine
 10
-14.53053579230664
 20
-25.49999999999989
 30
0.0
 11
-15.95404054037067
 21
-25.49999999999989
 31
0.0
  0
ELLIPSE
  5
DD
330
2
100
AcDbEntity
  8
GEB-VERDECKT
 48
25.0
100
AcDbEllipse
 10
-2.314219092894518
 20
0.0
 30
0.0
 11
0.0000000000000022
 21
-23.075
 31
0.0
210
0.0
220
0.0
230
1.0
 40
0.9659258262890663
 41
6.157629581119845
 42
9.550333686829119
  0
ELLIPSE
  5
DE
330
2
100
AcDbEntity
  8
GEB-VERDECKT
 48
25.0
100
AcDbEllipse
 10
-3.401316852898162
 20
0.0
 30
0.0
 11
0.0000000000000011
 21
-25.5
 31
0.0
210
0.0
220
0.0
230
1.0
 40
0.9659258262890663
 41
6.025529515577111
 42
9.682433752371853
  0
ELLIPSE
  5
DF
330
2
100
AcDbEntity
  8
GEB-VERDECKT
 48
25.0
100
AcDbEllipse
 10
-12.27881009991483
 20
0.0
 30
0.0
 11
-0.0000000000000053
 21
-25.5
 31
0.0
210
0.0
220
0.0
230
1.0
 40
0.9659258262890663
 41
6.208510463147586
 42
9.499452804801379
  0
ELLIPSE
  5
E0
330
2
100
AcDbEntity
  8
GEB-VERDECKT
 48
25.0
100
AcDbEllipse
 10
-12.27881009991483
 20
0.0
 30
0.0
 11
0.0000000000000113
 21
-29.85
 31
0.0
210
0.0
220
0.0
230
1.0
 40
0.9659258262890665
 41
0.0
 42
6.283185307179586
  0
ELLIPSE
  5
E1
330
2
100
AcDbEntity
  8
GEB-VERDECKT
 48
25.0
100
AcDbEllipse
 10
-14.53053579230664
 20
0.0
 30
0.0
 11
0.0000000000000113
 21
-29.85
 31
0.0
210
0.0
220
0.0
230
1.0
 40
0.9659258262890665
 41
0.0
 42
6.283185307179586
  0
ELLIPSE
  5
E2
330
2
100
AcDbEntity
  8
GEB-VERDECKT
 48
25.0
100
AcDbEllipse
 10
-14.53053579230664
 20
0.0
 30
0.0
 11
0.0000000000000028
 21
-25.49999999999999
 31
0.0
210
0.0
220
0.0
230
1.0
 40
0.9659258262890666
 41
6.254284802672056
 42
9.453678465276908
  0
ELLIPSE
  5
E3
330
2
100
AcDbEntity
  8
GEB-VERDECKT
 48
25.0
100
AcDbEllipse
 10
-15.04817388251183
 20
0.0
 30
0.0
 11
-0.0000000000000055
 21
27.5
 31
0.0
210
0.0
220
0.0
230
1.0
 40
0.9659258262890665
 41
0.0
 42
3.141592653589793
  0
ELLIPSE
  5
E4
330
2
100
AcDbEntity
  8
GEB-VERDECKT
 48
25.0
100
AcDbEllipse
 10
-2.806033049162351
 20
0.0
 30
0.0
 11
0.0000000000000033
 21
26.5
 31
0.0
210
0.0
220
0.0
230
1.0
 40
0.9659258262890661
 41
0.3565641975738227
 42
2.785028456015972
  0
ELLIPSE
  5
E5
330
2
100
AcDbEntity
  8
GEB-VERDECKT
 48
25.0
100
AcDbEllipse
 10
-2.158985436406169
 20
0.0
 30
0.0
 11
0.0000000000000033
 21
26.5
 31
0.0
210
0.0
220
0.0
230
1.0
 40
0.9659258262890661
 41
0.3565641975738227
 42
2.785028456015972
  0
ELLIPSE
  5
E6
330
2
100
AcDbEntity
  8
GEB-VERDECKT
 48
25.0
100
AcDbEllipse
 10
-2.158985436406169
 20
0.0
 30
0.0
 11
-0.0000000000000022
 21
-26.5
 31
0.0
210
0.0
220
0.0
230
1.0
 40
0.9659258262890666
 41
0.3565641975738226
 42
2.78502845601597
  0
ELLIPSE
  5
E7
330
2
100
AcDbEntity
  8
GEB-VERDECKT
 48
25.0
100
AcDbEllipse
 10
-2.806033049162351
 20
0.0
 30
0.0
 11
-0.0000000000000022
 21
-26.5
 31
0.0
210
0.0
220
0.0
230
1.0
 40
0.9659258262890666
 41
0.3565641975738226
 42
2.78502845601597
  0
ELLIPSE
  5
E8
330
2
100
AcDbEntity
  8
GEB-VERDECKT
 48
25.0
100
AcDbEllipse
 10
-2.806033048882341
 20
0.0000000008154757
 30
0.0
 11
0.0000000000000056
 21
27.49999999913447
 31
0.0
210
0.0
220
0.0
230
1.0
 40
0.9659258262890665
 41
5.938661820542896
 42
5.940132442160874
  0
ELLIPSE
  5
E9
330
2
100
AcDbEntity
  8
GEB-VERDECKT
 48
25.0
100
AcDbEllipse
 10
-2.806033052925386
 20
0.0000000108859695
 30
0.0
 11
0.0000000000000377
 21
-27.50000001156204
 31
0.0
210
0.0
220
0.0
230
1.0
 40
0.9659258262890665
 41
0.343052865018925
 42
0.3445234866362264
  0
ELLIPSE
  5
EA
330
2
100
AcDbEntity
  8
GEB-VERDECKT
 48
25.0
100
AcDbEllipse
 10
-2.806033049162351
 20
0.0
 30
0.0
 11
0.0000000000000144
 21
27.5
 31
0.0
210
0.0
220
0.0
230
1.0
 40
0.9659258262890665
 41
0.3430528650186688
 42
2.798539788571125
  0
ELLIPSE
  5
EB
330
2
100
AcDbEntity
  8
GEB-VERDECKT
 48
25.0
100
AcDbEllipse
 10
-11.76117200970975
 20
0.0
 30
0.0
 11
0.00000000000002
 21
27.50000000000001
 31
0.0
210
0.0
220
0.0
230
1.0
 40
0.9659258262890666
 41
0.3430528650186689
 42
2.798539788571127
  0
ELLIPSE
  5
EC
330
2
100
AcDbEntity
  8
GEB-VERDECKT
 48
25.0
100
AcDbEllipse
 10
-11.76117200970975
 20
0.0
 30
0.0
 11
-0.0000000000000167
 21
-27.5
 31
0.0
210
0.0
220
0.0
230
1.0
 40
0.9659258262890666
 41
0.3430528650186688
 42
2.798539788571125
  0
ELLIPSE
  5
ED
330
2
100
AcDbEntity
  8
GEB-VERDECKT
 48
25.0
100
AcDbEllipse
 10
-11.76117200970975
 20
0.0
 30
0.0
 11
-0.0000000000000043
 21
31.85
 31
0.0
210
0.0
220
0.0
230
1.0
 40
0.9659258262890665
 41
0.0
 42
3.141592653589793
  0
LINE
  5
EE
330
2
100
AcDbEntity
  8
GEB-KONTUR-A
 48
25.0
100
AcDbLine
 10
-15.04817388251183
 20
27.5
 30
0.0
 11
-15.95404054037067
 21
27.5
 31
0.0
  0
LINE
  5
EF
330
2
100
AcDbEntity
  8
GEB-KONTUR-A
 48
25.0
100
AcDbLine
 10
-15.04817388251183
 20
-27.5
 30
0.0
 11
-15.95404054037067
 21
-27.5
 31
0.0
  0
LINE
  5
F0
330
2
100
AcDbEntity
  8
GEB-KONTUR-A
 48
25.0
100
AcDbLine
 10
-11.76117200970975
 20
31.85000000000014
 30
0.0
 11
-15.04817388251183
 21
31.85000000000014
 31
0.0
  0
LINE
  5
F1
330
2
100
AcDbEntity
  8
GEB-KONTUR-A
 48
25.0
100
AcDbLine
 10
-11.76117200970975
 20
-31.84999999999991
 30
0.0
 11
-15.04817388251183
 21
-31.84999999999991
 31
0.0
  0
ELLIPSE
  5
F2
330
2
100
AcDbEntity
  8
GEB-KONTUR-A
 48
25.0
100
AcDbEllipse
 10
-2.314219092894518
 20
0.0
 30
0.0
 11
-0.0000000000000022
 21
23.075
 31
0.0
210
0.0
220
0.0
230
1.0
 40
0.9659258262890663
 41
0.1255557260597399
 42
3.016036927530052
  0
ELLIPSE
  5
F3
330
2
100
AcDbEntity
  8
GEB-KONTUR-A
 48
25.0
100
AcDbEllipse
 10
-3.401316852898389
 20
0.0
 30
0.0
 11
0.0000000000000133
 21
25.49999999999999
 31
0.0
210
0.0
220
0.0
230
1.0
 40
0.9659258262890666
 41
0.2576557916024754
 42
2.883936861987318
  0
ELLIPSE
  5
F4
330
2
100
AcDbEntity
  8
GEB-KONTUR-A
 48
25.0
100
AcDbEllipse
 10
-12.27881009991483
 20
0.0
 30
0.0
 11
-0.0000000000000056
 21
25.50000000000001
 31
0.0
210
0.0
220
0.0
230
1.0
 40
0.9659258262890663
 41
0.0746748440320001
 42
3.066917809557792
  0
ELLIPSE
  5
F5
330
2
100
AcDbEntity
  8
GEB-KONTUR-A
 48
25.0
100
AcDbEllipse
 10
-14.53053579230664
 20
0.0
 30
0.0
 11
0.0000000000000029
 21
25.49999999999999
 31
0.0
210
0.0
220
0.0
230
1.0
 40
0.9659258262890665
 41
0.0289005045075297
 42
3.112692149082263
  0
ELLIPSE
  5
F6
330
2
100
AcDbEntity
  8
GEB-KONTUR-A
 48
25.0
100
AcDbEllipse
 10
-15.95404054037067
 20
0.0
 30
0.0
 11
0.0000000000000097
 21
-25.50000000000001
 31
0.0
210
0.0
220
0.0
230
1.0
 40
0.9659258262890663
 41
0.0
 42
6.283185307179586
  0
ELLIPSE
  5
F7
330
2
100
AcDbEntity
  8
GEB-KONTUR-A
 48
25.0
100
AcDbEllipse
 10
-15.95404054037067
 20
0.0
 30
0.0
 11
0.0000000000000104
 21
-27.50000000000001
 31
0.0
210
0.0
220
0.0
230
1.0
 40
0.9659258262890665
 41
0.0
 42
6.283185307179586
  0
ELLIPSE
  5
F8
330
2
100
AcDbEntity
  8
GEB-KONTUR-A
 48
25.0
100
AcDbEllipse
 10
-15.04817388251183
 20
0.0
 30
0.0
 11
0.0000000000000088
 21
-27.5
 31
0.0
210
0.0
220
0.0
230
1.0
 40
0.9659258262890665
 41
0.0
 42
3.141592653589792
  0
ELLIPSE
  5
F9
330
2
100
AcDbEntity
  8
GEB-KONTUR-A
 48
25.0
100
AcDbEllipse
 10
-15.04817388251183
 20
0.0
 30
0.0
 11
0.0000000000000121
 21
-31.85
 31
0.0
210
0.0
220
0.0
230
1.0
 40
0.9659258262890665
 41
0.0
 42
6.283185307179586
  0
ELLIPSE
  5
FA
330
2
100
AcDbEntity
  8
GEB-KONTUR-A
 48
25.0
100
AcDbEllipse
 10
-2.806033049162351
 20
0.0
 30
0.0
 11
-0.0000000000000056
 21
-27.5
 31
0.0
210
0.0
220
0.0
230
1.0
 40
0.9659258262890665
 41
0.3445234866365983
 42
2.79706916695319
  0
ELLIPSE
  5
FB
330
2
100
AcDbEntity
  8
GEB-KONTUR-A
 48
25.0
100
AcDbEllipse
 10
-11.76117200970975
 20
0.0
 30
0.0
 11
-0.0000000000000124
 21
-31.85
 31
0.0
210
0.0
220
0.0
230
1.0
 40
0.9659258262890665
 41
0.0000000000000004
 42
3.141592653589793
  0
LINE
  5
FC
330
2
100
AcDbEntity
  8
GEB-KONTUR-A
 48
25.0
100
AcDbLine
 10
3.759079978556087
 20
-27.5
 30
0.0
 11
9.392489002754246
 21
-27.5
 31
0.0
  0
LINE
  5
FD
330
2
100
AcDbEntity
  8
GEB-KONTUR-A
 48
25.0
100
AcDbLine
 10
9.392489002754246
 20
-27.5
 30
0.0
 11
9.392489002754246
 21
-24.42872116007289
 31
0.0
  0
LINE
  5
FE
330
2
100
AcDbEntity
  8
GEB-VERDECKT
 48
25.0
100
AcDbLine
 10
0.4576751095804639
 20
-25.49999999999989
 30
0.0
 11
-2.158985436406169
 21
-25.49999999999989
 31
0.0
  0
LINE
  5
FF
330
2
100
AcDbEntity
  8
GEB-VERDECKT
 48
25.0
100
AcDbLine
 10
-15.04817388251183
 20
-27.5
 30
0.0
 11
-2.826358116535857
 21
-27.5
 31
0.0
  0
LINE
  5
100
330
2
100
AcDbEntity
  8
GEB-VERDECKT
 48
25.0
100
AcDbLine
 10
-20.69598590288365
 20
-27.5
 30
0.0
 11
-15.95404054037067
 21
-27.5
 31
0.0
  0
LINE
  5
101
330
2
100
AcDbEntity
  8
GEB-VERDECKT
 48
25.0
100
AcDbLine
 10
6.12878084401143
 20
-25.89763502716016
 30
0.0
 11
6.12878084401143
 21
-24.83319351191051
 31
0.0
  0
LINE
  5
102
330
2
100
AcDbEntity
  8
GEB-VERDECKT
 48
25.0
100
AcDbLine
 10
6.12878084401143
 20
-24.83319351191051
 30
0.0
 11
6.775828456767612
 21
-24.83319351191051
 31
0.0
  0
LINE
  5
103
330
2
100
AcDbEntity
  8
GEB-VERDECKT
 48
25.0
100
AcDbLine
 10
6.775828456767612
 20
-24.83319351191051
 30
0.0
 11
6.775828456767612
 21
-23.76315425190842
 31
0.0
  0
LINE
  5
104
330
2
100
AcDbEntity
  8
GEB-VERDECKT
 48
25.0
100
AcDbLine
 10
-2.826358116535857
 20
-27.5
 30
0.0
 11
3.759079978556087
 21
-27.5
 31
0.0
  0
LINE
  5
105
330
2
100
AcDbEntity
  8
GEB-VERDECKT
 48
25.0
100
AcDbLine
 10
-2.826358116535857
 20
-27.5
 30
0.0
 11
-2.826358116535857
 21
-25.89763502716016
 31
0.0
  0
LINE
  5
106
330
2
100
AcDbEntity
  8
GEB-VERDECKT
 48
25.0
100
AcDbLine
 10
-2.826358116535857
 20
-25.89763502716016
 30
0.0
 11
6.12878084401143
 21
-25.89763502716016
 31
0.0
  0
LINE
  5
107
330
2
100
AcDbEntity
  8
GEB-VERDECKT
 48
25.0
100
AcDbLine
 10
9.392489002754246
 20
-24.42872116007289
 30
0.0
 11
9.392489002754246
 21
-23.76315425190842
 31
0.0
  0
ELLIPSE
  5
108
330
2
100
AcDbEntity
  8
GEB-VERDECKT
 48
25.0
100
AcDbEllipse
 10
0.4576751095803502
 20
0.0
 30
0.0
 11
-0.0000000000000222
 21
-25.49999999999999
 31
0.0
210
0.0
220
0.0
230
1.0
 40
0.9659258262890665
 41
5.911973359541647
 42
6.654397254817526
  0
LINE
  5
109
330
2
100
AcDbEntity
  8
GEB-VERDECKT
 48
25.0
100
AcDbLine
 10
9.392489002754246
 20
-23.76315425190842
 30
0.0
 11
6.775828456767612
 21
-23.76315425190842
 31
0.0
  0
ELLIPSE
  5
10A
330
2
100
AcDbEntity
  8
GEB-VERDECKT
 48
25.0
100
AcDbEllipse
 10
-2.158985436406169
 20
0.0
 30
0.0
 11
0.0000000000000056
 21
-25.50000000000001
 31
0.0
210
0.0
220
0.0
230
1.0
 40
0.9659258262890663
 41
5.911973359541647
 42
6.654397254817524
  0
LINE
  5
10B
330
2
100
AcDbEntity
  8
GEB-VERDECKT
 48
25.0
100
AcDbLine
 10
-20.69598590288365
 20
-25.89763502716016
 30
0.0
 11
-20.69598590288365
 21
-27.5
 31
0.0
  0
LINE
  5
10C
330
2
100
AcDbEntity
  8
GEB-VERDECKT
 48
25.0
100
AcDbLine
 10
-8.477138783593431
 20
-27.5
 30
0.0
 11
-8.477138783593431
 21
-23.76315425190842
 31
0.0
  0
LINE
  5
10D
330
2
100
AcDbEntity
  8
GEB-VERDECKT
 48
25.0
100
AcDbLine
 10
-11.09379932958006
 20
-23.76315425190842
 30
0.0
 11
-8.477138783593431
 21
-23.76315425190842
 31
0.0
  0
LINE
  5
10E
330
2
100
AcDbEntity
  8
GEB-VERDECKT
 48
25.0
100
AcDbLine
 10
-11.09379932958006
 20
-23.76315425190842
 30
0.0
 11
-11.09379932958006
 21
-24.83319351191051
 31
0.0
  0
LINE
  5
10F
330
2
100
AcDbEntity
  8
GEB-VERDECKT
 48
25.0
100
AcDbLine
 10
-11.09379932958006
 20
-24.83319351191051
 30
0.0
 11
-11.74084694233624
 21
-24.83319351191051
 31
0.0
  0
LINE
  5
110
330
2
100
AcDbEntity
  8
GEB-VERDECKT
 48
25.0
100
AcDbLine
 10
-11.74084694233624
 20
-24.83319351191051
 30
0.0
 11
-11.74084694233624
 21
-25.89763502716016
 31
0.0
  0
LINE
  5
111
330
2
100
AcDbEntity
  8
GEB-VERDECKT
 48
25.0
100
AcDbLine
 10
-11.74084694233624
 20
-25.89763502716016
 30
0.0
 11
-20.69598590288365
 21
-25.89763502716016
 31
0.0
  0
ELLIPSE
  5
112
330
2
100
AcDbEntity
  8
GEB-KONTUR-A
 48
25.0
100
AcDbEllipse
 10
-1.382528301098659
 20
0.0
 30
0.0
 11
-0.00000000000001
 21
23.075
 31
0.0
210
0.0
220
0.0
230
1.0
 40
0.9659258262890663
 41
0.1583447217992967
 42
2.983247931790495
  0
LINE
  5
113
330
2
100
AcDbEntity
  8
GEB-VERDECKT
 48
25.0
100
AcDbLine
 10
-2.158985436406169
 20
-25.07499999999982
 30
0.0
 11
-1.382528301098659
 21
-25.07499999999982
 31
0.0
  0
LINE
  5
114
330
2
100
AcDbEntity
  8
GEB-VERDECKT
 48
25.0
100
AcDbLine
 10
-2.158985436406169
 20
25.07500000000005
 30
0.0
 11
-1.382528301098659
 21
25.07500000000005
 31
0.0
  0
ELLIPSE
  5
115
330
2
100
AcDbEntity
  8
GEB-VERDECKT
 48
25.0
100
AcDbEllipse
 10
-1.382528301098659
 20
0.0
 30
0.0
 11
-0.0000000000000155
 21
-23.075
 31
0.0
210
0.0
220
0.0
230
1.0
 40
0.9659258262890666
 41
6.124840585380289
 42
9.583122682568676
  0
ELLIPSE
  5
116
330
2
100
AcDbEntity
  8
GEB-VERDECKT
 48
25.0
100
AcDbEllipse
 10
-2.158985436406169
 20
0.0
 30
0.0
 11
0.0000000000000095
 21
-25.075
 31
0.0
210
0.0
220
0.0
230
1.0
 40
0.9659258262890665
 41
0.0
 42
6.283185307179586
  0
ELLIPSE
  5
117
330
2
100
AcDbEntity
  8
GEB-VERDECKT
 48
25.0
100
AcDbEllipse
 10
-1.382528301098659
 20
0.0
 30
0.0
 11
0.0000000000000095
 21
-25.075
 31
0.0
210
0.0
220
0.0
230
1.0
 40
0.9659258262890665
 41
0.0
 42
6.283185307179586
  0
ARC
  5
118
330
2
100
AcDbEntity
  8
GEB-VERDECKT
 48
25.0
100
AcDbCircle
 10
0.0000000000001137
 20
0.0
 30
0.0
 40
26.825
100
AcDbArc
 50
69.50415924118755
 51
290.4958407588125
  0
ARC
  5
119
330
2
100
AcDbEntity
  8
GEB-KONTUR-A
 48
25.0
100
AcDbCircle
 10
0.0000000000001137
 20
0.0
 30
0.0
 40
26.825
100
AcDbArc
 50
290.4958407588125
 51
69.50415924118755
  0
ARC
  5
11A
330
2
100
AcDbEntity
  8
GEB-KONTUR-A
 48
25.0
100
AcDbCircle
 10
0.0000000000001137
 20
0.0
 30
0.0
 40
25.075
100
AcDbArc
 50
311.2440566645727
 51
48.75594333542728
  0
ARC
  5
11B
330
2
100
AcDbEntity
  8
GEB-KONTUR-A
 48
25.0
100
AcDbCircle
 10
0.0000000000001137
 20
0.0
 30
0.0
 40
23.075
100
AcDbArc
 50
101.4396862274518
 51
258.5603137725481
  0
ELLIPSE
  5
11C
330
2
100
AcDbEntity
  8
GEB-KONTUR-A
 48
25.0
100
AcDbEllipse
 10
-2.148505131314095
 20
0.0
 30
0.0
 11
-0.00000000000002
 21
-23.075
 31
0.0
210
0.0
220
0.0
230
1.0
 40
0.9659258262890679
 41
3.273084455453115
 42
6.151693505316266
  0
LINE
  5
11D
330
2
100
AcDbEntity
  8
GEB-VERDECKT
 48
25.0
100
AcDbLine
 10
0.0
 20
25.07500000000005
 30
0.0
 11
-0.8544099058015035
 21
25.07500000000005
 31
0.0
  0
LINE
  5
11E
330
2
100
AcDbEntity
  8
GEB-VERDECKT
 48
25.0
100
AcDbLine
 10
-0.8544099058015035
 20
-25.07499999999982
 30
0.0
 11
0.0
 21
-25.07499999999982
 31
0.0
  0
LINE
  5
11F
330
2
100
AcDbEntity
  8
GEB-VERDECKT
 48
25.0
100
AcDbLine
 10
-0.8544099058015035
 20
25.07500000000016
 30
0.0
 11
-2.148505131314095
 21
25.07500000000016
 31
0.0
  0
LINE
  5
120
330
2
100
AcDbEntity
  8
GEB-VERDECKT
 48
25.0
100
AcDbLine
 10
-0.8544099058015035
 20
-25.07499999999982
 30
0.0
 11
-2.148505131314095
 21
-25.07499999999982
 31
0.0
  0
LINE
  5
121
330
2
100
AcDbEntity
  8
GEB-VERDECKT
 48
25.0
100
AcDbLine
 10
0.0
 20
23.07500000000004
 30
0.0
 11
-0.8544099058015035
 21
23.07500000000004
 31
0.0
  0
LINE
  5
122
330
2
100
AcDbEntity
  8
GEB-VERDECKT
 48
25.0
100
AcDbLine
 10
-0.8544099058015035
 20
-23.07500000000004
 30
0.0
 11
0.0
 21
-23.07500000000004
 31
0.0
  0
LINE
  5
123
330
2
100
AcDbEntity
  8
GEB-VERDECKT
 48
25.0
100
AcDbLine
 10
-0.8544099058015035
 20
23.07500000000004
 30
0.0
 11
-2.148505131314095
 21
23.07500000000004
 31
0.0
  0
LINE
  5
124
330
2
100
AcDbEntity
  8
GEB-VERDECKT
 48
25.0
100
AcDbLine
 10
-0.8544099058015035
 20
-23.07500000000004
 30
0.0
 11
-2.148505131314095
 21
-23.07500000000004
 31
0.0
  0
ARC
  5
125
330
2
100
AcDbEntity
  8
GEB-VERDECKT
 48
25.0
100
AcDbCircle
 10
0.0000000000001137
 20
0.0
 30
0.0
 40
25.075
100
AcDbArc
 50
48.75594333542728
 51
311.2440566645727
  0
ELLIPSE
  5
126
330
2
100
AcDbEntity
  8
GEB-VERDECKT
 48
25.0
100
AcDbEllipse
 10
-2.148505131314095
 20
0.0
 30
0.0
 11
-0.0000000000000059
 21
25.075
 31
0.0
210
0.0
220
0.0
230
1.0
 40
0.9659258262890681
 41
0.0
 42
6.283185307179586
  0
ARC
  5
127
330
2
100
AcDbEntity
  8
GEB-VERDECKT
 48
25.0
100
AcDbCircle
 10
0.0000000000001137
 20
0.0
 30
0.0
 40
23.07500000000001
100
AcDbArc
 50
258.5603137725481
 51
101.4396862274518
  0
ELLIPSE
  5
128
330
2
100
AcDbEntity
  8
GEB-VERDECKT
 48
25.0
100
AcDbEllipse
 10
-2.148505131314095
 20
0.0
 30
0.0
 11
-0.0000000000000011
 21
23.075
 31
0.0
210
0.0
220
0.0
230
1.0
 40
0.9659258262890679
 41
3.010100851726472
 42
6.414677109042907
  0
CIRCLE
  5
129
330
2
100
AcDbEntity
  8
GEB-VERDECKT
 48
25.0
100
AcDbCircle
 10
0.0000000000001137
 20
0.0
 30
0.0
 40
24.0049426148947
  0
TEXT
  5
12A
330
2
100
AcDbEntity
  8
GEB-TEXT
100
AcDbText
 10
-33.99869489501478
 20
-42.35000000000002
 30
0.0
 40
3.5
  1
Bogen PP-MD 15G d50
 72
     1
 11
-8.314520270185312
 21
-42.35000000000002
 31
0.0
100
AcDbText
  0
TEXT
  5
12C
330
2
100
AcDbEntity
  8
GEB-TEXT
100
AcDbText
 10
-27.06673718696567
 20
-36.85000000000002
 30
0.0
 40
3.5
  1
Geberit Silent PP
 72
     1
 11
-8.314520270185312
 21
-36.85000000000002
 31
0.0
100
AcDbText
  0
TEXT
  5
12D
330
2
100
AcDbEntity
  8
GEB-ART-NR
100
AcDbText
 10
-32.48996506983091
 20
-48.69278125428024
 30
0.0
 40
3.5
  1
GEB-ART-NR 390.220
 72
     1
 11
-7.76196370557443
 21
-48.69278125428024
 31
0.0
100
AcDbText
  0
ENDSEC
  0
SECTION
  2
OBJECTS
  0
DICTIONARY
  5
9
330
0
100
AcDbDictionary
281
     1
  3
ACAD_2007HEADERVARS_RT
350
15C
  3
ACAD_COLOR
350
44
  3
ACAD_GROUP
350
31
  3
ACAD_LAYOUT
350
16
  3
ACAD_MATERIAL
350
B
  3
ACAD_MLEADERSTYLE
350
47
  3
ACAD_MLINESTYLE
350
32
  3
ACAD_PLOTSETTINGS
350
33
  3
ACAD_PLOTSTYLENAME
350
8
  3
ACAD_SCALELIST
350
45
  3
ACAD_TABLESTYLE
350
46
  3
ACAD_VISUALSTYLE
350
2B
  3
ACDB_RECOMPOSE_DATA
350
15B
  3
AcDbVariableDictionary
350
131
  0
DICTIONARY
  5
2C
330
28
100
AcDbDictionary
280
     1
281
     1
  0
DICTIONARY
  5
1C
330
1B
100
AcDbDictionary
280
     1
281
     1
  3
ACAD_LAYERFILTERS
360
1D
  3
ACLYDICTIONARY
360
1E
  0
DICTIONARY
  5
3
330
2
100
AcDbDictionary
280
     1
281
     1
  3
ACAD_SORTENTS
360
12F
  0
DICTIONARY
  5
15C
102
{ACAD_REACTORS
330
9
102
}
330
9
100
AcDbDictionary
281
     1
  3
DIMARCSYM
350
15D
  3
DIMLTEX1
350
15F
  3
DIMLTEX2
350
160
  3
DIMLTYPE
350
15E
  0
DICTIONARY
  5
44
102
{ACAD_REACTORS
330
9
102
}
330
9
100
AcDbDictionary
281
     1
  0
DICTIONARY
  5
31
102
{ACAD_REACTORS
330
9
102
}
330
9
100
AcDbDictionary
281
     1
  0
DICTIONARY
  5
16
102
{ACAD_REACTORS
330
9
102
}
330
9
100
AcDbDictionary
281
     1
  3
Layout1
350
1A
  3
Model
350
15
  0
DICTIONARY
  5
B
102
{ACAD_REACTORS
330
9
102
}
330
9
100
AcDbDictionary
281
     1
  3
ByBlock
350
3C
  3
ByLayer
350
34
  3
Global
350
A
  0
DICTIONARY
  5
47
102
{ACAD_REACTORS
330
9
102
}
330
9
100
AcDbDictionary
281
     1
  3
Standard
350
14F
  0
DICTIONARY
  5
32
102
{ACAD_REACTORS
330
9
102
}
330
9
100
AcDbDictionary
281
     1
  3
Standard
350
48
  0
DICTIONARY
  5
33
102
{ACAD_REACTORS
330
9
102
}
330
9
100
AcDbDictionary
281
     1
  0
ACDBDICTIONARYWDFLT
  5
8
102
{ACAD_REACTORS
330
9
102
}
330
9
100
AcDbDictionary
281
     1
  3
Normal
350
7
100
AcDbDictionaryWithDefault
340
7
  0
DICTIONARY
  5
45
102
{ACAD_REACTORS
330
9
102
}
330
9
100
AcDbDictionary
281
     1
  3
A0
350
4D
  3
A1
350
4E
  3
A2
350
4F
  3
A3
350
50
  3
A4
350
51
  3
A5
350
52
  3
A6
350
53
  3
A7
350
54
  3
A8
350
55
  3
A9
350
56
  3
B0
350
57
  3
B1
350
58
  3
B2
350
59
  3
B3
350
5A
  3
B4
350
5B
  3
B5
350
5C
  3
B6
350
5D
  3
B7
350
5E
  3
B8
350
5F
  3
B9
350
60
  3
C0
350
61
  3
C1
350
62
  3
C2
350
63
  3
C3
350
64
  3
C4
350
65
  3
C5
350
66
  3
C6
350
67
  3
C7
350
68
  3
C8
350
69
  3
C9
350
6A
  3
D0
350
6B
  3
D1
350
6C
  3
D2
350
6D
  0
DICTIONARY
  5
46
102
{ACAD_REACTORS
330
9
102
}
330
9
100
AcDbDictionary
281
     1
  3
Standard
350
49
  0
DICTIONARY
  5
2B
102
{ACAD_REACTORS
330
9
102
}
330
9
100
AcDbDictionary
281
     1
  3
2dWireframe
350
2A
  3
Basic
350
13E
  3
Brighten
350
142
  3
ColorChange
350
146
  3
Conceptual
350
140
  3
Dim
350
141
  3
EdgeColorOff
350
14E
  3
Facepattern
350
145
  3
Flat
350
13A
  3
FlatWithEdges
350
13B
  3
Gouraud
350
13C
  3
GouraudWithEdges
350
13D
  3
Hidden
350
13F
  3
JitterOff
350
14C
  3
Linepattern
350
144
  3
OverhangOff
350
14D
  3
Realistic
350
4B
  3
Shaded
350
14B
  3
Shaded with edges
350
14A
  3
Shades of Gray
350
147
  3
Sketchy
350
148
  3
Thicken
350
143
  3
Wireframe
350
4C
  3
X-Ray
350
149
  0
XRECORD
  5
15B
102
{ACAD_REACTORS
330
9
102
}
330
9
100
AcDbXrecord
280
     1
 90
        1
330
49
  0
DICTIONARY
  5
131
102
{ACAD_REACTORS
330
9
102
}
330
9
100
AcDbDictionary
281
     1
  3
CANNOSCALE
350
135
  3
CMLEADERSTYLE
350
133
  3
CTABLESTYLE
350
132
  3
DIMASSOC
350
158
  3
HIDETEXT
350
157
  3
INDEXCTL
350
156
  3
LAYEREVAL
350
137
  3
LAYERNOTIFY
350
138
  3
LIGHTINGUNITS
350
136
  3
MSLTSCALE
350
134
  3
SORTENTS
350
155
  3
XCLIPFRAME
350
159
  0
DICTIONARY
  5
1D
102
{ACAD_REACTORS
330
1C
102
}
330
1C
100
AcDbDictionary
281
     1
  0
DICTIONARY
  5
1E
102
{ACAD_REACTORS
330
1C
102
}
330
1C
100
AcDbDictionary
281
     1
1001
ACAD
1000
<All
  0
SORTENTSTABLE
  5
12F
102
{ACAD_REACTORS
330
3
102
}
330
3
100
AcDbSortentsTable
330
2
331
B8
  5
EB
331
79
  5
127
331
C0
  5
E3
331
81
  5
121
331
F7
  5
AC
331
FF
  5
A4
331
89
  5
11A
331
C8
  5
DB
331
107
  5
9C
331
D0
  5
D3
331
91
  5
112
331
10F
  5
94
331
D8
  5
CB
331
99
  5
10A
331
E0
  5
C3
331
A1
  5
102
331
117
  5
8C
331
11F
  5
83
331
A9
  5
FA
331
E8
  5
BB
331
B1
  5
F2
331
127
  5
79
331
6E
  5
129
331
F0
  5
B3
331
7A
  5
126
331
B9
  5
EA
331
F8
  5
AB
331
C1
  5
E2
331
82
  5
120
331
C9
  5
DA
331
8A
  5
119
331
100
  5
A3
331
D1
  5
D2
331
92
  5
111
331
108
  5
9B
331
110
  5
93
331
9A
  5
109
331
D9
  5
CA
331
118
  5
8B
331
E1
  5
C2
331
A2
  5
101
331
120
  5
82
331
E9
  5
BA
331
AA
  5
F9
331
B2
  5
F1
331
128
  5
75
331
BA
  5
E9
331
7B
  5
125
331
F1
  5
B2
331
C2
  5
E1
331
83
  5
11F
331
F9
  5
AA
331
101
  5
A2
331
8B
  5
118
331
CA
  5
D9
331
109
  5
9A
331
D2
  5
D1
331
93
  5
110
331
DA
  5
C9
331
9B
  5
108
331
111
  5
92
331
E2
  5
C1
331
A3
  5
100
331
119
  5
8A
331
121
  5
81
331
AB
  5
F8
331
EA
  5
B9
331
129
  5
6E
331
B3
  5
F0
331
F2
  5
B1
331
7C
  5
124
331
BB
  5
E8
331
FA
  5
A9
331
C3
  5
E0
331
84
  5
11E
331
CB
  5
D8
331
8C
  5
117
331
102
  5
A1
331
D3
  5
D0
331
94
  5
10F
331
10A
  5
99
331
112
  5
91
331
9C
  5
107
331
DB
  5
C8
331
11A
  5
89
331
E3
  5
C0
331
A4
  5
FF
331
EB
  5
B8
331
AC
  5
F7
331
122
  5
80
331
B4
  5
EF
331
12A
  5
12D
331
BC
  5
E7
331
F3
  5
B0
331
FB
  5
A8
331
85
  5
11D
331
C4
  5
DF
331
103
  5
A0
331
8D
  5
116
331
CC
  5
D7
331
10B
  5
98
331
D4
  5
CF
331
95
  5
10E
331
DC
  5
C7
331
9D
  5
106
331
113
  5
90
331
E4
  5
BF
331
A5
  5
FE
331
11B
  5
88
331
123
  5
7F
331
AD
  5
F6
331
EC
  5
B7
331
B5
  5
EE
331
F4
  5
AF
331
BD
  5
E6
331
FC
  5
A7
331
C5
  5
DE
331
CD
  5
D6
331
8E
  5
115
331
104
  5
9F
331
10C
  5
97
331
96
  5
10D
331
D5
  5
CE
331
114
  5
8F
331
9E
  5
105
331
DD
  5
C6
331
11C
  5
87
331
E5
  5
BE
331
A6
  5
FD
331
ED
  5
B6
331
AE
  5
F5
331
124
  5
7C
331
B6
  5
ED
331
BE
  5
E5
331
7F
  5
123
331
F5
  5
AE
331
FD
  5
A6
331
87
  5
11C
331
C6
  5
DD
331
105
  5
9E
331
8F
  5
114
331
CE
  5
D5
331
10D
  5
96
331
D6
  5
CD
331
97
  5
10C
331
DE
  5
C5
331
9F
  5
104
331
115
  5
8E
331
11D
  5
85
331
A7
  5
FC
331
E6
  5
BD
331
125
  5
7B
331
AF
  5
F4
331
EE
  5
B5
331
12D
  5
12A
331
B7
  5
EC
331
F6
  5
AD
331
BF
  5
E4
331
80
  5
122
331
FE
  5
A5
331
C7
  5
DC
331
88
  5
11B
331
CF
  5
D4
331
90
  5
113
331
106
  5
9D
331
10E
  5
95
331
D7
  5
CC
331
98
  5
10B
331
116
  5
8D
331
A0
  5
103
331
DF
  5
C4
331
11E
  5
84
331
E7
  5
BC
331
A8
  5
FB
331
EF
  5
B4
331
B0
  5
F3
331
126
  5
7A
331
75
  5
128
  0
XRECORD
  5
15D
102
{ACAD_REACTORS
330
15C
102
}
330
15C
100
AcDbXrecord
280
     1
 70
     1
  0
XRECORD
  5
15F
102
{ACAD_REACTORS
330
15C
102
}
330
15C
100
AcDbXrecord
280
     1
340
24
  0
XRECORD
  5
160
102
{ACAD_REACTORS
330
15C
102
}
330
15C
100
AcDbXrecord
280
     1
340
24
  0
XRECORD
  5
15E
102
{ACAD_REACTORS
330
15C
102
}
330
15C
100
AcDbXrecord
280
     1
340
24
  0
LAYOUT
  5
1A
102
{ACAD_XDICTIONARY
360
164
102
}
102
{ACAD_REACTORS
330
16
102
}
330
16
100
AcDbPlotSettings
  1

  2
\\le-server\HP LaserJet 2100
  4

  6

 40
0.0
 41
0.0
 42
0.0
 43
0.0
 44
0.0
 45
0.0
 46
0.0
 47
0.0
 48
0.0
 49
0.0
140
0.0
141
0.0
142
1.0
143
1.0
 70
   688
 72
     0
 73
     0
 74
     5
  7

 75
    16
147
1.0
148
0.0
149
0.0
100
AcDbLayout
  1
Layout1
 70
     1
 71
     1
 10
0.0
 20
0.0
 11
1189.0
 21
840.9999999999998
 12
0.0
 22
0.0
 32
0.0
 14
0.0
 24
0.0
 34
0.0
 15
1189.0
 25
840.9999999999998
 35
0.0
146
0.0
 13
0.0
 23
0.0
 33
0.0
 16
1.0
 26
0.0
 36
0.0
 17
0.0
 27
1.0
 37
0.0
 76
     0
330
17
  0
LAYOUT
  5
15
102
{ACAD_XDICTIONARY
360
162
102
}
102
{ACAD_REACTORS
330
16
102
}
330
16
100
AcDbPlotSettings
  1

  2
\\le-server\HP LaserJet 2100
  4

  6

 40
0.0
 41
0.0
 42
0.0
 43
0.0
 44
0.0
 45
0.0
 46
0.0
 47
0.0
 48
0.0
 49
0.0
140
0.0
141
0.0
142
1.0
143
1.0
 70
  1712
 72
     0
 73
     0
 74
     0
  7

 75
     0
147
1.0
148
0.0
149
0.0
100
AcDbLayout
  1
Model
 70
     1
 71
     0
 10
0.0
 20
0.0
 11
12.0
 21
9.0
 12
0.0
 22
0.0
 32
0.0
 14
0.0
 24
0.0
 34
0.0
 15
0.0
 25
0.0
 35
0.0
146
0.0
 13
0.0
 23
0.0
 33
0.0
 16
1.0
 26
0.0
 36
0.0
 17
0.0
 27
1.0
 37
0.0
 76
     0
330
2
331
29
  0
MATERIAL
  5
3C
102
{ACAD_XDICTIONARY
360
3D
102
}
102
{ACAD_REACTORS
330
B
102
}
330
B
100
AcDbMaterial
  1
ByBlock
 72
     0
 43
0.0208333333333333
 43
0.0
 43
0.0
 43
0.0
 43
0.0
 43
0.0208333333333333
 43
0.0
 43
0.0
 43
0.0
 43
0.0
 43
1.0
 43
0.0
 43
0.0
 43
0.0
 43
0.0
 43
1.0
 77
     0
 47
0.0208333333333333
 47
0.0
 47
0.0
 47
0.0
 47
0.0
 47
0.0208333333333333
 47
0.0
 47
0.0
 47
0.0
 47
0.0
 47
1.0
 47
0.0
 47
0.0
 47
0.0
 47
0.0
 47
1.0
171
     0
 49
0.0208333333333333
 49
0.0
 49
0.0
 49
0.0
 49
0.0
 49
0.0208333333333333
 49
0.0
 49
0.0
 49
0.0
 49
0.0
 49
1.0
 49
0.0
 49
0.0
 49
0.0
 49
0.0
 49
1.0
175
     0
142
0.0208333333333333
142
0.0
142
0.0
142
0.0
142
0.0
142
0.0208333333333333
142
0.0
142
0.0
142
0.0
142
0.0
142
1.0
142
0.0
142
0.0
142
0.0
142
0.0
142
1.0
179
     0
144
0.0208333333333333
144
0.0
144
0.0
144
0.0
144
0.0
144
0.0208333333333333
144
0.0
144
0.0
144
0.0
144
0.0
144
1.0
144
0.0
144
0.0
144
0.0
144
0.0
144
1.0
147
0.0208333333333333
147
0.0
147
0.0
147
0.0
147
0.0
147
0.0208333333333333
147
0.0
147
0.0
147
0.0
147
0.0
147
1.0
147
0.0
147
0.0
147
0.0
147
0.0
147
1.0
  0
MATERIAL
  5
34
102
{ACAD_XDICTIONARY
360
35
102
}
102
{ACAD_REACTORS
330
B
102
}
330
B
100
AcDbMaterial
  1
ByLayer
 72
     0
 43
0.0208333333333333
 43
0.0
 43
0.0
 43
0.0
 43
0.0
 43
0.0208333333333333
 43
0.0
 43
0.0
 43
0.0
 43
0.0
 43
1.0
 43
0.0
 43
0.0
 43
0.0
 43
0.0
 43
1.0
 77
     0
 47
0.0208333333333333
 47
0.0
 47
0.0
 47
0.0
 47
0.0
 47
0.0208333333333333
 47
0.0
 47
0.0
 47
0.0
 47
0.0
 47
1.0
 47
0.0
 47
0.0
 47
0.0
 47
0.0
 47
1.0
171
     0
 49
0.0208333333333333
 49
0.0
 49
0.0
 49
0.0
 49
0.0
 49
0.0208333333333333
 49
0.0
 49
0.0
 49
0.0
 49
0.0
 49
1.0
 49
0.0
 49
0.0
 49
0.0
 49
0.0
 49
1.0
175
     0
142
0.0208333333333333
142
0.0
142
0.0
142
0.0
142
0.0
142
0.0208333333333333
142
0.0
142
0.0
142
0.0
142
0.0
142
1.0
142
0.0
142
0.0
142
0.0
142
0.0
142
1.0
179
     0
144
0.0208333333333333
144
0.0
144
0.0
144
0.0
144
0.0
144
0.0208333333333333
144
0.0
144
0.0
144
0.0
144
0.0
144
1.0
144
0.0
144
0.0
144
0.0
144
0.0
144
1.0
147
0.0208333333333333
147
0.0
147
0.0
147
0.0
147
0.0
147
0.0208333333333333
147
0.0
147
0.0
147
0.0
147
0.0
147
1.0
147
0.0
147
0.0
147
0.0
147
0.0
147
1.0
  0
MATERIAL
  5
A
102
{ACAD_XDICTIONARY
360
C
102
}
102
{ACAD_REACTORS
330
B
102
}
330
B
100
AcDbMaterial
  1
Global
 72
     0
 43
0.0208333333333333
 43
0.0
 43
0.0
 43
0.0
 43
0.0
 43
0.0208333333333333
 43
0.0
 43
0.0
 43
0.0
 43
0.0
 43
1.0
 43
0.0
 43
0.0
 43
0.0
 43
0.0
 43
1.0
 77
     0
 47
0.0208333333333333
 47
0.0
 47
0.0
 47
0.0
 47
0.0
 47
0.0208333333333333
 47
0.0
 47
0.0
 47
0.0
 47
0.0
 47
1.0
 47
0.0
 47
0.0
 47
0.0
 47
0.0
 47
1.0
171
     0
 49
0.0208333333333333
 49
0.0
 49
0.0
 49
0.0
 49
0.0
 49
0.0208333333333333
 49
0.0
 49
0.0
 49
0.0
 49
0.0
 49
1.0
 49
0.0
 49
0.0
 49
0.0
 49
0.0
 49
1.0
175
     0
142
0.0208333333333333
142
0.0
142
0.0
142
0.0
142
0.0
142
0.0208333333333333
142
0.0
142
0.0
142
0.0
142
0.0
142
1.0
142
0.0
142
0.0
142
0.0
142
0.0
142
1.0
179
     0
144
0.0208333333333333
144
0.0
144
0.0
144
0.0
144
0.0
144
0.0208333333333333
144
0.0
144
0.0
144
0.0
144
0.0
144
1.0
144
0.0
144
0.0
144
0.0
144
0.0
144
1.0
147
0.0208333333333333
147
0.0
147
0.0
147
0.0
147
0.0
147
0.0208333333333333
147
0.0
147
0.0
147
0.0
147
0.0
147
1.0
147
0.0
147
0.0
147
0.0
147
0.0
147
1.0
  0
MLEADERSTYLE
  5
14F
102
{ACAD_REACTORS
330
47
102
}
330
47
100
AcDbMLeaderStyle
170
     2
171
     1
172
     0
 90
        2
 40
0.0
 41
0.0
173
     1
 91
-1056964608
340
24
 92
       -2
290
     1
 42
2.0
291
     1
 43
0.36
  3
Standard
 44
4.0
300

342
21
174
     1
178
     6
175
     1
176
     0
 93
-1056964608
 45
4.0
292
     0
297
     0
 46
4.0
 94
-1056964608
 47
1.0
 49
1.0
140
1.0
293
     1
141
0.0
294
     1
177
     0
142
1.0
295
     0
296
     0
143
0.125
1001
ACAD_MLEADERVER
1070
     2
  0
MLINESTYLE
  5
48
102
{ACAD_REACTORS
330
32
102
}
330
32
100
AcDbMlineStyle
  2
STANDARD
 70
     0
  3

 62
   256
 51
90.0
 52
90.0
 71
     2
 49
0.5
 62
   256
  6
BYLAYER
 49
-0.5
 62
   256
  6
BYLAYER
  0
ACDBPLACEHOLDER
  5
7
102
{ACAD_REACTORS
330
8
102
}
330
8
  0
SCALE
  5
4D
102
{ACAD_REACTORS
330
45
102
}
330
45
100
AcDbScale
 70
     0
300
1:1
140
1.0
141
1.0
290
     1
  0
SCALE
  5
4E
102
{ACAD_REACTORS
330
45
102
}
330
45
100
AcDbScale
 70
     0
300
1:2
140
1.0
141
2.0
290
     0
  0
SCALE
  5
4F
102
{ACAD_REACTORS
330
45
102
}
330
45
100
AcDbScale
 70
     0
300
1:4
140
1.0
141
4.0
290
     0
  0
SCALE
  5
50
102
{ACAD_REACTORS
330
45
102
}
330
45
100
AcDbScale
 70
     0
300
1:5
140
1.0
141
5.0
290
     0
  0
SCALE
  5
51
102
{ACAD_REACTORS
330
45
102
}
330
45
100
AcDbScale
 70
     0
300
1:8
140
1.0
141
8.0
290
     0
  0
SCALE
  5
52
102
{ACAD_REACTORS
330
45
102
}
330
45
100
AcDbScale
 70
     0
300
1:10
140
1.0
141
10.0
290
     0
  0
SCALE
  5
53
102
{ACAD_REACTORS
330
45
102
}
330
45
100
AcDbScale
 70
     0
300
1:16
140
1.0
141
16.0
290
     0
  0
SCALE
  5
54
102
{ACAD_REACTORS
330
45
102
}
330
45
100
AcDbScale
 70
     0
300
1:20
140
1.0
141
20.0
290
     0
  0
SCALE
  5
55
102
{ACAD_REACTORS
330
45
102
}
330
45
100
AcDbScale
 70
     0
300
1:30
140
1.0
141
30.0
290
     0
  0
SCALE
  5
56
102
{ACAD_REACTORS
330
45
102
}
330
45
100
AcDbScale
 70
     0
300
1:40
140
1.0
141
40.0
290
     0
  0
SCALE
  5
57
102
{ACAD_REACTORS
330
45
102
}
330
45
100
AcDbScale
 70
     0
300
1:50
140
1.0
141
50.0
290
     0
  0
SCALE
  5
58
102
{ACAD_REACTORS
330
45
102
}
330
45
100
AcDbScale
 70
     0
300
1:100
140
1.0
141
100.0
290
     0
  0
SCALE
  5
59
102
{ACAD_REACTORS
330
45
102
}
330
45
100
AcDbScale
 70
     0
300
2:1
140
2.0
141
1.0
290
     0
  0
SCALE
  5
5A
102
{ACAD_REACTORS
330
45
102
}
330
45
100
AcDbScale
 70
     0
300
4:1
140
4.0
141
1.0
290
     0
  0
SCALE
  5
5B
102
{ACAD_REACTORS
330
45
102
}
330
45
100
AcDbScale
 70
     0
300
8:1
140
8.0
141
1.0
290
     0
  0
SCALE
  5
5C
102
{ACAD_REACTORS
330
45
102
}
330
45
100
AcDbScale
 70
     0
300
10:1
140
10.0
141
1.0
290
     0
  0
SCALE
  5
5D
102
{ACAD_REACTORS
330
45
102
}
330
45
100
AcDbScale
 70
     0
300
100:1
140
100.0
141
1.0
290
     0
  0
SCALE
  5
5E
102
{ACAD_REACTORS
330
45
102
}
330
45
100
AcDbScale
 70
     0
300
1/128" = 1'-0"
140
0.0078125
141
12.0
290
     0
  0
SCALE
  5
5F
102
{ACAD_REACTORS
330
45
102
}
330
45
100
AcDbScale
 70
     0
300
1/64" = 1'-0"
140
0.015625
141
12.0
290
     0
  0
SCALE
  5
60
102
{ACAD_REACTORS
330
45
102
}
330
45
100
AcDbScale
 70
     0
300
1/32" = 1'-0"
140
0.03125
141
12.0
290
     0
  0
SCALE
  5
61
102
{ACAD_REACTORS
330
45
102
}
330
45
100
AcDbScale
 70
     0
300
1/16" = 1'-0"
140
0.0625
141
12.0
290
     0
  0
SCALE
  5
62
102
{ACAD_REACTORS
330
45
102
}
330
45
100
AcDbScale
 70
     0
300
3/32" = 1'-0"
140
0.09375
141
12.0
290
     0
  0
SCALE
  5
63
102
{ACAD_REACTORS
330
45
102
}
330
45
100
AcDbScale
 70
     0
300
1/8" = 1'-0"
140
0.125
141
12.0
290
     0
  0
SCALE
  5
64
102
{ACAD_REACTORS
330
45
102
}
330
45
100
AcDbScale
 70
     0
300
3/16" = 1'-0"
140
0.1875
141
12.0
290
     0
  0
SCALE
  5
65
102
{ACAD_REACTORS
330
45
102
}
330
45
100
AcDbScale
 70
     0
300
1/4" = 1'-0"
140
0.25
141
12.0
290
     0
  0
SCALE
  5
66
102
{ACAD_REACTORS
330
45
102
}
330
45
100
AcDbScale
 70
     0
300
3/8" = 1'-0"
140
0.375
141
12.0
290
     0
  0
SCALE
  5
67
102
{ACAD_REACTORS
330
45
102
}
330
45
100
AcDbScale
 70
     0
300
1/2" = 1'-0"
140
0.5
141
12.0
290
     0
  0
SCALE
  5
68
102
{ACAD_REACTORS
330
45
102
}
330
45
100
AcDbScale
 70
     0
300
3/4" = 1'-0"
140
0.75
141
12.0
290
     0
  0
SCALE
  5
69
102
{ACAD_REACTORS
330
45
102
}
330
45
100
AcDbScale
 70
     0
300
1" = 1'-0"
140
1.0
141
12.0
290
     0
  0
SCALE
  5
6A
102
{ACAD_REACTORS
330
45
102
}
330
45
100
AcDbScale
 70
     0
300
1-1/2" = 1'-0"
140
1.5
141
12.0
290
     0
  0
SCALE
  5
6B
102
{ACAD_REACTORS
330
45
102
}
330
45
100
AcDbScale
 70
     0
300
3" = 1'-0"
140
3.0
141
12.0
290
     0
  0
SCALE
  5
6C
102
{ACAD_REACTORS
330
45
102
}
330
45
100
AcDbScale
 70
     0
300
6" = 1'-0"
140
6.0
141
12.0
290
     0
  0
SCALE
  5
6D
102
{ACAD_REACTORS
330
45
102
}
330
45
100
AcDbScale
 70
     0
300
1'-0" = 1'-0"
140
12.0
141
12.0
290
     0
  0
TABLESTYLE
  5
49
102
{ACAD_XDICTIONARY
360
4A
102
}
102
{ACAD_REACTORS
330
46
102
}
330
46
100
AcDbTableStyle
  3
Standard
 70
     0
 71
     0
 40
0.06
 41
0.06
280
     0
281
     0
  7
STANDARD
140
0.18
170
     2
 62
     0
 63
     7
283
     0
274
    -2
284
     1
 64
     0
275
    -2
285
     1
 65
     0
276
    -2
286
     1
 66
     0
277
    -2
287
     1
 67
     0
278
    -2
288
     1
 68
     0
279
    -2
289
     1
 69
     0
  7
STANDARD
140
0.25
170
     5
 62
     0
 63
     7
283
     0
274
    -2
284
     1
 64
     0
275
    -2
285
     1
 65
     0
276
    -2
286
     1
 66
     0
277
    -2
287
     1
 67
     0
278
    -2
288
     1
 68
     0
279
    -2
289
     1
 69
     0
  7
STANDARD
140
0.18
170
     5
 62
     0
 63
     7
283
     0
274
    -2
284
     1
 64
     0
275
    -2
285
     1
 65
     0
276
    -2
286
     1
 66
     0
277
    -2
287
     1
 67
     0
278
    -2
288
     1
 68
     0
279
    -2
289
     1
 69
     0
  0
VISUALSTYLE
  5
2A
102
{ACAD_XDICTIONARY
360
166
102
}
102
{ACAD_REACTORS
330
2B
102
}
330
2B
100
AcDbVisualStyle
  2
2dWireframe
 70
     4
 71
     0
 72
     2
 73
     0
 90
        0
 40
-0.6
 41
-30.0
 62
     5
 63
     7
 74
     1
 91
        4
 64
     7
 65
   257
 75
     1
175
     1
 42
1.0
 92
        0
 66
   257
 43
1.0
 76
     1
 77
     6
 78
     2
 67
     7
 79
     5
170
     0
171
     0
290
     0
174
     0
 93
        1
 44
0.0
173
     0
291
     0
 45
0.0
1001
ACAD
1000
AcDbSavedByObjectVersion
1070
     0
  0
VISUALSTYLE
  5
13E
102
{ACAD_XDICTIONARY
360
177
102
}
102
{ACAD_REACTORS
330
2B
102
}
330
2B
100
AcDbVisualStyle
  2
Basic
 70
     7
 71
     1
 72
     0
 73
     1
 90
        0
 40
-0.6
 41
-30.0
 62
     5
 63
     7
 74
     0
 91
        4
 64
     7
 65
   257
 75
     1
175
     1
 42
1.0
 92
        8
 66
     7
 43
1.0
 76
     1
 77
     6
 78
     2
 67
     7
 79
     5
170
     0
171
     0
290
     0
174
     0
 93
        1
 44
0.0
173
     0
291
     1
 45
0.0
1001
ACAD
1000
AcDbSavedByObjectVersion
1070
     0
  0
VISUALSTYLE
  5
142
102
{ACAD_XDICTIONARY
360
17F
102
}
102
{ACAD_REACTORS
330
2B
102
}
330
2B
100
AcDbVisualStyle
  2
Brighten
 70
    12
 71
     2
 72
     2
 73
     0
 90
        0
 40
-0.6
 41
-30.0
 62
     5
 63
     7
 74
     1
 91
        4
 64
     7
 65
   257
 75
     1
175
     1
 42
1.0
 92
        8
 66
     7
 43
1.0
 76
     1
 77
     6
 78
     2
 67
     7
 79
     5
170
     0
171
     0
290
     0
174
     0
 93
        1
 44
50.0
173
     0
291
     1
 45
0.0
1001
ACAD
1000
AcDbSavedByObjectVersion
1070
     0
  0
VISUALSTYLE
  5
146
102
{ACAD_XDICTIONARY
360
187
102
}
102
{ACAD_REACTORS
330
2B
102
}
330
2B
100
AcDbVisualStyle
  2
ColorChange
 70
    16
 71
     2
 72
     2
 73
     3
 90
        0
 40
-0.6
 41
-30.0
 62
     5
 63
     8
 74
     1
 91
        4
 64
     7
 65
   257
 75
     1
175
     1
 42
1.0
 92
        8
 66
     8
 43
1.0
 76
     1
 77
     6
 78
     2
 67
     7
 79
     5
170
     0
171
     0
290
     0
174
     0
 93
        1
 44
0.0
173
     0
291
     1
 45
0.0
1001
ACAD
1000
AcDbSavedByObjectVersion
1070
     0
  0
VISUALSTYLE
  5
140
102
{ACAD_XDICTIONARY
360
17B
102
}
102
{ACAD_REACTORS
330
2B
102
}
330
2B
100
AcDbVisualStyle
  2
Conceptual
 70
     9
 71
     3
 72
     2
 73
     0
 90
        0
 40
-0.6
 41
-30.0
 62
     5
 63
     7
 74
     2
 91
        2
 64
     7
 65
   257
 75
     1
175
     1
 42
179.0
 92
        8
 66
     7
 43
1.0
 76
     1
 77
     6
 78
     2
 67
     7
 79
     3
170
     0
171
     0
290
     0
174
     0
 93
        1
 44
0.0
173
     0
291
     0
 45
0.0
1001
ACAD
1000
AcDbSavedByObjectVersion
1070
     0
  0
VISUALSTYLE
  5
141
102
{ACAD_XDICTIONARY
360
17D
102
}
102
{ACAD_REACTORS
330
2B
102
}
330
2B
100
AcDbVisualStyle
  2
Dim
 70
    11
 71
     2
 72
     2
 73
     0
 90
        0
 40
-0.6
 41
-30.0
 62
     5
 63
     7
 74
     1
 91
        4
 64
     7
 65
   257
 75
     1
175
     1
 42
1.0
 92
        8
 66
     7
 43
1.0
 76
     1
 77
     6
 78
     2
 67
     7
 79
     5
170
     0
171
     0
290
     0
174
     0
 93
        1
 44
-50.0
173
     0
291
     1
 45
0.0
1001
ACAD
1000
AcDbSavedByObjectVersion
1070
     0
  0
VISUALSTYLE
  5
14E
102
{ACAD_XDICTIONARY
360
197
102
}
102
{ACAD_REACTORS
330
2B
102
}
330
2B
100
AcDbVisualStyle
  2
EdgeColorOff
 70
    22
 71
     2
 72
     2
 73
     0
 90
        0
 40
-0.6
 41
-30.0
 62
     5
 63
     7
 74
     1
 91
        4
 64
     7
 65
   257
 75
     1
175
     1
 42
1.0
 92
        8
 66
     7
 43
1.0
 76
     1
 77
     6
 78
     2
 67
     7
 79
     5
170
     0
171
     0
290
     0
174
     0
 93
        1
 44
0.0
173
     0
291
     1
 45
0.0
1001
ACAD
1000
AcDbSavedByObjectVersion
1070
     0
  0
VISUALSTYLE
  5
145
102
{ACAD_XDICTIONARY
360
185
102
}
102
{ACAD_REACTORS
330
2B
102
}
330
2B
100
AcDbVisualStyle
  2
Facepattern
 70
    15
 71
     2
 72
     2
 73
     0
 90
        0
 40
-0.6
 41
-30.0
 62
     5
 63
     7
 74
     1
 91
        4
 64
     7
 65
   257
 75
     1
175
     1
 42
1.0
 92
        8
 66
     7
 43
1.0
 76
     1
 77
     6
 78
     2
 67
     7
 79
     5
170
     0
171
     0
290
     0
174
     0
 93
        1
 44
0.0
173
     0
291
     1
 45
0.0
1001
ACAD
1000
AcDbSavedByObjectVersion
1070
     0
  0
VISUALSTYLE
  5
13A
102
{ACAD_XDICTIONARY
360
16F
102
}
102
{ACAD_REACTORS
330
2B
102
}
330
2B
100
AcDbVisualStyle
  2
Flat
 70
     0
 71
     2
 72
     1
 73
     1
 90
        2
 40
-0.6
 41
30.0
 62
     5
 63
     7
 74
     0
 91
        0
 64
     7
 65
   257
 75
     1
175
     1
 42
1.0
 92
        8
 66
     7
 43
1.0
 76
     1
 77
     6
 78
     2
 67
     7
 79
     5
170
     0
171
     0
290
     0
174
     0
 93
       13
 44
0.0
173
     0
291
     1
 45
0.0
1001
ACAD
1000
AcDbSavedByObjectVersion
1070
     0
  0
VISUALSTYLE
  5
13B
102
{ACAD_XDICTIONARY
360
171
102
}
102
{ACAD_REACTORS
330
2B
102
}
330
2B
100
AcDbVisualStyle
  2
FlatWithEdges
 70
     1
 71
     2
 72
     1
 73
     1
 90
        2
 40
-0.6
 41
30.0
 62
     5
 63
     7
 74
     1
 91
        0
 64
     7
 65
   257
 75
     1
175
     1
 42
1.0
 92
        0
 66
   257
 43
1.0
 76
     1
 77
     6
 78
     2
 67
     7
 79
     5
170
     0
171
     0
290
     0
174
     0
 93
       13
 44
0.0
173
     0
291
     1
 45
0.0
1001
ACAD
1000
AcDbSavedByObjectVersion
1070
     0
  0
VISUALSTYLE
  5
13C
102
{ACAD_XDICTIONARY
360
173
102
}
102
{ACAD_REACTORS
330
2B
102
}
330
2B
100
AcDbVisualStyle
  2
Gouraud
 70
     2
 71
     2
 72
     2
 73
     1
 90
        2
 40
-0.6
 41
30.0
 62
     5
 63
     7
 74
     0
 91
        0
 64
     7
 65
   257
 75
     1
175
     1
 42
1.0
 92
        0
 66
     7
 43
1.0
 76
     1
 77
     6
 78
     2
 67
     7
 79
     5
170
     0
171
     0
290
     0
174
     0
 93
       13
 44
0.0
173
     0
291
     1
 45
0.0
1001
ACAD
1000
AcDbSavedByObjectVersion
1070
     0
  0
VISUALSTYLE
  5
13D
102
{ACAD_XDICTIONARY
360
175
102
}
102
{ACAD_REACTORS
330
2B
102
}
330
2B
100
AcDbVisualStyle
  2
GouraudWithEdges
 70
     3
 71
     2
 72
     2
 73
     1
 90
        2
 40
-0.6
 41
30.0
 62
     5
 63
     7
 74
     1
 91
        0
 64
     7
 65
   257
 75
     1
175
     1
 42
1.0
 92
        0
 66
   257
 43
1.0
 76
     1
 77
     6
 78
     2
 67
     7
 79
     5
170
     0
171
     0
290
     0
174
     0
 93
       13
 44
0.0
173
     0
291
     1
 45
0.0
1001
ACAD
1000
AcDbSavedByObjectVersion
1070
     0
  0
VISUALSTYLE
  5
13F
102
{ACAD_XDICTIONARY
360
179
102
}
102
{ACAD_REACTORS
330
2B
102
}
330
2B
100
AcDbVisualStyle
  2
Hidden
 70
     6
 71
     1
 72
     2
 73
     2
 90
        0
 40
-0.6
 41
-30.0
 62
     5
 63
     7
 74
     2
 91
        2
 64
     7
 65
   257
 75
     2
175
     1
 42
40.0
 92
        0
 66
   257
 43
1.0
 76
     1
 77
     6
 78
     2
 67
     7
 79
     3
170
     0
171
     0
290
     0
174
     0
 93
        1
 44
0.0
173
     0
291
     0
 45
0.0
1001
ACAD
1000
AcDbSavedByObjectVersion
1070
     0
  0
VISUALSTYLE
  5
14C
102
{ACAD_XDICTIONARY
360
193
102
}
102
{ACAD_REACTORS
330
2B
102
}
330
2B
100
AcDbVisualStyle
  2
JitterOff
 70
    20
 71
     2
 72
     2
 73
     0
 90
        0
 40
-0.6
 41
-30.0
 62
     5
 63
     7
 74
     1
 91
        4
 64
     7
 65
   257
 75
     1
175
     1
 42
1.0
 92
       10
 66
     7
 43
1.0
 76
     1
 77
     6
 78
     2
 67
     7
 79
     5
170
     0
171
     0
290
     0
174
     0
 93
        1
 44
0.0
173
     0
291
     1
 45
0.0
1001
ACAD
1000
AcDbSavedByObjectVersion
1070
     0
  0
VISUALSTYLE
  5
144
102
{ACAD_XDICTIONARY
360
183
102
}
102
{ACAD_REACTORS
330
2B
102
}
330
2B
100
AcDbVisualStyle
  2
Linepattern
 70
    14
 71
     2
 72
     2
 73
     0
 90
        0
 40
-0.6
 41
-30.0
 62
     5
 63
     7
 74
     1
 91
        4
 64
     7
 65
   257
 75
     7
175
     7
 42
1.0
 92
        8
 66
     7
 43
1.0
 76
     1
 77
     6
 78
     2
 67
     7
 79
     5
170
     0
171
     0
290
     0
174
     0
 93
        1
 44
0.0
173
     0
291
     1
 45
0.0
1001
ACAD
1000
AcDbSavedByObjectVersion
1070
     0
  0
VISUALSTYLE
  5
14D
102
{ACAD_XDICTIONARY
360
195
102
}
102
{ACAD_REACTORS
330
2B
102
}
330
2B
100
AcDbVisualStyle
  2
OverhangOff
 70
    21
 71
     2
 72
     2
 73
     0
 90
        0
 40
-0.6
 41
-30.0
 62
     5
 63
     7
 74
     1
 91
        4
 64
     7
 65
   257
 75
     1
175
     1
 42
1.0
 92
        9
 66
     7
 43
1.0
 76
     1
 77
     6
 78
     2
 67
     7
 79
     5
170
     0
171
     0
290
     0
174
     0
 93
        1
 44
0.0
173
     0
291
     1
 45
0.0
1001
ACAD
1000
AcDbSavedByObjectVersion
1070
     0
  0
VISUALSTYLE
  5
4B
102
{ACAD_XDICTIONARY
360
16B
102
}
102
{ACAD_REACTORS
330
2B
102
}
330
2B
100
AcDbVisualStyle
  2
Realistic
 70
     8
 71
     2
 72
     2
 73
     0
 90
        0
 40
-0.6
 41
-30.0
 62
     5
 63
     7
 74
     1
 91
        0
 64
     7
 65
   257
 75
     1
175
     1
 42
1.0
 92
        8
 66
     8
 43
1.0
 76
     1
 77
     6
 78
     2
 67
     7
 79
     5
170
     0
171
     0
290
     0
174
     0
 93
       13
 44
0.0
173
     0
291
     0
 45
0.0
1001
ACAD
1000
AcDbSavedByObjectVersion
1070
     0
  0
VISUALSTYLE
  5
14B
102
{ACAD_XDICTIONARY
360
191
102
}
102
{ACAD_REACTORS
330
2B
102
}
330
2B
100
AcDbVisualStyle
  2
Shaded
 70
    27
 71
     2
 72
     2
 73
     1
 90
        2
 40
-0.6
 41
30.0
 62
     5
 63
     7
 74
     0
 91
        4
 64
     7
 65
   257
 75
     1
175
     1
 42
1.0
 92
        8
 66
   257
 43
1.0
 76
     1
 77
     6
 78
     2
 67
     8
 79
     3
170
     0
171
     0
290
     0
174
     0
 93
        5
 44
0.0
173
     0
291
     0
 45
0.0
1001
ACAD
1000
AcDbSavedByObjectVersion
1070
     0
  0
VISUALSTYLE
  5
14A
102
{ACAD_XDICTIONARY
360
18F
102
}
102
{ACAD_REACTORS
330
2B
102
}
330
2B
100
AcDbVisualStyle
  2
Shaded with edges
 70
    26
 71
     2
 72
     2
 73
     1
 90
        2
 40
-0.6
 41
30.0
 62
     5
 63
     7
 74
     1
 91
       10
 64
     7
 65
   257
 75
     2
175
     1
 42
1.0
 92
        8
 66
   257
 43
1.0
 76
     1
 77
     6
 78
     2
 67
     7
 79
     3
170
     0
171
     0
290
     0
174
     0
 93
        5
 44
0.0
173
     0
291
     0
 45
0.0
1001
ACAD
1000
AcDbSavedByObjectVersion
1070
     0
  0
VISUALSTYLE
  5
147
102
{ACAD_XDICTIONARY
360
189
102
}
102
{ACAD_REACTORS
330
2B
102
}
330
2B
100
AcDbVisualStyle
  2
Shades of Gray
 70
    23
 71
     2
 72
     2
 73
     3
 90
        0
 40
-0.6
 41
-30.0
 62
     5
 63
     7
 74
     2
 91
        2
 64
     7
 65
     7
 75
     1
175
     1
 42
40.0
 92
        8
 66
     7
 43
1.0
 76
     1
 77
     6
 78
     2
 67
     7
 79
     3
170
     0
171
     0
290
     0
174
     0
 93
        1
 44
0.0
173
     0
291
     0
 45
0.0
1001
ACAD
1000
AcDbSavedByObjectVersion
1070
     0
  0
VISUALSTYLE
  5
148
102
{ACAD_XDICTIONARY
360
18B
102
}
102
{ACAD_REACTORS
330
2B
102
}
330
2B
100
AcDbVisualStyle
  2
Sketchy
 70
    24
 71
     1
 72
     2
 73
     2
 90
        0
 40
-0.6
 41
-30.0
 62
     5
 63
     7
 74
     2
 91
        2
 64
     7
 65
     7
 75
     1
175
     1
 42
40.0
 92
       11
 66
     7
 43
1.0
 76
     1
 77
     6
 78
     2
 67
     7
 79
     6
170
     0
171
     0
290
     0
174
     0
 93
        1
 44
0.0
173
     0
291
     0
 45
0.0
1001
ACAD
1000
AcDbSavedByObjectVersion
1070
     0
  0
VISUALSTYLE
  5
143
102
{ACAD_XDICTIONARY
360
181
102
}
102
{ACAD_REACTORS
330
2B
102
}
330
2B
100
AcDbVisualStyle
  2
Thicken
 70
    13
 71
     2
 72
     2
 73
     0
 90
        0
 40
-0.6
 41
-30.0
 62
     5
 63
     7
 74
     1
 91
        4
 64
     7
 65
   257
 75
     1
175
     1
 42
1.0
 92
       12
 66
     7
 43
1.0
 76
     1
 77
     6
 78
     2
 67
     7
 79
     5
170
     0
171
     0
290
     0
174
     0
 93
        1
 44
0.0
173
     0
291
     1
 45
0.0
1001
ACAD
1000
AcDbSavedByObjectVersion
1070
     0
  0
VISUALSTYLE
  5
4C
102
{ACAD_XDICTIONARY
360
16D
102
}
102
{ACAD_REACTORS
330
2B
102
}
330
2B
100
AcDbVisualStyle
  2
Wireframe
 70
     5
 71
     0
 72
     2
 73
     0
 90
        0
 40
-0.6
 41
-30.0
 62
     5
 63
     7
 74
     1
 91
        4
 64
     7
 65
   257
 75
     1
175
     1
 42
1.0
 92
        0
 66
   257
 43
1.0
 76
     1
 77
     6
 78
     2
 67
     7
 79
     3
170
     0
171
     0
290
     0
174
     0
 93
        1
 44
0.0
173
     0
291
     0
 45
0.0
1001
ACAD
1000
AcDbSavedByObjectVersion
1070
     0
  0
VISUALSTYLE
  5
149
102
{ACAD_XDICTIONARY
360
18D
102
}
102
{ACAD_REACTORS
330
2B
102
}
330
2B
100
AcDbVisualStyle
  2
X-Ray
 70
    25
 71
     2
 72
     2
 73
     1
 90
        1
 40
0.5
 41
-30.0
 62
     5
 63
     7
 74
     1
 91
        0
 64
     7
 65
   257
 75
     1
175
     1
 42
1.0
 92
        8
 66
     7
 43
1.0
 76
     1
 77
     6
 78
     2
 67
     7
 79
     3
170
     0
171
     0
290
     0
174
     0
 93
       13
 44
0.0
173
     0
291
     0
 45
0.0
1001
ACAD
1000
AcDbSavedByObjectVersion
1070
     0
  0
DICTIONARYVAR
  5
135
102
{ACAD_REACTORS
330
131
102
}
330
131
100
DictionaryVariables
280
     0
  1
1:1
  0
DICTIONARYVAR
  5
133
102
{ACAD_REACTORS
330
131
102
}
330
131
100
DictionaryVariables
280
     0
  1
STANDARD
  0
DICTIONARYVAR
  5
132
102
{ACAD_REACTORS
330
131
102
}
330
131
100
DictionaryVariables
280
     0
  1
STANDARD
  0
DICTIONARYVAR
  5
158
102
{ACAD_REACTORS
330
131
102
}
330
131
100
DictionaryVariables
280
     0
  1
1
  0
DICTIONARYVAR
  5
157
102
{ACAD_REACTORS
330
131
102
}
330
131
100
DictionaryVariables
280
     0
  1
1
  0
DICTIONARYVAR
  5
156
102
{ACAD_REACTORS
330
131
102
}
330
131
100
DictionaryVariables
280
     0
  1
0
  0
DICTIONARYVAR
  5
137
102
{ACAD_REACTORS
330
131
102
}
330
131
100
DictionaryVariables
280
     0
  1
1
  0
DICTIONARYVAR
  5
138
102
{ACAD_REACTORS
330
131
102
}
330
131
100
DictionaryVariables
280
     0
  1
15
  0
DICTIONARYVAR
  5
136
102
{ACAD_REACTORS
330
131
102
}
330
131
100
DictionaryVariables
280
     0
  1
0
  0
DICTIONARYVAR
  5
134
102
{ACAD_REACTORS
330
131
102
}
330
131
100
DictionaryVariables
280
     0
  1
0
  0
DICTIONARYVAR
  5
155
102
{ACAD_REACTORS
330
131
102
}
330
131
100
DictionaryVariables
280
     0
  1
127
  0
DICTIONARYVAR
  5
159
102
{ACAD_REACTORS
330
131
102
}
330
131
100
DictionaryVariables
280
     0
  1
2
  0
DICTIONARY
  5
164
330
1A
100
AcDbDictionary
280
     1
281
     1
  3
ACAD_XREC_ROUNDTRIP
360
165
  0
DICTIONARY
  5
162
330
15
100
AcDbDictionary
280
     1
281
     1
  3
ACAD_XREC_ROUNDTRIP
360
163
  0
DICTIONARY
  5
3D
330
3C
100
AcDbDictionary
280
     1
281
     1
  3
ACAD_XREC_ROUNDTRIP
360
169
  3
BUMPTILE
360
3E
  3
DIFFUSETILE
360
3F
  3
OPACITYTILE
360
40
  3
REFLECTIONTILE
360
41
  3
REFRACTIONTILE
360
42
  3
SPECULARTILE
360
43
  0
DICTIONARY
  5
35
330
34
100
AcDbDictionary
280
     1
281
     1
  3
ACAD_XREC_ROUNDTRIP
360
168
  3
BUMPTILE
360
36
  3
DIFFUSETILE
360
37
  3
OPACITYTILE
360
38
  3
REFLECTIONTILE
360
39
  3
REFRACTIONTILE
360
3A
  3
SPECULARTILE
360
3B
  0
DICTIONARY
  5
C
330
A
100
AcDbDictionary
280
     1
281
     1
  3
ACAD_XREC_ROUNDTRIP
360
161
  3
BUMPTILE
360
D
  3
DIFFUSETILE
360
E
  3
OPACITYTILE
360
F
  3
REFLECTIONTILE
360
10
  3
REFRACTIONTILE
360
11
  3
SPECULARTILE
360
12
  0
DICTIONARY
  5
4A
330
49
100
AcDbDictionary
280
     1
281
     1
  3
ACAD_ROUNDTRIP_2008_TABLESTYLE_CELLSTYLEMAP
360
15A
  3
ACAD_XREC_ROUNDTRIP
360
16A
  0
DICTIONARY
  5
166
330
2A
100
AcDbDictionary
280
     1
281
     1
  3
ACAD_XREC_ROUNDTRIP
360
167
  0
DICTIONARY
  5
177
330
13E
100
AcDbDictionary
280
     1
281
     1
  3
ACAD_XREC_ROUNDTRIP
360
178
  0
DICTIONARY
  5
17F
330
142
100
AcDbDictionary
280
     1
281
     1
  3
ACAD_XREC_ROUNDTRIP
360
180
  0
DICTIONARY
  5
187
330
146
100
AcDbDictionary
280
     1
281
     1
  3
ACAD_XREC_ROUNDTRIP
360
188
  0
DICTIONARY
  5
17B
330
140
100
AcDbDictionary
280
     1
281
     1
  3
ACAD_XREC_ROUNDTRIP
360
17C
  0
DICTIONARY
  5
17D
330
141
100
AcDbDictionary
280
     1
281
     1
  3
ACAD_XREC_ROUNDTRIP
360
17E
  0
DICTIONARY
  5
197
330
14E
100
AcDbDictionary
280
     1
281
     1
  3
ACAD_XREC_ROUNDTRIP
360
198
  0
DICTIONARY
  5
185
330
145
100
AcDbDictionary
280
     1
281
     1
  3
ACAD_XREC_ROUNDTRIP
360
186
  0
DICTIONARY
  5
16F
330
13A
100
AcDbDictionary
280
     1
281
     1
  3
ACAD_XREC_ROUNDTRIP
360
170
  0
DICTIONARY
  5
171
330
13B
100
AcDbDictionary
280
     1
281
     1
  3
ACAD_XREC_ROUNDTRIP
360
172
  0
DICTIONARY
  5
173
330
13C
100
AcDbDictionary
280
     1
281
     1
  3
ACAD_XREC_ROUNDTRIP
360
174
  0
DICTIONARY
  5
175
330
13D
100
AcDbDictionary
280
     1
281
     1
  3
ACAD_XREC_ROUNDTRIP
360
176
  0
DICTIONARY
  5
179
330
13F
100
AcDbDictionary
280
     1
281
     1
  3
ACAD_XREC_ROUNDTRIP
360
17A
  0
DICTIONARY
  5
193
330
14C
100
AcDbDictionary
280
     1
281
     1
  3
ACAD_XREC_ROUNDTRIP
360
194
  0
DICTIONARY
  5
183
330
144
100
AcDbDictionary
280
     1
281
     1
  3
ACAD_XREC_ROUNDTRIP
360
184
  0
DICTIONARY
  5
195
330
14D
100
AcDbDictionary
280
     1
281
     1
  3
ACAD_XREC_ROUNDTRIP
360
196
  0
DICTIONARY
  5
16B
330
4B
100
AcDbDictionary
280
     1
281
     1
  3
ACAD_XREC_ROUNDTRIP
360
16C
  0
DICTIONARY
  5
191
330
14B
100
AcDbDictionary
280
     1
281
     1
  3
ACAD_XREC_ROUNDTRIP
360
192
  0
DICTIONARY
  5
18F
330
14A
100
AcDbDictionary
280
     1
281
     1
  3
ACAD_XREC_ROUNDTRIP
360
190
  0
DICTIONARY
  5
189
330
147
100
AcDbDictionary
280
     1
281
     1
  3
ACAD_XREC_ROUNDTRIP
360
18A
  0
DICTIONARY
  5
18B
330
148
100
AcDbDictionary
280
     1
281
     1
  3
ACAD_XREC_ROUNDTRIP
360
18C
  0
DICTIONARY
  5
181
330
143
100
AcDbDictionary
280
     1
281
     1
  3
ACAD_XREC_ROUNDTRIP
360
182
  0
DICTIONARY
  5
16D
330
4C
100
AcDbDictionary
280
     1
281
     1
  3
ACAD_XREC_ROUNDTRIP
360
16E
  0
DICTIONARY
  5
18D
330
149
100
AcDbDictionary
280
     1
281
     1
  3
ACAD_XREC_ROUNDTRIP
360
18E
  0
XRECORD
  5
165
102
{ACAD_REACTORS
330
164
102
}
330
164
100
AcDbXrecord
280
     1
102
SHADEPLOT
 70
     0
102
SHADEPLOTRESLEVEL
 70
     2
102
SHADEPLOTCUSTOMDPI
 70
   300
  0
XRECORD
  5
163
102
{ACAD_REACTORS
330
162
102
}
330
162
100
AcDbXrecord
280
     1
102
SHADEPLOT
 70
     0
102
SHADEPLOTRESLEVEL
 70
     2
102
SHADEPLOTCUSTOMDPI
 70
   300
  0
XRECORD
  5
169
102
{ACAD_REACTORS
330
3D
102
}
330
3D
100
AcDbXrecord
280
     1
102
MATERIAL
148
0.0
149
0.0
149
0.0
 93
        0
 94
      127
282
     0
 72
     0
 77
     0
171
     0
175
     0
179
     0
273
     0
  0
XRECORD
  5
3E
102
{ACAD_REACTORS
330
3D
102
}
330
3D
100
AcDbXrecord
280
     1
270
     1
271
     1
  0
XRECORD
  5
3F
102
{ACAD_REACTORS
330
3D
102
}
330
3D
100
AcDbXrecord
280
     1
270
     1
271
     1
  0
XRECORD
  5
40
102
{ACAD_REACTORS
330
3D
102
}
330
3D
100
AcDbXrecord
280
     1
270
     1
271
     1
  0
XRECORD
  5
41
102
{ACAD_REACTORS
330
3D
102
}
330
3D
100
AcDbXrecord
280
     1
270
     1
271
     1
  0
XRECORD
  5
42
102
{ACAD_REACTORS
330
3D
102
}
330
3D
100
AcDbXrecord
280
     1
270
     1
271
     1
  0
XRECORD
  5
43
102
{ACAD_REACTORS
330
3D
102
}
330
3D
100
AcDbXrecord
280
     1
270
     1
271
     1
  0
XRECORD
  5
168
102
{ACAD_REACTORS
330
35
102
}
330
35
100
AcDbXrecord
280
     1
102
MATERIAL
148
0.0
149
0.0
149
0.0
 93
        0
 94
      127
282
     0
 72
     0
 77
     0
171
     0
175
     0
179
     0
273
     0
  0
XRECORD
  5
36
102
{ACAD_REACTORS
330
35
102
}
330
35
100
AcDbXrecord
280
     1
270
     1
271
     1
  0
XRECORD
  5
37
102
{ACAD_REACTORS
330
35
102
}
330
35
100
AcDbXrecord
280
     1
270
     1
271
     1
  0
XRECORD
  5
38
102
{ACAD_REACTORS
330
35
102
}
330
35
100
AcDbXrecord
280
     1
270
     1
271
     1
  0
XRECORD
  5
39
102
{ACAD_REACTORS
330
35
102
}
330
35
100
AcDbXrecord
280
     1
270
     1
271
     1
  0
XRECORD
  5
3A
102
{ACAD_REACTORS
330
35
102
}
330
35
100
AcDbXrecord
280
     1
270
     1
271
     1
  0
XRECORD
  5
3B
102
{ACAD_REACTORS
330
35
102
}
330
35
100
AcDbXrecord
280
     1
270
     1
271
     1
  0
XRECORD
  5
161
102
{ACAD_REACTORS
330
C
102
}
330
C
100
AcDbXrecord
280
     1
102
MATERIAL
148
0.0
149
0.0
149
0.0
 93
        0
 94
      127
282
     0
 72
     0
 77
     0
171
     0
175
     0
179
     0
273
     0
  0
XRECORD
  5
D
102
{ACAD_REACTORS
330
C
102
}
330
C
100
AcDbXrecord
280
     1
270
     1
271
     1
  0
XRECORD
  5
E
102
{ACAD_REACTORS
330
C
102
}
330
C
100
AcDbXrecord
280
     1
270
     1
271
     1
  0
XRECORD
  5
F
102
{ACAD_REACTORS
330
C
102
}
330
C
100
AcDbXrecord
280
     1
270
     1
271
     1
  0
XRECORD
  5
10
102
{ACAD_REACTORS
330
C
102
}
330
C
100
AcDbXrecord
280
     1
270
     1
271
     1
  0
XRECORD
  5
11
102
{ACAD_REACTORS
330
C
102
}
330
C
100
AcDbXrecord
280
     1
270
     1
271
     1
  0
XRECORD
  5
12
102
{ACAD_REACTORS
330
C
102
}
330
C
100
AcDbXrecord
280
     1
270
     1
271
     1
  0
CELLSTYLEMAP
  5
15A
102
{ACAD_REACTORS
330
4A
102
}
330
4A
100
AcDbCellStyleMap
 90
        3
300
CELLSTYLE
  1
TABLEFORMAT_BEGIN
 90
        5
170
     1
 91
        0
 92
    32768
 62
   257
 93
        1
300
CONTENTFORMAT
  1
CONTENTFORMAT_BEGIN
 90
        0
 91
        0
 92
      512
 93
        0
300

 40
0.0
140
1.0
 94
        5
 62
     0
340
21
144
0.25
309
CONTENTFORMAT_END
171
     0
 94
        0
309
TABLEFORMAT_END
  1
CELLSTYLE_BEGIN
 90
        1
 91
        1
300
_TITLE
309
CELLSTYLE_END
300
CELLSTYLE
  1
TABLEFORMAT_BEGIN
 90
        5
170
     1
 91
        0
 92
        0
 62
   257
 93
        1
300
CONTENTFORMAT
  1
CONTENTFORMAT_BEGIN
 90
        0
 91
        0
 92
      512
 93
        0
300

 40
0.0
140
1.0
 94
        5
 62
     0
340
21
144
0.18
309
CONTENTFORMAT_END
171
     0
 94
        0
309
TABLEFORMAT_END
  1
CELLSTYLE_BEGIN
 90
        2
 91
        1
300
_HEADER
309
CELLSTYLE_END
300
CELLSTYLE
  1
TABLEFORMAT_BEGIN
 90
        5
170
     1
 91
        0
 92
        0
 62
   257
 93
        1
300
CONTENTFORMAT
  1
CONTENTFORMAT_BEGIN
 90
        0
 91
        0
 92
      512
 93
        0
300

 40
0.0
140
1.0
 94
        2
 62
     0
340
21
144
0.18
309
CONTENTFORMAT_END
171
     0
 94
        0
309
TABLEFORMAT_END
  1
CELLSTYLE_BEGIN
 90
        3
 91
        2
300
_DATA
309
CELLSTYLE_END
  0
XRECORD
  5
16A
102
{ACAD_REACTORS
330
4A
102
}
330
4A
100
AcDbXrecord
280
     1
102
ACAD_ROUNDTRIP_PRE2007_TABLESTYLE
 90
      512
 91
        0
  1

 92
      512
 93
        0
  2

 94
      512
 95
        0
  3

  0
XRECORD
  5
167
102
{ACAD_REACTORS
330
166
102
}
330
166
100
AcDbXrecord
280
     1
102
RTVSPropertyOp0
 70
     1
102
RTVSPropertyOp1
 70
     1
102
RTVSPropertyOp2
 70
     1
102
RTVSPropertyOp3
 70
     1
102
RTVSPropertyOp4
 70
     1
102
RTVSPropertyOp5
 70
     1
102
RTVSPropertyOp6
 70
     1
102
RTVSPropertyOp7
 70
     1
102
RTVSPropertyOp8
 70
     1
102
RTVSPropertyOp9
 70
     1
102
RTVSPropertyOp10
 70
     1
102
RTVSPropertyOp11
 70
     1
102
RTVSPropertyOp12
 70
     1
102
RTVSPropertyOp13
 70
     1
102
RTVSPropertyOp14
 70
     1
102
RTVSPropertyOp15
 70
     1
102
RTVSPropertyOp16
 70
     1
102
RTVSPropertyOp17
 70
     1
102
RTVSPropertyOp18
 70
     1
102
RTVSPropertyOp19
 70
     1
102
RTVSPropertyOp20
 70
     1
102
RTVSPropertyOp21
 70
     1
102
RTVSPropertyOp22
 70
     1
102
RTVSPropertyOp23
 70
     1
102
RTVSPropertyOp24
 70
     1
102
RTVSPropertyOp25
 70
     1
102
RTVSPropertyOp26
 70
     1
102
RTVSPropertyOp27
 70
     1
102
RTVSPropertyOp28
 70
     1
102
RTVSPropertyOp29
 70
     1
102
RTVSPropertyOp30
 70
     1
102
RTVSPropertyOp31
 70
     1
102
RTVSPropertyOp32
 70
     1
  0
XRECORD
  5
178
102
{ACAD_REACTORS
330
177
102
}
330
177
100
AcDbXrecord
280
     1
102
RTVSPropertyOp0
 70
     1
102
RTVSPropertyOp1
 70
     1
102
RTVSPropertyOp2
 70
     1
102
RTVSPropertyOp3
 70
     1
102
RTVSPropertyOp4
 70
     1
102
RTVSPropertyOp5
 70
     1
102
RTVSPropertyOp6
 70
     1
102
RTVSPropertyOp7
 70
     1
102
RTVSPropertyOp8
 70
     1
102
RTVSPropertyOp9
 70
     1
102
RTVSPropertyOp10
 70
     1
102
RTVSPropertyOp11
 70
     1
102
RTVSPropertyOp12
 70
     1
102
RTVSPropertyOp13
 70
     1
102
RTVSPropertyOp14
 70
     1
102
RTVSPropertyOp15
 70
     1
102
RTVSPropertyOp16
 70
     1
102
RTVSPropertyOp17
 70
     1
102
RTVSPropertyOp18
 70
     1
102
RTVSPropertyOp19
 70
     1
102
RTVSPropertyOp20
 70
     1
102
RTVSPropertyOp21
 70
     1
102
RTVSPropertyOp22
 70
     1
102
RTVSPropertyOp23
 70
     1
102
RTVSPropertyOp24
 70
     1
102
RTVSPropertyOp25
 70
     1
102
RTVSPropertyOp26
 70
     1
102
RTVSPropertyOp27
 70
     1
102
RTVSPropertyOp28
 70
     1
102
RTVSPropertyOp29
 70
     1
102
RTVSPropertyOp30
 70
     1
102
RTVSPropertyOp31
 70
     1
102
RTVSPropertyOp32
 70
     1
  0
XRECORD
  5
180
102
{ACAD_REACTORS
330
17F
102
}
330
17F
100
AcDbXrecord
280
     1
102
RTVSPropertyOp0
 70
     1
102
RTVSPropertyOp1
 70
     1
102
RTVSPropertyOp2
 70
     1
102
RTVSPropertyOp3
 70
     1
102
RTVSPropertyOp4
 70
     1
102
RTVSPropertyOp5
 70
     1
102
RTVSPropertyOp6
 70
     1
102
RTVSPropertyOp7
 70
     1
102
RTVSPropertyOp8
 70
     1
102
RTVSPropertyOp9
 70
     1
102
RTVSPropertyOp10
 70
     1
102
RTVSPropertyOp11
 70
     1
102
RTVSPropertyOp12
 70
     1
102
RTVSPropertyOp13
 70
     1
102
RTVSPropertyOp14
 70
     1
102
RTVSPropertyOp15
 70
     1
102
RTVSPropertyOp16
 70
     1
102
RTVSPropertyOp17
 70
     1
102
RTVSPropertyOp18
 70
     1
102
RTVSPropertyOp19
 70
     1
102
RTVSPropertyOp20
 70
     1
102
RTVSPropertyOp21
 70
     1
102
RTVSPropertyOp22
 70
     1
102
RTVSPropertyOp23
 70
     1
102
RTVSPropertyOp24
 70
     1
102
RTVSPropertyOp25
 70
     1
102
RTVSPropertyOp26
 70
     1
102
RTVSPropertyOp27
 70
     1
102
RTVSPropertyOp28
 70
     1
102
RTVSPropertyOp29
 70
     1
102
RTVSPropertyOp30
 70
     1
102
RTVSPropertyOp31
 70
     1
102
RTVSPropertyOp32
 70
     1
  0
XRECORD
  5
188
102
{ACAD_REACTORS
330
187
102
}
330
187
100
AcDbXrecord
280
     1
102
RTVSPropertyOp0
 70
     1
102
RTVSPropertyOp1
 70
     1
102
RTVSPropertyOp2
 70
     1
102
RTVSPropertyOp3
 70
     1
102
RTVSPropertyOp4
 70
     1
102
RTVSPropertyOp5
 70
     1
102
RTVSPropertyOp6
 70
     1
102
RTVSPropertyOp7
 70
     1
102
RTVSPropertyOp8
 70
     1
102
RTVSPropertyOp9
 70
     1
102
RTVSPropertyOp10
 70
     1
102
RTVSPropertyOp11
 70
     1
102
RTVSPropertyOp12
 70
     1
102
RTVSPropertyOp13
 70
     1
102
RTVSPropertyOp14
 70
     1
102
RTVSPropertyOp15
 70
     1
102
RTVSPropertyOp16
 70
     1
102
RTVSPropertyOp17
 70
     1
102
RTVSPropertyOp18
 70
     1
102
RTVSPropertyOp19
 70
     1
102
RTVSPropertyOp20
 70
     1
102
RTVSPropertyOp21
 70
     1
102
RTVSPropertyOp22
 70
     1
102
RTVSPropertyOp23
 70
     1
102
RTVSPropertyOp24
 70
     1
102
RTVSPropertyOp25
 70
     1
102
RTVSPropertyOp26
 70
     1
102
RTVSPropertyOp27
 70
     1
102
RTVSPropertyOp28
 70
     1
102
RTVSPropertyOp29
 70
     1
102
RTVSPropertyOp30
 70
     1
102
RTVSPropertyOp31
 70
     1
102
RTVSPropertyOp32
 70
     1
  0
XRECORD
  5
17C
102
{ACAD_REACTORS
330
17B
102
}
330
17B
100
AcDbXrecord
280
     1
102
RTVSPropertyOp0
 70
     1
102
RTVSPropertyOp1
 70
     1
102
RTVSPropertyOp2
 70
     1
102
RTVSPropertyOp3
 70
     1
102
RTVSPropertyOp4
 70
     1
102
RTVSPropertyOp5
 70
     1
102
RTVSPropertyOp6
 70
     1
102
RTVSPropertyOp7
 70
     1
102
RTVSPropertyOp8
 70
     1
102
RTVSPropertyOp9
 70
     1
102
RTVSPropertyOp10
 70
     1
102
RTVSPropertyOp11
 70
     1
102
RTVSPropertyOp12
 70
     1
102
RTVSPropertyOp13
 70
     1
102
RTVSPropertyOp14
 70
     1
102
RTVSPropertyOp15
 70
     1
102
RTVSPropertyOp16
 70
     1
102
RTVSPropertyOp17
 70
     1
102
RTVSPropertyOp18
 70
     1
102
RTVSPropertyOp19
 70
     1
102
RTVSPropertyOp20
 70
     1
102
RTVSPropertyOp21
 70
     1
102
RTVSPropertyOp22
 70
     1
102
RTVSPropertyOp23
 70
     1
102
RTVSPropertyOp24
 70
     1
102
RTVSPropertyOp25
 70
     1
102
RTVSPropertyOp26
 70
     1
102
RTVSPropertyOp27
 70
     1
102
RTVSPropertyOp28
 70
     1
102
RTVSPropertyOp29
 70
     1
102
RTVSPropertyOp30
 70
     1
102
RTVSPropertyOp31
 70
     1
102
RTVSPropertyOp32
 70
     1
  0
XRECORD
  5
17E
102
{ACAD_REACTORS
330
17D
102
}
330
17D
100
AcDbXrecord
280
     1
102
RTVSPropertyOp0
 70
     1
102
RTVSPropertyOp1
 70
     1
102
RTVSPropertyOp2
 70
     1
102
RTVSPropertyOp3
 70
     1
102
RTVSPropertyOp4
 70
     1
102
RTVSPropertyOp5
 70
     1
102
RTVSPropertyOp6
 70
     1
102
RTVSPropertyOp7
 70
     1
102
RTVSPropertyOp8
 70
     1
102
RTVSPropertyOp9
 70
     1
102
RTVSPropertyOp10
 70
     1
102
RTVSPropertyOp11
 70
     1
102
RTVSPropertyOp12
 70
     1
102
RTVSPropertyOp13
 70
     1
102
RTVSPropertyOp14
 70
     1
102
RTVSPropertyOp15
 70
     1
102
RTVSPropertyOp16
 70
     1
102
RTVSPropertyOp17
 70
     1
102
RTVSPropertyOp18
 70
     1
102
RTVSPropertyOp19
 70
     1
102
RTVSPropertyOp20
 70
     1
102
RTVSPropertyOp21
 70
     1
102
RTVSPropertyOp22
 70
     1
102
RTVSPropertyOp23
 70
     1
102
RTVSPropertyOp24
 70
     1
102
RTVSPropertyOp25
 70
     1
102
RTVSPropertyOp26
 70
     1
102
RTVSPropertyOp27
 70
     1
102
RTVSPropertyOp28
 70
     1
102
RTVSPropertyOp29
 70
     1
102
RTVSPropertyOp30
 70
     1
102
RTVSPropertyOp31
 70
     1
102
RTVSPropertyOp32
 70
     1
  0
XRECORD
  5
198
102
{ACAD_REACTORS
330
197
102
}
330
197
100
AcDbXrecord
280
     1
102
RTVSPropertyOp0
 70
     0
102
RTVSPropertyOp1
 70
     0
102
RTVSPropertyOp2
 70
     0
102
RTVSPropertyOp3
 70
     0
102
RTVSPropertyOp4
 70
     0
102
RTVSPropertyOp5
 70
     0
102
RTVSPropertyOp6
 70
     0
102
RTVSPropertyOp7
 70
     0
102
RTVSPropertyOp8
 70
     0
102
RTVSPropertyOp9
 70
     0
102
RTVSPropertyOp10
 70
     0
102
RTVSPropertyOp11
 70
     0
102
RTVSPropertyOp12
 70
     0
102
RTVSPropertyOp13
 70
     0
102
RTVSPropertyOp14
 70
     2
102
RTVSPropertyOp15
 70
     0
102
RTVSPropertyOp16
 70
     0
102
RTVSPropertyOp17
 70
     0
102
RTVSPropertyOp18
 70
     0
102
RTVSPropertyOp19
 70
     0
102
RTVSPropertyOp20
 70
     0
102
RTVSPropertyOp21
 70
     0
102
RTVSPropertyOp22
 70
     0
102
RTVSPropertyOp23
 70
     0
102
RTVSPropertyOp24
 70
     0
102
RTVSPropertyOp25
 70
     0
102
RTVSPropertyOp26
 70
     0
102
RTVSPropertyOp27
 70
     0
102
RTVSPropertyOp28
 70
     0
102
RTVSPropertyOp29
 70
     0
102
RTVSPropertyOp30
 70
     0
102
RTVSPropertyOp31
 70
     0
102
RTVSPropertyOp32
 70
     0
  0
XRECORD
  5
186
102
{ACAD_REACTORS
330
185
102
}
330
185
100
AcDbXrecord
280
     1
102
RTVSPropertyOp0
 70
     1
102
RTVSPropertyOp1
 70
     1
102
RTVSPropertyOp2
 70
     1
102
RTVSPropertyOp3
 70
     1
102
RTVSPropertyOp4
 70
     1
102
RTVSPropertyOp5
 70
     1
102
RTVSPropertyOp6
 70
     1
102
RTVSPropertyOp7
 70
     1
102
RTVSPropertyOp8
 70
     1
102
RTVSPropertyOp9
 70
     1
102
RTVSPropertyOp10
 70
     1
102
RTVSPropertyOp11
 70
     1
102
RTVSPropertyOp12
 70
     1
102
RTVSPropertyOp13
 70
     1
102
RTVSPropertyOp14
 70
     1
102
RTVSPropertyOp15
 70
     1
102
RTVSPropertyOp16
 70
     1
102
RTVSPropertyOp17
 70
     1
102
RTVSPropertyOp18
 70
     1
102
RTVSPropertyOp19
 70
     1
102
RTVSPropertyOp20
 70
     1
102
RTVSPropertyOp21
 70
     1
102
RTVSPropertyOp22
 70
     1
102
RTVSPropertyOp23
 70
     1
102
RTVSPropertyOp24
 70
     1
102
RTVSPropertyOp25
 70
     1
102
RTVSPropertyOp26
 70
     1
102
RTVSPropertyOp27
 70
     1
102
RTVSPropertyOp28
 70
     1
102
RTVSPropertyOp29
 70
     1
102
RTVSPropertyOp30
 70
     1
102
RTVSPropertyOp31
 70
     1
102
RTVSPropertyOp32
 70
     1
  0
XRECORD
  5
170
102
{ACAD_REACTORS
330
16F
102
}
330
16F
100
AcDbXrecord
280
     1
102
RTVSPropertyOp0
 70
     1
102
RTVSPropertyOp1
 70
     1
102
RTVSPropertyOp2
 70
     1
102
RTVSPropertyOp3
 70
     1
102
RTVSPropertyOp4
 70
     1
102
RTVSPropertyOp5
 70
     1
102
RTVSPropertyOp6
 70
     1
102
RTVSPropertyOp7
 70
     1
102
RTVSPropertyOp8
 70
     1
102
RTVSPropertyOp9
 70
     1
102
RTVSPropertyOp10
 70
     1
102
RTVSPropertyOp11
 70
     1
102
RTVSPropertyOp12
 70
     1
102
RTVSPropertyOp13
 70
     1
102
RTVSPropertyOp14
 70
     1
102
RTVSPropertyOp15
 70
     1
102
RTVSPropertyOp16
 70
     1
102
RTVSPropertyOp17
 70
     1
102
RTVSPropertyOp18
 70
     1
102
RTVSPropertyOp19
 70
     1
102
RTVSPropertyOp20
 70
     1
102
RTVSPropertyOp21
 70
     1
102
RTVSPropertyOp22
 70
     1
102
RTVSPropertyOp23
 70
     1
102
RTVSPropertyOp24
 70
     1
102
RTVSPropertyOp25
 70
     1
102
RTVSPropertyOp26
 70
     1
102
RTVSPropertyOp27
 70
     1
102
RTVSPropertyOp28
 70
     1
102
RTVSPropertyOp29
 70
     1
102
RTVSPropertyOp30
 70
     1
102
RTVSPropertyOp31
 70
     1
102
RTVSPropertyOp32
 70
     1
  0
XRECORD
  5
172
102
{ACAD_REACTORS
330
171
102
}
330
171
100
AcDbXrecord
280
     1
102
RTVSPropertyOp0
 70
     1
102
RTVSPropertyOp1
 70
     1
102
RTVSPropertyOp2
 70
     1
102
RTVSPropertyOp3
 70
     1
102
RTVSPropertyOp4
 70
     1
102
RTVSPropertyOp5
 70
     1
102
RTVSPropertyOp6
 70
     1
102
RTVSPropertyOp7
 70
     1
102
RTVSPropertyOp8
 70
     1
102
RTVSPropertyOp9
 70
     1
102
RTVSPropertyOp10
 70
     1
102
RTVSPropertyOp11
 70
     1
102
RTVSPropertyOp12
 70
     1
102
RTVSPropertyOp13
 70
     1
102
RTVSPropertyOp14
 70
     1
102
RTVSPropertyOp15
 70
     1
102
RTVSPropertyOp16
 70
     1
102
RTVSPropertyOp17
 70
     1
102
RTVSPropertyOp18
 70
     1
102
RTVSPropertyOp19
 70
     1
102
RTVSPropertyOp20
 70
     1
102
RTVSPropertyOp21
 70
     1
102
RTVSPropertyOp22
 70
     1
102
RTVSPropertyOp23
 70
     1
102
RTVSPropertyOp24
 70
     1
102
RTVSPropertyOp25
 70
     1
102
RTVSPropertyOp26
 70
     1
102
RTVSPropertyOp27
 70
     1
102
RTVSPropertyOp28
 70
     1
102
RTVSPropertyOp29
 70
     1
102
RTVSPropertyOp30
 70
     1
102
RTVSPropertyOp31
 70
     1
102
RTVSPropertyOp32
 70
     1
  0
XRECORD
  5
174
102
{ACAD_REACTORS
330
173
102
}
330
173
100
AcDbXrecord
280
     1
102
RTVSPropertyOp0
 70
     1
102
RTVSPropertyOp1
 70
     1
102
RTVSPropertyOp2
 70
     1
102
RTVSPropertyOp3
 70
     1
102
RTVSPropertyOp4
 70
     1
102
RTVSPropertyOp5
 70
     1
102
RTVSPropertyOp6
 70
     1
102
RTVSPropertyOp7
 70
     1
102
RTVSPropertyOp8
 70
     1
102
RTVSPropertyOp9
 70
     1
102
RTVSPropertyOp10
 70
     1
102
RTVSPropertyOp11
 70
     1
102
RTVSPropertyOp12
 70
     1
102
RTVSPropertyOp13
 70
     1
102
RTVSPropertyOp14
 70
     1
102
RTVSPropertyOp15
 70
     1
102
RTVSPropertyOp16
 70
     1
102
RTVSPropertyOp17
 70
     1
102
RTVSPropertyOp18
 70
     1
102
RTVSPropertyOp19
 70
     1
102
RTVSPropertyOp20
 70
     1
102
RTVSPropertyOp21
 70
     1
102
RTVSPropertyOp22
 70
     1
102
RTVSPropertyOp23
 70
     1
102
RTVSPropertyOp24
 70
     1
102
RTVSPropertyOp25
 70
     1
102
RTVSPropertyOp26
 70
     1
102
RTVSPropertyOp27
 70
     1
102
RTVSPropertyOp28
 70
     1
102
RTVSPropertyOp29
 70
     1
102
RTVSPropertyOp30
 70
     1
102
RTVSPropertyOp31
 70
     1
102
RTVSPropertyOp32
 70
     1
  0
XRECORD
  5
176
102
{ACAD_REACTORS
330
175
102
}
330
175
100
AcDbXrecord
280
     1
102
RTVSPropertyOp0
 70
     1
102
RTVSPropertyOp1
 70
     1
102
RTVSPropertyOp2
 70
     1
102
RTVSPropertyOp3
 70
     1
102
RTVSPropertyOp4
 70
     1
102
RTVSPropertyOp5
 70
     1
102
RTVSPropertyOp6
 70
     1
102
RTVSPropertyOp7
 70
     1
102
RTVSPropertyOp8
 70
     1
102
RTVSPropertyOp9
 70
     1
102
RTVSPropertyOp10
 70
     1
102
RTVSPropertyOp11
 70
     1
102
RTVSPropertyOp12
 70
     1
102
RTVSPropertyOp13
 70
     1
102
RTVSPropertyOp14
 70
     1
102
RTVSPropertyOp15
 70
     1
102
RTVSPropertyOp16
 70
     1
102
RTVSPropertyOp17
 70
     1
102
RTVSPropertyOp18
 70
     1
102
RTVSPropertyOp19
 70
     1
102
RTVSPropertyOp20
 70
     1
102
RTVSPropertyOp21
 70
     1
102
RTVSPropertyOp22
 70
     1
102
RTVSPropertyOp23
 70
     1
102
RTVSPropertyOp24
 70
     1
102
RTVSPropertyOp25
 70
     1
102
RTVSPropertyOp26
 70
     1
102
RTVSPropertyOp27
 70
     1
102
RTVSPropertyOp28
 70
     1
102
RTVSPropertyOp29
 70
     1
102
RTVSPropertyOp30
 70
     1
102
RTVSPropertyOp31
 70
     1
102
RTVSPropertyOp32
 70
     1
  0
XRECORD
  5
17A
102
{ACAD_REACTORS
330
179
102
}
330
179
100
AcDbXrecord
280
     1
102
RTVSPropertyOp0
 70
     1
102
RTVSPropertyOp1
 70
     1
102
RTVSPropertyOp2
 70
     1
102
RTVSPropertyOp3
 70
     1
102
RTVSPropertyOp4
 70
     1
102
RTVSPropertyOp5
 70
     1
102
RTVSPropertyOp6
 70
     1
102
RTVSPropertyOp7
 70
     1
102
RTVSPropertyOp8
 70
     1
102
RTVSPropertyOp9
 70
     1
102
RTVSPropertyOp10
 70
     1
102
RTVSPropertyOp11
 70
     1
102
RTVSPropertyOp12
 70
     1
102
RTVSPropertyOp13
 70
     1
102
RTVSPropertyOp14
 70
     1
102
RTVSPropertyOp15
 70
     1
102
RTVSPropertyOp16
 70
     1
102
RTVSPropertyOp17
 70
     1
102
RTVSPropertyOp18
 70
     1
102
RTVSPropertyOp19
 70
     1
102
RTVSPropertyOp20
 70
     1
102
RTVSPropertyOp21
 70
     1
102
RTVSPropertyOp22
 70
     1
102
RTVSPropertyOp23
 70
     1
102
RTVSPropertyOp24
 70
     1
102
RTVSPropertyOp25
 70
     1
102
RTVSPropertyOp26
 70
     1
102
RTVSPropertyOp27
 70
     1
102
RTVSPropertyOp28
 70
     1
102
RTVSPropertyOp29
 70
     1
102
RTVSPropertyOp30
 70
     1
102
RTVSPropertyOp31
 70
     1
102
RTVSPropertyOp32
 70
     1
  0
XRECORD
  5
194
102
{ACAD_REACTORS
330
193
102
}
330
193
100
AcDbXrecord
280
     1
102
RTVSPropertyOp0
 70
     0
102
RTVSPropertyOp1
 70
     0
102
RTVSPropertyOp2
 70
     0
102
RTVSPropertyOp3
 70
     0
102
RTVSPropertyOp4
 70
     0
102
RTVSPropertyOp5
 70
     0
102
RTVSPropertyOp6
 70
     0
102
RTVSPropertyOp7
 70
     0
102
RTVSPropertyOp8
 70
     0
102
RTVSPropertyOp9
 70
     0
102
RTVSPropertyOp10
 70
     0
102
RTVSPropertyOp11
 70
     0
102
RTVSPropertyOp12
 70
     0
102
RTVSPropertyOp13
 70
     0
102
RTVSPropertyOp14
 70
     2
102
RTVSPropertyOp15
 70
     0
102
RTVSPropertyOp16
 70
     0
102
RTVSPropertyOp17
 70
     0
102
RTVSPropertyOp18
 70
     0
102
RTVSPropertyOp19
 70
     0
102
RTVSPropertyOp20
 70
     0
102
RTVSPropertyOp21
 70
     0
102
RTVSPropertyOp22
 70
     0
102
RTVSPropertyOp23
 70
     0
102
RTVSPropertyOp24
 70
     0
102
RTVSPropertyOp25
 70
     0
102
RTVSPropertyOp26
 70
     0
102
RTVSPropertyOp27
 70
     0
102
RTVSPropertyOp28
 70
     0
102
RTVSPropertyOp29
 70
     0
102
RTVSPropertyOp30
 70
     0
102
RTVSPropertyOp31
 70
     0
102
RTVSPropertyOp32
 70
     0
  0
XRECORD
  5
184
102
{ACAD_REACTORS
330
183
102
}
330
183
100
AcDbXrecord
280
     1
102
RTVSPropertyOp0
 70
     1
102
RTVSPropertyOp1
 70
     1
102
RTVSPropertyOp2
 70
     1
102
RTVSPropertyOp3
 70
     1
102
RTVSPropertyOp4
 70
     1
102
RTVSPropertyOp5
 70
     1
102
RTVSPropertyOp6
 70
     1
102
RTVSPropertyOp7
 70
     1
102
RTVSPropertyOp8
 70
     1
102
RTVSPropertyOp9
 70
     1
102
RTVSPropertyOp10
 70
     1
102
RTVSPropertyOp11
 70
     1
102
RTVSPropertyOp12
 70
     1
102
RTVSPropertyOp13
 70
     1
102
RTVSPropertyOp14
 70
     1
102
RTVSPropertyOp15
 70
     1
102
RTVSPropertyOp16
 70
     1
102
RTVSPropertyOp17
 70
     1
102
RTVSPropertyOp18
 70
     1
102
RTVSPropertyOp19
 70
     1
102
RTVSPropertyOp20
 70
     1
102
RTVSPropertyOp21
 70
     1
102
RTVSPropertyOp22
 70
     1
102
RTVSPropertyOp23
 70
     1
102
RTVSPropertyOp24
 70
     1
102
RTVSPropertyOp25
 70
     1
102
RTVSPropertyOp26
 70
     1
102
RTVSPropertyOp27
 70
     1
102
RTVSPropertyOp28
 70
     1
102
RTVSPropertyOp29
 70
     1
102
RTVSPropertyOp30
 70
     1
102
RTVSPropertyOp31
 70
     1
102
RTVSPropertyOp32
 70
     1
  0
XRECORD
  5
196
102
{ACAD_REACTORS
330
195
102
}
330
195
100
AcDbXrecord
280
     1
102
RTVSPropertyOp0
 70
     0
102
RTVSPropertyOp1
 70
     0
102
RTVSPropertyOp2
 70
     0
102
RTVSPropertyOp3
 70
     0
102
RTVSPropertyOp4
 70
     0
102
RTVSPropertyOp5
 70
     0
102
RTVSPropertyOp6
 70
     0
102
RTVSPropertyOp7
 70
     0
102
RTVSPropertyOp8
 70
     0
102
RTVSPropertyOp9
 70
     0
102
RTVSPropertyOp10
 70
     0
102
RTVSPropertyOp11
 70
     0
102
RTVSPropertyOp12
 70
     0
102
RTVSPropertyOp13
 70
     0
102
RTVSPropertyOp14
 70
     2
102
RTVSPropertyOp15
 70
     0
102
RTVSPropertyOp16
 70
     0
102
RTVSPropertyOp17
 70
     0
102
RTVSPropertyOp18
 70
     0
102
RTVSPropertyOp19
 70
     0
102
RTVSPropertyOp20
 70
     0
102
RTVSPropertyOp21
 70
     0
102
RTVSPropertyOp22
 70
     0
102
RTVSPropertyOp23
 70
     0
102
RTVSPropertyOp24
 70
     0
102
RTVSPropertyOp25
 70
     0
102
RTVSPropertyOp26
 70
     0
102
RTVSPropertyOp27
 70
     0
102
RTVSPropertyOp28
 70
     0
102
RTVSPropertyOp29
 70
     0
102
RTVSPropertyOp30
 70
     0
102
RTVSPropertyOp31
 70
     0
102
RTVSPropertyOp32
 70
     0
  0
XRECORD
  5
16C
102
{ACAD_REACTORS
330
16B
102
}
330
16B
100
AcDbXrecord
280
     1
102
RTVSPropertyOp0
 70
     1
102
RTVSPropertyOp1
 70
     1
102
RTVSPropertyOp2
 70
     1
102
RTVSPropertyOp3
 70
     1
102
RTVSPropertyOp4
 70
     1
102
RTVSPropertyOp5
 70
     1
102
RTVSPropertyOp6
 70
     1
102
RTVSPropertyOp7
 70
     1
102
RTVSPropertyOp8
 70
     1
102
RTVSPropertyOp9
 70
     1
102
RTVSPropertyOp10
 70
     1
102
RTVSPropertyOp11
 70
     1
102
RTVSPropertyOp12
 70
     1
102
RTVSPropertyOp13
 70
     1
102
RTVSPropertyOp14
 70
     1
102
RTVSPropertyOp15
 70
     1
102
RTVSPropertyOp16
 70
     1
102
RTVSPropertyOp17
 70
     1
102
RTVSPropertyOp18
 70
     1
102
RTVSPropertyOp19
 70
     1
102
RTVSPropertyOp20
 70
     1
102
RTVSPropertyOp21
 70
     1
102
RTVSPropertyOp22
 70
     1
102
RTVSPropertyOp23
 70
     1
102
RTVSPropertyOp24
 70
     1
102
RTVSPropertyOp25
 70
     1
102
RTVSPropertyOp26
 70
     1
102
RTVSPropertyOp27
 70
     1
102
RTVSPropertyOp28
 70
     1
102
RTVSPropertyOp29
 70
     1
102
RTVSPropertyOp30
 70
     1
102
RTVSPropertyOp31
 70
     1
102
RTVSPropertyOp32
 70
     1
  0
XRECORD
  5
192
102
{ACAD_REACTORS
330
191
102
}
330
191
100
AcDbXrecord
280
     1
102
RTVSPropertyOp0
 70
     1
102
RTVSPropertyOp1
 70
     1
102
RTVSPropertyOp2
 70
     1
102
RTVSPropertyOp3
 70
     1
102
RTVSPropertyOp4
 70
     1
102
RTVSPropertyOp5
 70
     1
102
RTVSPropertyOp6
 70
     1
102
RTVSPropertyOp7
 70
     1
102
RTVSPropertyOp8
 70
     1
102
RTVSPropertyOp9
 70
     1
102
RTVSPropertyOp10
 70
     1
102
RTVSPropertyOp11
 70
     1
102
RTVSPropertyOp12
 70
     1
102
RTVSPropertyOp13
 70
     1
102
RTVSPropertyOp14
 70
     1
102
RTVSPropertyOp15
 70
     1
102
RTVSPropertyOp16
 70
     1
102
RTVSPropertyOp17
 70
     1
102
RTVSPropertyOp18
 70
     1
102
RTVSPropertyOp19
 70
     1
102
RTVSPropertyOp20
 70
     1
102
RTVSPropertyOp21
 70
     1
102
RTVSPropertyOp22
 70
     1
102
RTVSPropertyOp23
 70
     1
102
RTVSPropertyOp24
 70
     1
102
RTVSPropertyOp25
 70
     1
102
RTVSPropertyOp26
 70
     1
102
RTVSPropertyOp27
 70
     1
102
RTVSPropertyOp28
 70
     1
102
RTVSPropertyOp29
 70
     1
102
RTVSPropertyOp30
 70
     1
102
RTVSPropertyOp31
 70
     1
102
RTVSPropertyOp32
 70
     1
  0
XRECORD
  5
190
102
{ACAD_REACTORS
330
18F
102
}
330
18F
100
AcDbXrecord
280
     1
102
RTVSPropertyOp0
 70
     1
102
RTVSPropertyOp1
 70
     1
102
RTVSPropertyOp2
 70
     1
102
RTVSPropertyOp3
 70
     1
102
RTVSPropertyOp4
 70
     1
102
RTVSPropertyOp5
 70
     1
102
RTVSPropertyOp6
 70
     1
102
RTVSPropertyOp7
 70
     1
102
RTVSPropertyOp8
 70
     1
102
RTVSPropertyOp9
 70
     1
102
RTVSPropertyOp10
 70
     1
102
RTVSPropertyOp11
 70
     1
102
RTVSPropertyOp12
 70
     1
102
RTVSPropertyOp13
 70
     1
102
RTVSPropertyOp14
 70
     1
102
RTVSPropertyOp15
 70
     1
102
RTVSPropertyOp16
 70
     1
102
RTVSPropertyOp17
 70
     1
102
RTVSPropertyOp18
 70
     1
102
RTVSPropertyOp19
 70
     1
102
RTVSPropertyOp20
 70
     1
102
RTVSPropertyOp21
 70
     1
102
RTVSPropertyOp22
 70
     1
102
RTVSPropertyOp23
 70
     1
102
RTVSPropertyOp24
 70
     1
102
RTVSPropertyOp25
 70
     1
102
RTVSPropertyOp26
 70
     1
102
RTVSPropertyOp27
 70
     1
102
RTVSPropertyOp28
 70
     1
102
RTVSPropertyOp29
 70
     1
102
RTVSPropertyOp30
 70
     1
102
RTVSPropertyOp31
 70
     1
102
RTVSPropertyOp32
 70
     1
  0
XRECORD
  5
18A
102
{ACAD_REACTORS
330
189
102
}
330
189
100
AcDbXrecord
280
     1
102
RTVSPropertyOp0
 70
     1
102
RTVSPropertyOp1
 70
     1
102
RTVSPropertyOp2
 70
     1
102
RTVSPropertyOp3
 70
     1
102
RTVSPropertyOp4
 70
     1
102
RTVSPropertyOp5
 70
     1
102
RTVSPropertyOp6
 70
     1
102
RTVSPropertyOp7
 70
     1
102
RTVSPropertyOp8
 70
     1
102
RTVSPropertyOp9
 70
     1
102
RTVSPropertyOp10
 70
     1
102
RTVSPropertyOp11
 70
     1
102
RTVSPropertyOp12
 70
     1
102
RTVSPropertyOp13
 70
     1
102
RTVSPropertyOp14
 70
     1
102
RTVSPropertyOp15
 70
     1
102
RTVSPropertyOp16
 70
     1
102
RTVSPropertyOp17
 70
     1
102
RTVSPropertyOp18
 70
     1
102
RTVSPropertyOp19
 70
     1
102
RTVSPropertyOp20
 70
     1
102
RTVSPropertyOp21
 70
     1
102
RTVSPropertyOp22
 70
     1
102
RTVSPropertyOp23
 70
     1
102
RTVSPropertyOp24
 70
     1
102
RTVSPropertyOp25
 70
     1
102
RTVSPropertyOp26
 70
     1
102
RTVSPropertyOp27
 70
     1
102
RTVSPropertyOp28
 70
     1
102
RTVSPropertyOp29
 70
     1
102
RTVSPropertyOp30
 70
     1
102
RTVSPropertyOp31
 70
     1
102
RTVSPropertyOp32
 70
     1
  0
XRECORD
  5
18C
102
{ACAD_REACTORS
330
18B
102
}
330
18B
100
AcDbXrecord
280
     1
102
RTVSPropertyOp0
 70
     1
102
RTVSPropertyOp1
 70
     1
102
RTVSPropertyOp2
 70
     1
102
RTVSPropertyOp3
 70
     1
102
RTVSPropertyOp4
 70
     1
102
RTVSPropertyOp5
 70
     1
102
RTVSPropertyOp6
 70
     1
102
RTVSPropertyOp7
 70
     1
102
RTVSPropertyOp8
 70
     1
102
RTVSPropertyOp9
 70
     1
102
RTVSPropertyOp10
 70
     1
102
RTVSPropertyOp11
 70
     1
102
RTVSPropertyOp12
 70
     1
102
RTVSPropertyOp13
 70
     1
102
RTVSPropertyOp14
 70
     1
102
RTVSPropertyOp15
 70
     1
102
RTVSPropertyOp16
 70
     1
102
RTVSPropertyOp17
 70
     1
102
RTVSPropertyOp18
 70
     1
102
RTVSPropertyOp19
 70
     1
102
RTVSPropertyOp20
 70
     1
102
RTVSPropertyOp21
 70
     1
102
RTVSPropertyOp22
 70
     1
102
RTVSPropertyOp23
 70
     1
102
RTVSPropertyOp24
 70
     1
102
RTVSPropertyOp25
 70
     1
102
RTVSPropertyOp26
 70
     1
102
RTVSPropertyOp27
 70
     1
102
RTVSPropertyOp28
 70
     1
102
RTVSPropertyOp29
 70
     1
102
RTVSPropertyOp30
 70
     1
102
RTVSPropertyOp31
 70
     1
102
RTVSPropertyOp32
 70
     1
  0
XRECORD
  5
182
102
{ACAD_REACTORS
330
181
102
}
330
181
100
AcDbXrecord
280
     1
102
RTVSPropertyOp0
 70
     1
102
RTVSPropertyOp1
 70
     1
102
RTVSPropertyOp2
 70
     1
102
RTVSPropertyOp3
 70
     1
102
RTVSPropertyOp4
 70
     1
102
RTVSPropertyOp5
 70
     1
102
RTVSPropertyOp6
 70
     1
102
RTVSPropertyOp7
 70
     1
102
RTVSPropertyOp8
 70
     1
102
RTVSPropertyOp9
 70
     1
102
RTVSPropertyOp10
 70
     1
102
RTVSPropertyOp11
 70
     1
102
RTVSPropertyOp12
 70
     1
102
RTVSPropertyOp13
 70
     1
102
RTVSPropertyOp14
 70
     1
102
RTVSPropertyOp15
 70
     1
102
RTVSPropertyOp16
 70
     1
102
RTVSPropertyOp17
 70
     1
102
RTVSPropertyOp18
 70
     1
102
RTVSPropertyOp19
 70
     1
102
RTVSPropertyOp20
 70
     1
102
RTVSPropertyOp21
 70
     1
102
RTVSPropertyOp22
 70
     1
102
RTVSPropertyOp23
 70
     1
102
RTVSPropertyOp24
 70
     1
102
RTVSPropertyOp25
 70
     1
102
RTVSPropertyOp26
 70
     1
102
RTVSPropertyOp27
 70
     1
102
RTVSPropertyOp28
 70
     1
102
RTVSPropertyOp29
 70
     1
102
RTVSPropertyOp30
 70
     1
102
RTVSPropertyOp31
 70
     1
102
RTVSPropertyOp32
 70
     1
  0
XRECORD
  5
16E
102
{ACAD_REACTORS
330
16D
102
}
330
16D
100
AcDbXrecord
280
     1
102
RTVSPropertyOp0
 70
     1
102
RTVSPropertyOp1
 70
     1
102
RTVSPropertyOp2
 70
     1
102
RTVSPropertyOp3
 70
     1
102
RTVSPropertyOp4
 70
     1
102
RTVSPropertyOp5
 70
     1
102
RTVSPropertyOp6
 70
     1
102
RTVSPropertyOp7
 70
     1
102
RTVSPropertyOp8
 70
     1
102
RTVSPropertyOp9
 70
     1
102
RTVSPropertyOp10
 70
     1
102
RTVSPropertyOp11
 70
     1
102
RTVSPropertyOp12
 70
     1
102
RTVSPropertyOp13
 70
     1
102
RTVSPropertyOp14
 70
     1
102
RTVSPropertyOp15
 70
     1
102
RTVSPropertyOp16
 70
     1
102
RTVSPropertyOp17
 70
     1
102
RTVSPropertyOp18
 70
     1
102
RTVSPropertyOp19
 70
     1
102
RTVSPropertyOp20
 70
     1
102
RTVSPropertyOp21
 70
     1
102
RTVSPropertyOp22
 70
     1
102
RTVSPropertyOp23
 70
     1
102
RTVSPropertyOp24
 70
     1
102
RTVSPropertyOp25
 70
     1
102
RTVSPropertyOp26
 70
     1
102
RTVSPropertyOp27
 70
     1
102
RTVSPropertyOp28
 70
     1
102
RTVSPropertyOp29
 70
     1
102
RTVSPropertyOp30
 70
     1
102
RTVSPropertyOp31
 70
     1
102
RTVSPropertyOp32
 70
     1
  0
XRECORD
  5
18E
102
{ACAD_REACTORS
330
18D
102
}
330
18D
100
AcDbXrecord
280
     1
102
RTVSPropertyOp0
 70
     1
102
RTVSPropertyOp1
 70
     1
102
RTVSPropertyOp2
 70
     1
102
RTVSPropertyOp3
 70
     1
102
RTVSPropertyOp4
 70
     1
102
RTVSPropertyOp5
 70
     1
102
RTVSPropertyOp6
 70
     1
102
RTVSPropertyOp7
 70
     1
102
RTVSPropertyOp8
 70
     1
102
RTVSPropertyOp9
 70
     1
102
RTVSPropertyOp10
 70
     1
102
RTVSPropertyOp11
 70
     1
102
RTVSPropertyOp12
 70
     1
102
RTVSPropertyOp13
 70
     1
102
RTVSPropertyOp14
 70
     1
102
RTVSPropertyOp15
 70
     1
102
RTVSPropertyOp16
 70
     1
102
RTVSPropertyOp17
 70
     1
102
RTVSPropertyOp18
 70
     1
102
RTVSPropertyOp19
 70
     1
102
RTVSPropertyOp20
 70
     1
102
RTVSPropertyOp21
 70
     1
102
RTVSPropertyOp22
 70
     1
102
RTVSPropertyOp23
 70
     1
102
RTVSPropertyOp24
 70
     1
102
RTVSPropertyOp25
 70
     1
102
RTVSPropertyOp26
 70
     1
102
RTVSPropertyOp27
 70
     1
102
RTVSPropertyOp28
 70
     1
102
RTVSPropertyOp29
 70
     1
102
RTVSPropertyOp30
 70
     1
102
RTVSPropertyOp31
 70
     1
102
RTVSPropertyOp32
 70
     1
  0
ENDSEC
  0
EOF
