  0
SECTION
  2
HEADER
  9
$ACADVER
  1
AC1015
  9
$ACADMAINTVER
 70
    18
  9
$DWGCODEPAGE
  3
ANSI_1252
  9
$INSBASE
 10
0.0
 20
0.0
 30
0.0
  9
$EXTMIN
 10
-80.40844459087656
 20
-47.05729484960602
 30
-0.0015258207003583
  9
$EXTMAX
 10
29.17346333220303
 20
29.16859537336086
 30
0.0000000349246037
  9
$LIMMIN
 10
0.0
 20
0.0
  9
$LIMMAX
 10
1189.0
 20
840.9999999999998
  9
$ORTHOMODE
 70
     0
  9
$REGENMODE
 70
     1
  9
$FILLMODE
 70
     1
  9
$QTEXTMODE
 70
     0
  9
$MIRRTEXT
 70
     0
  9
$LTSCALE
 40
1.0
  9
$ATTMODE
 70
     1
  9
$TEXTSIZE
 40
0.2
  9
$TRACEWID
 40
0.05
  9
$TEXTSTYLE
  7
STANDARD
  9
$CLAYER
  8
0
  9
$CELTYPE
  6
ByLayer
  9
$CECOLOR
 62
   256
  9
$CELTSCALE
 40
1.0
  9
$DISPSILH
 70
     0
  9
$DIMSCALE
 40
1.0
  9
$DIMASZ
 40
180.0
  9
$DIMEXO
 40
0.0625
  9
$DIMDLI
 40
0.38
  9
$DIMRND
 40
0.0
  9
$DIMDLE
 40
0.0
  9
$DIMEXE
 40
0.18
  9
$DIMTP
 40
0.0
  9
$DIMTM
 40
0.0
  9
$DIMTXT
 40
34.99999940395355
  9
$DIMCEN
 40
0.09
  9
$DIMTSZ
 40
0.0
  9
$DIMTOL
 70
     0
  9
$DIMLIM
 70
     0
  9
$DIMTIH
 70
     1
  9
$DIMTOH
 70
     1
  9
$DIMSE1
 70
     0
  9
$DIMSE2
 70
     0
  9
$DIMTAD
 70
     0
  9
$DIMZIN
 70
     0
  9
$DIMBLK
  1

  9
$DIMASO
 70
     1
  9
$DIMSHO
 70
     1
  9
$DIMPOST
  1

  9
$DIMAPOST
  1

  9
$DIMALT
 70
     0
  9
$DIMALTD
 70
     2
  9
$DIMALTF
 40
25.4
  9
$DIMLFAC
 40
1.0
  9
$DIMTOFL
 70
     0
  9
$DIMTVP
 40
0.0
  9
$DIMTIX
 70
     0
  9
$DIMSOXD
 70
     0
  9
$DIMSAH
 70
     0
  9
$DIMBLK1
  1

  9
$DIMBLK2
  1

  9
$DIMSTYLE
  2
STANDARD
  9
$DIMCLRD
 70
     0
  9
$DIMCLRE
 70
     0
  9
$DIMCLRT
 70
     0
  9
$DIMTFAC
 40
1.0
  9
$DIMGAP
 40
0.09
  9
$DIMJUST
 70
     0
  9
$DIMSD1
 70
     0
  9
$DIMSD2
 70
     0
  9
$DIMTOLJ
 70
     1
  9
$DIMTZIN
 70
     0
  9
$DIMALTZ
 70
     0
  9
$DIMALTTZ
 70
     0
  9
$DIMUPT
 70
     0
  9
$DIMDEC
 70
     4
  9
$DIMTDEC
 70
     4
  9
$DIMALTU
 70
     2
  9
$DIMALTTD
 70
     2
  9
$DIMTXSTY
  7
STANDARD
  9
$DIMAUNIT
 70
     0
  9
$DIMADEC
 70
     0
  9
$DIMALTRND
 40
0.0
  9
$DIMAZIN
 70
     0
  9
$DIMDSEP
 70
    46
  9
$DIMATFIT
 70
     3
  9
$DIMFRAC
 70
     0
  9
$DIMLDRBLK
  1

  9
$DIMLUNIT
 70
     2
  9
$DIMLWD
 70
    -2
  9
$DIMLWE
 70
    -2
  9
$DIMTMOVE
 70
     0
  9
$LUNITS
 70
     2
  9
$LUPREC
 70
     4
  9
$SKETCHINC
 40
0.1
  9
$FILLETRAD
 40
0.0
  9
$AUNITS
 70
     0
  9
$AUPREC
 70
     0
  9
$MENU
  1
.
  9
$ELEVATION
 40
0.0
  9
$PELEVATION
 40
0.0
  9
$THICKNESS
 40
0.0
  9
$LIMCHECK
 70
     0
  9
$CHAMFERA
 40
0.0
  9
$CHAMFERB
 40
0.0
  9
$CHAMFERC
 40
0.0
  9
$CHAMFERD
 40
0.0
  9
$SKPOLY
 70
     0
  9
$TDCREATE
 40
2454871.539305995
  9
$TDUCREATE
 40
2454871.455972662
  9
$TDUPDATE
 40
2455719.748501181
  9
$TDUUPDATE
 40
2455719.665167847
  9
$TDINDWG
 40
0.0120315741
  9
$TDUSRTIMER
 40
0.0120315741
  9
$USRTIMER
 70
     1
  9
$ANGBASE
 50
0.0
  9
$ANGDIR
 70
     0
  9
$PDMODE
 70
     0
  9
$PDSIZE
 40
0.0
  9
$PLINEWID
 40
0.0
  9
$SPLFRAME
 70
     0
  9
$SPLINETYPE
 70
     6
  9
$SPLINESEGS
 70
     8
  9
$HANDSEED
  5
3BC
  9
$SURFTAB1
 70
     6
  9
$SURFTAB2
 70
     6
  9
$SURFTYPE
 70
     6
  9
$SURFU
 70
     6
  9
$SURFV
 70
     6
  9
$UCSBASE
  2

  9
$UCSNAME
  2

  9
$UCSORG
 10
0.0
 20
0.0
 30
0.0
  9
$UCSXDIR
 10
1.0
 20
0.0
 30
0.0
  9
$UCSYDIR
 10
0.0
 20
1.0
 30
0.0
  9
$UCSORTHOREF
  2

  9
$UCSORTHOVIEW
 70
     0
  9
$UCSORGTOP
 10
0.0
 20
0.0
 30
0.0
  9
$UCSORGBOTTOM
 10
0.0
 20
0.0
 30
0.0
  9
$UCSORGLEFT
 10
0.0
 20
0.0
 30
0.0
  9
$UCSORGRIGHT
 10
0.0
 20
0.0
 30
0.0
  9
$UCSORGFRONT
 10
0.0
 20
0.0
 30
0.0
  9
$UCSORGBACK
 10
0.0
 20
0.0
 30
0.0
  9
$PUCSBASE
  2

  9
$PUCSNAME
  2

  9
$PUCSORG
 10
0.0
 20
0.0
 30
0.0
  9
$PUCSXDIR
 10
1.0
 20
0.0
 30
0.0
  9
$PUCSYDIR
 10
0.0
 20
1.0
 30
0.0
  9
$PUCSORTHOREF
  2

  9
$PUCSORTHOVIEW
 70
     0
  9
$PUCSORGTOP
 10
0.0
 20
0.0
 30
0.0
  9
$PUCSORGBOTTOM
 10
0.0
 20
0.0
 30
0.0
  9
$PUCSORGLEFT
 10
0.0
 20
0.0
 30
0.0
  9
$PUCSORGRIGHT
 10
0.0
 20
0.0
 30
0.0
  9
$PUCSORGFRONT
 10
0.0
 20
0.0
 30
0.0
  9
$PUCSORGBACK
 10
0.0
 20
0.0
 30
0.0
  9
$USERI1
 70
     0
  9
$USERI2
 70
     0
  9
$USERI3
 70
     0
  9
$USERI4
 70
     0
  9
$USERI5
 70
     0
  9
$USERR1
 40
0.0
  9
$USERR2
 40
0.0
  9
$USERR3
 40
0.0
  9
$USERR4
 40
0.0
  9
$USERR5
 40
0.0
  9
$WORLDVIEW
 70
     1
  9
$SHADEDGE
 70
     3
  9
$SHADEDIF
 70
    70
  9
$TILEMODE
 70
     1
  9
$MAXACTVP
 70
    64
  9
$PINSBASE
 10
0.0
 20
0.0
 30
0.0
  9
$PLIMCHECK
 70
     0
  9
$PEXTMIN
 10
0.0
 20
0.0
 30
0.0
  9
$PEXTMAX
 10
1189.0
 20
840.9999999999998
 30
0.0
  9
$PLIMMIN
 10
0.0
 20
0.0
  9
$PLIMMAX
 10
1189.0
 20
840.9999999999998
  9
$UNITMODE
 70
     0
  9
$VISRETAIN
 70
     1
  9
$PLINEGEN
 70
     0
  9
$PSLTSCALE
 70
     1
  9
$TREEDEPTH
 70
  3020
  9
$CMLSTYLE
  2
Standard
  9
$CMLJUST
 70
     0
  9
$CMLSCALE
 40
1.0
  9
$PROXYGRAPHICS
 70
     1
  9
$MEASUREMENT
 70
     1
  9
$CELWEIGHT
370
    -1
  9
$ENDCAPS
280
     0
  9
$JOINSTYLE
280
     0
  9
$LWDISPLAY
290
     0
  9
$INSUNITS
 70
     4
  9
$HYPERLINKBASE
  1

  9
$STYLESHEET
  1

  9
$XEDIT
290
     1
  9
$CEPSNTYPE
380
     0
  9
$PSTYLEMODE
290
     1
  9
$FINGERPRINTGUID
  2
{5CCC1277-0CA3-41FD-909A-FC7E046B0F58}
  9
$VERSIONGUID
  2
{8F655BBA-FB97-4FC3-9F87-5CFA6A400DA9}
  9
$EXTNAMES
290
     1
  9
$PSVPSCALE
 40
0.0
  9
$OLESTARTUP
290
     0
  0
ENDSEC
  0
SECTION
  2
CLASSES
  0
CLASS
  1
ACDBDICTIONARYWDFLT
  2
AcDbDictionaryWithDefault
  3
ObjectDBX Classes
 90
        0
280
     0
281
     0
  0
CLASS
  1
MATERIAL
  2
AcDbMaterial
  3
ObjectDBX Classes
 90
     1153
280
     0
281
     0
  0
CLASS
  1
VISUALSTYLE
  2
AcDbVisualStyle
  3
ObjectDBX Classes
 90
     4095
280
     0
281
     0
  0
CLASS
  1
SCALE
  2
AcDbScale
  3
ObjectDBX Classes
 90
     1153
280
     0
281
     0
  0
CLASS
  1
TABLESTYLE
  2
AcDbTableStyle
  3
ObjectDBX Classes
 90
     4095
280
     0
281
     0
  0
CLASS
  1
MLEADERSTYLE
  2
AcDbMLeaderStyle
  3
ACDB_MLEADERSTYLE_CLASS
 90
     4095
280
     0
281
     0
  0
CLASS
  1
SORTENTSTABLE
  2
AcDbSortentsTable
  3
ObjectDBX Classes
 90
        0
280
     0
281
     0
  0
CLASS
  1
CELLSTYLEMAP
  2
AcDbCellStyleMap
  3
ObjectDBX Classes
 90
     1152
280
     0
281
     0
  0
CLASS
  1
DICTIONARYVAR
  2
AcDbDictionaryVar
  3
ObjectDBX Classes
 90
        0
280
     0
281
     0
  0
CLASS
  1
ACME_DOCUMENT
  2
AcMeDbDoc
  3
AcMeServices
 90
     1024
280
     0
281
     0
  0
CLASS
  1
AMGSETTINGSOBJ
  2
AmgSettingsObj
  3
"AcadM|Product Description: AutoCAD Mechanical|Company: Autodesk, Inc."
 90
     1024
280
     0
281
     0
  0
CLASS
  1
ACMESCOPE
  2
AcMeScope
  3
AcMeServices
 90
     1024
280
     0
281
     0
  0
CLASS
  1
ACMECOMMANDHISTORY
  2
AcMeCommandHistory
  3
AcMeServices
 90
     1024
280
     0
281
     0
  0
CLASS
  1
ACIMSYSVARMAN
  2
AcImSysVarManager
  3
AcMeServices
 90
     1024
280
     0
281
     0
  0
CLASS
  1
ACIMINTSYSVAR
  2
AcImIntSysVar
  3
AcMeServices
 90
     1024
280
     0
281
     0
  0
CLASS
  1
ACMEDRAWINGMAN
  2
AcMeDrawingMan
  3
AcMeServices
 90
    33792
280
     0
281
     0
  0
CLASS
  1
ACMEVIEW
  2
AcMeView
  3
AcMeServices
 90
    33792
280
     0
281
     0
  0
CLASS
  1
ACDBENTITYCACHE
  2
AcMeEntityCache
  3
AcMeServices
 90
     1024
280
     0
281
     0
  0
CLASS
  1
GSMANAGER
  2
AcMeGSManager
  3
AcMeServices
 90
    33792
280
     1
281
     0
  0
CLASS
  1
AMDTINTERNALREACTOR
  2
AmdtInternalReactor
  3
AcMeServices
 90
     1024
280
     0
281
     0
  0
CLASS
  1
ACMESTATEMGR
  2
AcMeStateMgr
  3
AcMeServices
 90
     1024
280
     0
281
     0
  0
CLASS
  1
ACGREFMASTER
  2
AcGrefMaster
  3
AcAttribServices
 90
     1024
280
     0
281
     0
  0
CLASS
  1
AM_DRAWING_MGR
  2
AcDmDwgMgr
  3
AcMechDwgViewMgmt
 90
     1024
280
     0
281
     0
  0
CLASS
  1
AM_DWG_DOCUMENT
  2
AcDmDwgDocument
  3
AcMechDwgViewMgmt
 90
     1024
280
     0
281
     0
  0
CLASS
  1
AM_DWG_SHEET
  2
AcDmSheet
  3
AcMechDwgViewMgmt
 90
     1024
280
     0
281
     0
  0
CLASS
  1
AM_VIEWDIMPARMAP
  2
AcDmViewDimParMap
  3
AcMechDwgViewMgmt
 90
     1024
280
     0
281
     0
  0
CLASS
  1
ACIMREALSYSVAR
  2
AcImRealSysVar
  3
AcMeServices
 90
     1024
280
     0
281
     0
  0
CLASS
  1
AM_DWGMGR_NAME
  2
AcDmDwgMgrName
  3
AcMechDwgViewMgmt
 90
     1024
280
     0
281
     0
  0
CLASS
  1
ACME_DATABASE
  2
AcMeDbDatabase
  3
AcMeServices
 90
     1024
280
     0
281
     0
  0
CLASS
  1
ACRFINSADJUSTERMGR
  2
AcRfInsAdjusterMgr
  3
AcMeServices
 90
     1024
280
     0
281
     0
  0
CLASS
  1
ACGREFACADMASTER
  2
AcGrefacadMaster
  3
AcGrefServices
 90
     1024
280
     0
281
     0
  0
CLASS
  1
AMDTMENUSTATEMGR
  2
AmdtMenuStateMgr
  3
McadcomServices
 90
     1024
280
     0
281
     0
  0
CLASS
  1
AMDTMCOMMENUSTATE
  2
AmdtMcomMenuState
  3
McadcomServices
 90
     1024
280
     0
281
     0
  0
CLASS
  1
AMIMASTER
  2
AmiMaster
  3
AmiServices
 90
     1024
280
     0
281
     0
  0
CLASS
  1
MAPIAMMOUDLE
  2
MApiAmModule
  3
MApiAmServices
 90
     1024
280
     0
281
     0
  0
CLASS
  1
ACIMSTRSYSVAR
  2
AcImStrSysVar
  3
AcMeServices
 90
     1024
280
     0
281
     0
  0
CLASS
  1
AMDTADMENUSTATE
  2
AmdtAdMenuState
  3
DesignerServices
 90
    33792
280
     1
281
     0
  0
CLASS
  1
ADAPPL
  2
AcAdAppl
  3
DesignerAssemblies
 90
    33792
280
     0
281
     0
  0
CLASS
  1
DEPMGR
  2
AcAdDepMgr
  3
DesignerAssemblies
 90
    33792
280
     0
281
     0
  0
CLASS
  1
PARAMMGR
  2
AcAdParamMgr
  3
DesignerAssemblies
 90
    33792
280
     0
281
     0
  0
CLASS
  1
PARAMSCOPE
  2
AcAdParamScope
  3
DesignerAssemblies
 90
    33792
280
     0
281
     0
  0
CLASS
  1
NAMEDAPPL
  2
AcAdNamedAppl
  3
DesignerAssemblies
 90
    33792
280
     0
281
     0
  0
CLASS
  1
AMDTDMMENUSTATE
  2
AmdtDmMenuState
  3
AcMechDwgViewMgmt
 90
     1024
280
     0
281
     0
  0
CLASS
  1
AMDTAMMENUSTATE
  2
AmdtAmMenuState
  3
DesignerAssemblies
 90
     1024
280
     0
281
     0
  0
CLASS
  1
ACAMPROJECT
  2
AcAmProject
  3
DesignerAssemblies
 90
     1024
280
     0
281
     0
  0
CLASS
  1
ACAMGRCOMPDEF
  2
AcAmGrCompDef
  3
DesignerAssemblies
 90
     1024
280
     0
281
     0
  0
CLASS
  1
ACCMCONTEXT
  2
AcCmContext
  3
DesignerAssemblies
 90
    33792
280
     0
281
     0
  0
CLASS
  1
ACAMCOMPDEF
  2
AcAmCompDef
  3
DesignerAssemblies
 90
     1024
280
     0
281
     0
  0
CLASS
  1
ACAMCOMPDEFMGR
  2
AcAmCompDefMgr
  3
DesignerAssemblies
 90
     1024
280
     0
281
     0
  0
CLASS
  1
AMCONTEXTMGR
  2
AcAmContextMgr
  3
DesignerAssemblies
 90
     1024
280
     0
281
     0
  0
CLASS
  1
ACAMCONTEXTMODELER
  2
AcAmContextModeler
  3
DesignerAssemblies
 90
     1024
280
     0
281
     0
  0
CLASS
  1
ACMDATADICTIONARY
  2
AcmDataDictionary
  3
"AcmSymBB|Product Description: AutoCAD Mechanical|Company: Autodesk, Inc."
 90
     1024
280
     0
281
     0
  0
CLASS
  1
CATALOGSTATE
  2
AcAmCatalogState
  3
DesignerAssemblies
 90
    33792
280
     0
281
     0
  0
CLASS
  1
ACAMGRCOMPDEFSET
  2
AcAmGrCompDefSet
  3
DesignerAssemblies
 90
     1024
280
     0
281
     0
  0
CLASS
  1
AMDTBROWSERDBTAB
  2
AmdtBrowserDbTab
  3
McadcomServices
 90
     1024
280
     0
281
     0
  0
CLASS
  1
CBROWSERAPPOBJECT
  2
CBrowserAppObject
  3
McadcomServices
 90
     1024
280
     0
281
     0
  0
CLASS
  1
DM_PLACEHOLDER
  2
AcDmSelsetPlaceholder
  3
AcMechDwgViewMgmt
 90
     1024
280
     0
281
     0
  0
CLASS
  1
EXACXREFPANELOBJECT
  2
ExAcXREFPanelObject
  3
EXAC_ESW
 90
     1025
280
     0
281
     0
  0
CLASS
  1
NPOCOLLECTION
  2
AcDbImpNonPersistentObjectsCollection
  3
ObjectDBX Classes
 90
     1153
280
     0
281
     0
  0
CLASS
  1
ACMSTANDARDANSI
  2
AcmStandardANSI
  3
"Amdt_StdImp|Product Description: AutoCAD Mechanical|Company: Autodesk, Inc."
 90
     1024
280
     0
281
     0
  0
CLASS
  1
ACMSURFSTANDARDANSI
  2
AcmSurfTextStdANSI
  3
"Amdt_StdImp|Product Description: AutoCAD Mechanical|Company: Autodesk, Inc."
 90
     1024
280
     0
281
     0
  0
CLASS
  1
ACMFCFSTANDARDANSI
  2
AcmFCFStdANSI
  3
"Amdt_StdImp|Product Description: AutoCAD Mechanical|Company: Autodesk, Inc."
 90
     1024
280
     0
281
     0
  0
CLASS
  1
ACMWELDSTANDARDANSI
  2
AcmWeldingStdANSI
  3
"Amdt_StdImp|Product Description: AutoCAD Mechanical|Company: Autodesk, Inc."
 90
     1024
280
     0
281
     0
  0
CLASS
  1
ACMIDSTANDARDANSI
  2
AcmIdStdANSI
  3
"Amdt_StdImp|Product Description: AutoCAD Mechanical|Company: Autodesk, Inc."
 90
     1024
280
     0
281
     0
  0
CLASS
  1
ACMDATUMSTANDARDANSI
  2
AcmDatumStdANSI
  3
"Amdt_StdImp|Product Description: AutoCAD Mechanical|Company: Autodesk, Inc."
 90
     1024
280
     0
281
     0
  0
CLASS
  1
ACMBOMSTANDARDANSI
  2
AcmBOMStdANSI
  3
"Amdt_StdImp|Product Description: AutoCAD Mechanical|Company: Autodesk, Inc."
 90
     1024
280
     0
281
     0
  0
CLASS
  1
ACMDETAILSTANDARDANSI
  2
AmdtDetailSymStdANSI
  3
"Amdt_StdImp|Product Description: AutoCAD Mechanical|Company: Autodesk, Inc."
 90
     1024
280
     0
281
     0
  0
CLASS
  1
ACMSECTIONSTANDARDANSI
  2
AmdtSectionSymStdANSI
  3
"Amdt_StdImp|Product Description: AutoCAD Mechanical|Company: Autodesk, Inc."
 90
     1024
280
     0
281
     0
  0
CLASS
  1
ACMCENTERLINESTANDARDANSI
  2
AmdtCenterLineStdANSI
  3
"Amdt_StdImp|Product Description: AutoCAD Mechanical|Company: Autodesk, Inc."
 90
     1024
280
     0
281
     0
  0
CLASS
  1
ACMTHREADLINESTANDARDANSI
  2
AmdtThreadLineStdANSI
  3
"Amdt_StdImp|Product Description: AutoCAD Mechanical|Company: Autodesk, Inc."
 90
     1024
280
     0
281
     0
  0
CLASS
  1
ACMNOTESTANDARDANSI
  2
AmdtNoteStdANSI
  3
"Amdt_StdImp|Product Description: AutoCAD Mechanical|Company: Autodesk, Inc."
 90
     1024
280
     0
281
     0
  0
CLASS
  1
ACMTAPERSTANDARDANSI
  2
AcmTaperStdANSI
  3
"Amdt_StdImp|Product Description: AutoCAD Mechanical|Company: Autodesk, Inc."
 90
     1024
280
     0
281
     0
  0
CLASS
  1
ACMANOOTATIONVIEWSTANDARDANSI
  2
AmdtAnViewStdANSI
  3
"Amdt_StdImp|Product Description: AutoCAD Mechanical|Company: Autodesk, Inc."
 90
     1024
280
     0
281
     0
  0
CLASS
  1
ACAMGLAYSTD
  2
AcAmgLayStd
  3
"AmgLay|Product Description: AutoCAD Mechanical|Company: Autodesk, Inc."
 90
     1024
280
     0
281
     0
  0
CLASS
  1
ACAMGDIMSTD
  2
AcAmgDimStd
  3
"AmgDim|Product Description: AutoCAD Mechanical|Company: Autodesk, Inc."
 90
     1024
280
     0
281
     0
  0
CLASS
  1
AMGOBJPROPCFG
  2
AmgObjPropCfg
  3
"AmgLay|Product Description: AutoCAD Mechanical|Company: Autodesk, Inc."
 90
     1025
280
     0
281
     0
  0
CLASS
  1
ACAMGHOLECHARTSTDANSI
  2
AcAmgHoleChartStdANSI
  3
AmgDim|Product Description: AutoCAD Mechanical|Company: Autodesk, Inc.
 90
     1024
280
     0
281
     0
  0
CLASS
  1
ACAMGTITLESTD
  2
AcAmgTitleStd
  3
"AmgTitle|Product Description: AutoCAD Mechanical|Company: Autodesk, Inc."
 90
     4095
280
     0
281
     0
  0
CLASS
  1
AMDTNOTETEMPLATEDB
  2
AmdtNoteTemplateDB
  3
AcmSymBB|Product Description: AutoCAD Mechanical|Company: Autodesk, Inc.
 90
     1024
280
     0
281
     0
  0
CLASS
  1
ACAMGFILTERDAT
  2
AcAmgFilterDat
  3
"AcadM|Product Description: AutoCAD Mechanical|Company: Autodesk, Inc."
 90
    33792
280
     0
281
     0
  0
CLASS
  1
CAMSSTRUCTBTNSTATE
  2
StructBtnState
  3
DesignerAssemblies
 90
    33792
280
     0
281
     0
  0
CLASS
  1
ACDBPLACEHOLDER
  2
AcDbPlaceHolder
  3
ObjectDBX Classes
 90
        0
280
     0
281
     0
  0
CLASS
  1
LAYOUT
  2
AcDbLayout
  3
ObjectDBX Classes
 90
        0
280
     0
281
     0
  0
ENDSEC
  0
SECTION
  2
TABLES
  0
TABLE
  2
VPORT
  5
28
102
{ACAD_XDICTIONARY
360
2C
102
}
330
0
100
AcDbSymbolTable
 70
     1
  0
VPORT
  5
29
330
28
100
AcDbSymbolTableRecord
100
AcDbViewportTableRecord
  2
*ACTIVE
 70
     0
 10
0.0
 20
0.0
 11
1.0
 21
1.0
 12
-25.61749062933677
 22
-8.944349738122582
 13
0.0
 23
0.0
 14
1.0
 24
1.0
 15
0.0
 25
0.0
 16
0.0
 26
0.0
 36
1.0
 17
0.0
 27
0.0
 37
0.0
 40
85.34361291970498
 41
2.068965517241379
 42
50.0
 43
0.0
 44
0.0
 50
0.0
 51
0.0
 71
     0
 72
   100
 73
     1
 74
     1
 75
     0
 76
     0
 77
     0
 78
     0
281
     0
 65
     1
110
0.0
120
0.0
130
0.0
111
1.0
121
0.0
131
0.0
112
0.0
122
1.0
132
0.0
 79
     0
146
0.0
  0
ENDTAB
  0
TABLE
  2
LTYPE
  5
23
330
0
100
AcDbSymbolTable
 70
    12
  0
LTYPE
  5
24
330
23
100
AcDbSymbolTableRecord
100
AcDbLinetypeTableRecord
  2
ByBlock
 70
     0
  3

 72
    65
 73
     0
 40
0.0
  0
LTYPE
  5
25
330
23
100
AcDbSymbolTableRecord
100
AcDbLinetypeTableRecord
  2
ByLayer
 70
     0
  3

 72
    65
 73
     0
 40
0.0
  0
LTYPE
  5
13
330
23
100
AcDbSymbolTableRecord
100
AcDbLinetypeTableRecord
  2
CONTINUOUS
 70
     0
  3
Solid line
 72
    65
 73
     0
 40
0.0
  0
LTYPE
  5
2C6
330
23
100
AcDbSymbolTableRecord
100
AcDbLinetypeTableRecord
  2
HIDDEN
 70
     0
  3
Verdeckt
 72
    65
 73
     2
 40
0.375
 49
0.25
 74
     0
 49
-0.125
 74
     0
  0
LTYPE
  5
2C8
330
23
100
AcDbSymbolTableRecord
100
AcDbLinetypeTableRecord
  2
PHANTOM2
 70
     0
  3
Phantom (.5x) ___ _ _ ___ _ _ ___ _ _ ___ _ _
 72
    65
 73
     6
 40
1.25
 49
0.625
 74
     0
 49
-0.125
 74
     0
 49
0.125
 74
     0
 49
-0.125
 74
     0
 49
0.125
 74
     0
 49
-0.125
 74
     0
  0
LTYPE
  5
2C7
330
23
100
AcDbSymbolTableRecord
100
AcDbLinetypeTableRecord
  2
CENTER
 70
     0
  3
Mitte ____ _ ____ _ ____ _ ____ _ ____ _ ____
 72
    65
 73
     4
 40
2.0
 49
1.25
 74
     0
 49
-0.25
 74
     0
 49
0.25
 74
     0
 49
-0.25
 74
     0
  0
LTYPE
  5
2C9
330
23
100
AcDbSymbolTableRecord
100
AcDbLinetypeTableRecord
  2
Amconstr
 70
     0
  3
_______________________
 72
    65
 73
     2
 40
9999.0
 49
9999.0
 74
     0
 49
0.0
 74
     0
  0
LTYPE
  5
2CA
330
23
100
AcDbSymbolTableRecord
100
AcDbLinetypeTableRecord
  2
CENTER2
 70
     0
  3
Center (.5x) ___ _ ___ _ ___ _ ___ _ ___ _ ___
 72
    65
 73
     4
 40
1.125
 49
0.75
 74
     0
 49
-0.125
 74
     0
 49
0.125
 74
     0
 49
-0.125
 74
     0
  0
LTYPE
  5
2CB
330
23
100
AcDbSymbolTableRecord
100
AcDbLinetypeTableRecord
  2
HIDDEN2
 70
     0
  3
Hidden (.5x) _ _ _ _ _ _ _ _ _ _ _ _ _ _ _ _ _
 72
    65
 73
     2
 40
0.1875
 49
0.125
 74
     0
 49
-0.0625
 74
     0
  0
LTYPE
  5
2CC
330
23
100
AcDbSymbolTableRecord
100
AcDbLinetypeTableRecord
  2
Amzigzag2
 70
     0
  3
/\/-/\/-/\/-/\/-/\/-/\/
 72
    65
 73
     2
 40
0.4401
 49
0.0001
 74
     4
 75
   136
340
2CD
 46
0.0016
 50
0.0
 44
0.0
 45
0.0
 49
-0.4400000000000001
 74
     0
  0
LTYPE
  5
2DD
330
23
100
AcDbSymbolTableRecord
100
AcDbLinetypeTableRecord
  2
ACANSTGB
 70
     0
  3
__ . . __ . .
 72
    65
 73
     6
 40
0.35433070866
 49
0.15748031496
 74
     0
 49
-0.03937007874
 74
     0
 49
0.03937007874
 74
     0
 49
-0.03937007874
 74
     0
 49
0.03937007874
 74
     0
 49
-0.03937007874
 74
     0
  0
LTYPE
  5
2DE
330
23
100
AcDbSymbolTableRecord
100
AcDbLinetypeTableRecord
  2
ACANSTGL
 70
     0
  3
_ _ _ _ _
 72
    65
 73
     2
 40
0.11811023622
 49
0.07874015748
 74
     0
 49
-0.03937007874
 74
     0
  0
LTYPE
  5
7C
330
23
100
AcDbSymbolTableRecord
100
AcDbLinetypeTableRecord
  2
DASHDOT
 70
     0
  3
Dash dot __ . __ . __ . __ . __ . __ . __ . __
 72
    65
 73
     4
 40
1.0
 49
0.5
 74
     0
 49
-0.25
 74
     0
 49
0.0
 74
     0
 49
-0.25
 74
     0
  0
LTYPE
  5
8F
330
23
100
AcDbSymbolTableRecord
100
AcDbLinetypeTableRecord
  2
DASHED
 70
     0
  3
Dashed __ __ __ __ __ __ __ __ __ __ __ __ __ _
 72
    65
 73
     2
 40
0.75
 49
0.5
 74
     0
 49
-0.25
 74
     0
  0
ENDTAB
  0
TABLE
  2
LAYER
  5
1B
102
{ACAD_XDICTIONARY
360
1C
102
}
330
0
100
AcDbSymbolTable
 70
     8
  0
LAYER
  5
6
330
1B
100
AcDbSymbolTableRecord
100
AcDbLayerTableRecord
  2
0
 70
     0
 62
     7
  6
CONTINUOUS
370
    -3
390
7
  0
LAYER
  5
82
330
1B
100
AcDbSymbolTableRecord
100
AcDbLayerTableRecord
  2
GEB-KONTUR-A
 70
     0
 62
     5
  6
CONTINUOUS
370
    -3
390
7
  0
LAYER
  5
7B
330
1B
100
AcDbSymbolTableRecord
100
AcDbLayerTableRecord
  2
GEB-SYMMETRIE
 70
     0
 62
     3
  6
DASHDOT
370
    -3
390
7
1001
AcAecLayerStandard
1000

1000

  0
LAYER
  5
8E
330
1B
100
AcDbSymbolTableRecord
100
AcDbLayerTableRecord
  2
GEB-VERDECKT
 70
     0
 62
     2
  6
DASHED
370
    -3
390
7
1001
AcAecLayerStandard
1000

1000

  0
LAYER
  5
76
330
1B
100
AcDbSymbolTableRecord
100
AcDbLayerTableRecord
  2
Arbeitspunkt(DIN)
 70
     0
 62
     7
  6
CONTINUOUS
370
    25
390
7
  0
LAYER
  5
2C2
330
1B
100
AcDbSymbolTableRecord
100
AcDbLayerTableRecord
  2
GEB-ART-NR
 70
     0
 62
     1
  6
CONTINUOUS
370
    18
390
7
  0
LAYER
  5
72
330
1B
100
AcDbSymbolTableRecord
100
AcDbLayerTableRecord
  2
GEB-BEZUG
 70
     0
 62
     2
  6
CONTINUOUS
370
    25
390
7
  0
LAYER
  5
2BF
330
1B
100
AcDbSymbolTableRecord
100
AcDbLayerTableRecord
  2
GEB-TEXT
 70
     0
 62
     5
  6
CONTINUOUS
370
    18
390
7
  0
ENDTAB
  0
TABLE
  2
STYLE
  5
20
330
0
100
AcDbSymbolTable
 70
     3
  0
STYLE
  5
21
330
20
100
AcDbSymbolTableRecord
100
AcDbTextStyleTableRecord
  2
STANDARD
 70
     0
 40
0.0
 41
1.0
 50
0.0
 71
     0
 42
0.2
  3
arial.ttf
  4

1001
ACAD
1000
Arial
1071
       34
  0
STYLE
  5
2CD
330
20
100
AcDbSymbolTableRecord
100
AcDbTextStyleTableRecord
  2

 70
     1
 40
0.0
 41
1.0
 50
0.0
 71
     0
 42
0.2
  3
genltshp.shx
  4

  0
STYLE
  5
2D9
330
20
100
AcDbSymbolTableRecord
100
AcDbTextStyleTableRecord
  2
ACANSGDT
 70
     0
 40
0.0
 41
1.0
 50
0.0
 71
     0
 42
0.2
  3
amgdt.shx
  4

  0
ENDTAB
  0
TABLE
  2
VIEW
  5
26
330
0
100
AcDbSymbolTable
 70
     0
  0
ENDTAB
  0
TABLE
  2
UCS
  5
27
330
0
100
AcDbSymbolTable
 70
     0
  0
ENDTAB
  0
TABLE
  2
APPID
  5
2D
330
0
100
AcDbSymbolTable
 70
    14
  0
APPID
  5
1F
330
2D
100
AcDbSymbolTableRecord
100
AcDbRegAppTableRecord
  2
ACAD
 70
     0
  0
APPID
  5
7D
330
2D
100
AcDbSymbolTableRecord
100
AcDbRegAppTableRecord
  2
AcAecLayerStandard
 70
     0
  0
APPID
  5
31C
330
2D
100
AcDbSymbolTableRecord
100
AcDbRegAppTableRecord
  2
ACATTRIBSERVICES
 70
     0
  0
APPID
  5
347
330
2D
100
AcDbSymbolTableRecord
100
AcDbRegAppTableRecord
  2
MCAD_NO_VIS
 70
     0
  0
APPID
  5
348
330
2D
100
AcDbSymbolTableRecord
100
AcDbRegAppTableRecord
  2
ACAD_TEMP_GRAPHIC
 70
     0
  0
APPID
  5
34C
330
2D
100
AcDbSymbolTableRecord
100
AcDbRegAppTableRecord
  2
AD_DRAW
 70
     0
  0
APPID
  5
365
330
2D
100
AcDbSymbolTableRecord
100
AcDbRegAppTableRecord
  2
DESIGNERASSEMBLIES
 70
     0
  0
APPID
  5
36A
330
2D
100
AcDbSymbolTableRecord
100
AcDbRegAppTableRecord
  2
ACADM_DIM_EDIT
 70
     0
  0
APPID
  5
36B
330
2D
100
AcDbSymbolTableRecord
100
AcDbRegAppTableRecord
  2
AMDT_DM_ADJ
 70
     0
  0
APPID
  5
38B
330
2D
100
AcDbSymbolTableRecord
100
AcDbRegAppTableRecord
  2
ACAD_DSTYLE_DIMARC_LENGTH_SYMBOL
 70
     0
  0
APPID
  5
38C
330
2D
100
AcDbSymbolTableRecord
100
AcDbRegAppTableRecord
  2
ACAD_DSTYLE_DIM_LINETYPE
 70
     0
  0
APPID
  5
38D
330
2D
100
AcDbSymbolTableRecord
100
AcDbRegAppTableRecord
  2
ACAD_DSTYLE_DIM_EXT1_LINETYPE
 70
     0
  0
APPID
  5
38E
330
2D
100
AcDbSymbolTableRecord
100
AcDbRegAppTableRecord
  2
ACAD_DSTYLE_DIM_EXT2_LINETYPE
 70
     0
  0
APPID
  5
3BB
330
2D
100
AcDbSymbolTableRecord
100
AcDbRegAppTableRecord
  2
ACAD_MLEADERVER
 70
     0
  0
ENDTAB
  0
TABLE
  2
DIMSTYLE
  5
2E
330
0
100
AcDbSymbolTable
 70
     7
100
AcDbDimStyleTable
 71
     1
340
2F
  0
DIMSTYLE
105
2F
330
2E
100
AcDbSymbolTableRecord
100
AcDbDimStyleTableRecord
  2
STANDARD
 70
     0
279
     2
340
21
  0
DIMSTYLE
105
2EF
102
{ACAD_REACTORS
330
2D6
102
}
330
2E
100
AcDbSymbolTableRecord
100
AcDbDimStyleTableRecord
  2
AM_ANSI
 70
     0
  4
mm
 41
0.12
 42
0.05
 43
0.5
 44
0.1
 47
0.1
 48
0.1
 78
     7
 79
     2
140
0.12
141
0.0
146
0.71
147
0.06
176
   256
177
   256
178
     2
274
     4
284
     7
340
21
371
    -1
372
    -1
1001
ACAD_DSTYLE_DIMARC_LENGTH_SYMBOL
1070
   379
1070
     1
1001
ACAD_DSTYLE_DIM_LINETYPE
1070
   380
1005
24
1001
ACAD_DSTYLE_DIM_EXT1_LINETYPE
1070
   381
1005
24
1001
ACAD_DSTYLE_DIM_EXT2_LINETYPE
1070
   382
1005
24
  0
DIMSTYLE
105
2F0
330
2E
100
AcDbSymbolTableRecord
100
AcDbDimStyleTableRecord
  2
AM_ANSI$3
 70
     0
  4
mm
 41
0.12
 42
0.05
 43
0.5
 44
0.1
 47
0.1
 48
0.1
 78
     7
 79
     2
140
0.12
141
0.0
146
0.71
147
0.06
176
   256
177
   256
178
     2
274
     4
284
     7
288
     1
289
     0
340
21
371
    -1
372
    -1
1001
ACAD_DSTYLE_DIMARC_LENGTH_SYMBOL
1070
   379
1070
     1
1001
ACAD_DSTYLE_DIM_LINETYPE
1070
   380
1005
24
1001
ACAD_DSTYLE_DIM_EXT1_LINETYPE
1070
   381
1005
24
1001
ACAD_DSTYLE_DIM_EXT2_LINETYPE
1070
   382
1005
24
  0
DIMSTYLE
105
2F1
330
2E
100
AcDbSymbolTableRecord
100
AcDbDimStyleTableRecord
  2
AM_ANSI$4
 70
     0
  4
mm
 41
0.12
 42
0.05
 43
0.5
 44
0.1
 47
0.1
 48
0.1
 78
     7
 79
     2
140
0.12
141
0.0
146
0.71
147
0.06
176
   256
177
   256
178
     2
274
     4
284
     7
288
     1
289
     0
340
21
371
    -1
372
    -1
1001
ACAD_DSTYLE_DIMARC_LENGTH_SYMBOL
1070
   379
1070
     1
1001
ACAD_DSTYLE_DIM_LINETYPE
1070
   380
1005
24
1001
ACAD_DSTYLE_DIM_EXT1_LINETYPE
1070
   381
1005
24
1001
ACAD_DSTYLE_DIM_EXT2_LINETYPE
1070
   382
1005
24
  0
DIMSTYLE
105
2F2
330
2E
100
AcDbSymbolTableRecord
100
AcDbDimStyleTableRecord
  2
AM_ANSI$7
 70
     0
  4
mm
 41
0.12
 42
0.05
 43
0.5
 44
0.1
 47
0.1
 48
0.1
 78
     7
 79
     2
140
0.12
141
0.0
146
0.71
147
0.06
176
   256
177
   256
178
     2
274
     4
284
     7
340
21
371
    -1
372
    -1
1001
ACAD_DSTYLE_DIMARC_LENGTH_SYMBOL
1070
   379
1070
     1
1001
ACAD_DSTYLE_DIM_LINETYPE
1070
   380
1005
24
1001
ACAD_DSTYLE_DIM_EXT1_LINETYPE
1070
   381
1005
24
1001
ACAD_DSTYLE_DIM_EXT2_LINETYPE
1070
   382
1005
24
  0
DIMSTYLE
105
2F3
330
2E
100
AcDbSymbolTableRecord
100
AcDbDimStyleTableRecord
  2
AM_ANSI$SF
 70
     0
  4
mm
 41
0.12
 42
0.05
 43
0.5
 44
0.1
 47
0.1
 48
0.1
 75
     1
 76
     1
 78
     7
 79
     2
140
0.12
141
0.0
146
0.71
147
0.06
176
   256
177
   256
178
     2
274
     4
284
     7
340
21
371
    -1
372
    -1
1001
ACAD_DSTYLE_DIMARC_LENGTH_SYMBOL
1070
   379
1070
     1
1001
ACAD_DSTYLE_DIM_LINETYPE
1070
   380
1005
24
1001
ACAD_DSTYLE_DIM_EXT1_LINETYPE
1070
   381
1005
24
1001
ACAD_DSTYLE_DIM_EXT2_LINETYPE
1070
   382
1005
24
  0
DIMSTYLE
105
2F4
330
2E
100
AcDbSymbolTableRecord
100
AcDbDimStyleTableRecord
  2
AM_ANSI$SH
 70
     0
  4
mm
 41
0.12
 42
0.05
 43
0.5
 44
0.1
 47
0.1
 48
0.1
 75
     1
 76
     1
 78
     7
 79
     2
140
0.12
141
0.0
146
0.71
147
0.06
173
     1
176
   256
177
   256
178
     2
274
     4
284
     7
340
21
343
2F5
371
    -1
372
    -1
1001
ACAD_DSTYLE_DIMARC_LENGTH_SYMBOL
1070
   379
1070
     1
1001
ACAD_DSTYLE_DIM_LINETYPE
1070
   380
1005
24
1001
ACAD_DSTYLE_DIM_EXT1_LINETYPE
1070
   381
1005
24
1001
ACAD_DSTYLE_DIM_EXT2_LINETYPE
1070
   382
1005
24
  0
ENDTAB
  0
TABLE
  2
BLOCK_RECORD
  5
1
330
0
100
AcDbSymbolTable
 70
     3
  0
BLOCK_RECORD
  5
2
102
{ACAD_XDICTIONARY
360
3
102
}
330
1
100
AcDbSymbolTableRecord
100
AcDbBlockTableRecord
  2
*Model_Space
340
15
  0
BLOCK_RECORD
  5
17
330
1
100
AcDbSymbolTableRecord
100
AcDbBlockTableRecord
  2
*Paper_Space
340
1A
  0
BLOCK_RECORD
  5
2F5
330
1
100
AcDbSymbolTableRecord
100
AcDbBlockTableRecord
  2
GENAXEH
340
0
  0
BLOCK_RECORD
  5
6F
330
1
100
AcDbSymbolTableRecord
100
AcDbBlockTableRecord
  2
Einfügepunkt
340
0
102
{BLKREFS
331
6E
102
}
  0
ENDTAB
  0
ENDSEC
  0
SECTION
  2
BLOCKS
  0
BLOCK
  5
5
330
2
100
AcDbEntity
  8
0
100
AcDbBlockBegin
  2
*Model_Space
 70
     0
 10
0.0
 20
0.0
 30
0.0
  3
*Model_Space
  1

  0
ENDBLK
  5
14
330
2
100
AcDbEntity
  8
0
100
AcDbBlockEnd
  0
BLOCK
  5
18
330
17
100
AcDbEntity
 67
     1
  8
0
100
AcDbBlockBegin
  2
*Paper_Space
 70
     0
 10
0.0
 20
0.0
 30
0.0
  3
*Paper_Space
  1

  0
ENDBLK
  5
19
330
17
100
AcDbEntity
 67
     1
  8
0
100
AcDbBlockEnd
  0
BLOCK
  5
2F6
330
2F5
100
AcDbEntity
  8
0
100
AcDbBlockBegin
  2
GENAXEH
 70
     0
 10
0.0
 20
0.0
 30
0.0
  3
GENAXEH
  1

  0
LINE
  5
2F7
330
2F5
100
AcDbEntity
  8
0
100
AcDbLine
 10
-1.0
 20
0.0
 30
0.0
 11
1.0
 21
0.0
 31
0.0
  0
ENDBLK
  5
2F8
330
2F5
100
AcDbEntity
  8
0
100
AcDbBlockEnd
  0
BLOCK
  5
70
330
6F
100
AcDbEntity
  8
0
100
AcDbBlockBegin
  2
Einfügepunkt
 70
     0
 10
0.0
 20
0.0
 30
0.0
  3
Einfügepunkt
  1

  0
LINE
  5
71
330
6F
100
AcDbEntity
  8
GEB-BEZUG
100
AcDbLine
 10
-0.7071067811865817
 20
-0.7071067811865106
 30
0.0
 11
0.7071067811864751
 21
0.7071067811865817
 31
0.0
  0
LINE
  5
73
330
6F
100
AcDbEntity
  8
GEB-BEZUG
100
AcDbLine
 10
-0.7071067811865106
 20
0.7071067811865817
 30
0.0
 11
0.7071067811865462
 21
-0.7071067811865106
 31
0.0
  0
ENDBLK
  5
74
330
6F
100
AcDbEntity
  8
0
100
AcDbBlockEnd
  0
ENDSEC
  0
SECTION
  2
ENTITIES
  0
INSERT
  5
6E
330
2
100
AcDbEntity
  8
0
 48
25.0
100
AcDbBlockReference
  2
Einfügepunkt
 10
0.0
 20
0.0
 30
0.0
  0
LINE
  5
75
330
2
100
AcDbEntity
  8
Arbeitspunkt(DIN)
 48
25.0
100
AcDbLine
 10
0.0
 20
-0.0000000000009805
 30
0.0
 11
0.0
 21
-2.50000000000098
 31
0.0
  0
LINE
  5
77
330
2
100
AcDbEntity
  8
Arbeitspunkt(DIN)
 48
25.0
100
AcDbLine
 10
0.0
 20
-0.0000000000009805
 30
0.0
 11
0.0
 21
2.499999999999019
 31
0.0
  0
LINE
  5
78
330
2
100
AcDbEntity
  8
Arbeitspunkt(DIN)
 48
25.0
100
AcDbLine
 10
0.0
 20
-0.0000000000009805
 30
0.0
 11
-2.5
 21
-0.0000000000009805
 31
0.0
  0
LINE
  5
79
330
2
100
AcDbEntity
  8
Arbeitspunkt(DIN)
 48
25.0
100
AcDbLine
 10
0.0
 20
-0.0000000000009805
 30
0.0
 11
2.5
 21
-0.0000000000009805
 31
0.0
  0
LINE
  5
7A
330
2
100
AcDbEntity
  8
GEB-SYMMETRIE
 48
25.0
100
AcDbLine
 10
0.0
 20
0.0
 30
0.0
 11
0.0
 21
-29.15000000000001
 31
0.0
  0
LINE
  5
7E
330
2
100
AcDbEntity
  8
GEB-SYMMETRIE
 48
25.0
100
AcDbLine
 10
0.0
 20
0.0
 30
0.0
 11
0.0
 21
29.15000000000001
 31
0.0
  0
LINE
  5
7F
330
2
100
AcDbEntity
  8
GEB-SYMMETRIE
 48
25.0
100
AcDbLine
 10
0.0
 20
0.0
 30
0.0
 11
-29.14999999999998
 21
0.0
 31
0.0
  0
LINE
  5
80
330
2
100
AcDbEntity
  8
GEB-SYMMETRIE
 48
25.0
100
AcDbLine
 10
0.0
 20
0.0
 30
0.0
 11
29.14999999999998
 21
0.0
 31
0.0
  0
ARC
  5
81
330
2
100
AcDbEntity
  8
GEB-KONTUR-A
 48
25.0
100
AcDbCircle
 10
-76.89999999999961
 20
-23.14999999997707
 30
0.0
 40
3.499999999999993
100
AcDbArc
 50
180.0
 51
304.0000000000014
  0
ARC
  5
83
330
2
100
AcDbEntity
  8
GEB-KONTUR-A
 48
25.0
100
AcDbCircle
 10
-76.90000000000043
 20
23.15000000002294
 30
0.0
 40
3.5
100
AcDbArc
 50
56.00000000000042
 51
180.0
  0
LINE
  5
84
330
2
100
AcDbEntity
  8
GEB-KONTUR-A
 48
25.0
100
AcDbLine
 10
-69.97382678926982
 20
22.70000000002307
 30
0.0
 11
-74.94282483785287
 21
26.05163150396564
 31
0.0
  0
LINE
  5
85
330
2
100
AcDbEntity
  8
GEB-KONTUR-A
 48
25.0
100
AcDbLine
 10
-69.973826789269
 20
-22.69999999997694
 30
0.0
 11
-74.94282483785196
 21
-26.05163150391968
 31
0.0
  0
LINE
  5
86
330
2
100
AcDbEntity
  8
GEB-KONTUR-A
 48
25.0
100
AcDbLine
 10
-50.40000000000055
 20
22.70000000002341
 30
0.0
 11
-69.97382678926982
 21
22.70000000002307
 31
0.0
  0
LINE
  5
87
330
2
100
AcDbEntity
  8
GEB-KONTUR-A
 48
25.0
100
AcDbLine
 10
-50.39999999999977
 20
-22.69999999997658
 30
0.0
 11
-69.973826789269
 21
-22.69999999997694
 31
0.0
  0
ARC
  5
88
330
2
100
AcDbEntity
  8
GEB-KONTUR-A
 48
25.0
100
AcDbCircle
 10
-50.39999999999984
 20
-17.70535714283375
 30
0.0
 40
4.994642857142828
100
AcDbArc
 50
270.0
 51
300.7002729848502
  0
ARC
  5
89
330
2
100
AcDbEntity
  8
GEB-KONTUR-A
 48
25.0
100
AcDbCircle
 10
-50.40000000000048
 20
17.70535714288056
 30
0.0
 40
4.994642857142835
100
AcDbArc
 50
59.29972701515155
 51
90.00000000000161
  0
LINE
  5
8A
330
2
100
AcDbEntity
  8
GEB-KONTUR-A
 48
25.0
100
AcDbLine
 10
-80.40000000000038
 20
23.15000000002289
 30
0.0
 11
-80.39999999999958
 21
-23.14999999997713
 31
0.0
  0
LINE
  5
8B
330
2
100
AcDbEntity
  8
GEB-KONTUR-A
 48
25.0
100
AcDbLine
 10
-69.97382678926976
 20
22.70000000002307
 30
0.0
 11
-69.973826789269
 21
-22.69999999997694
 31
0.0
  0
LINE
  5
8C
330
2
100
AcDbEntity
  8
GEB-KONTUR-A
 48
25.0
100
AcDbLine
 10
-47.85000000000056
 20
22.00000000002345
 30
0.0
 11
-47.84999999999979
 21
-21.99999999997655
 31
0.0
  0
LINE
  5
8D
330
2
100
AcDbEntity
  8
GEB-VERDECKT
 48
25.0
100
AcDbLine
 10
-80.0000000000004
 20
21.65000000002288
 30
0.0
 11
-80.40000000000038
 21
22.05000000002284
 31
0.0
  0
LINE
  5
90
330
2
100
AcDbEntity
  8
GEB-VERDECKT
 48
25.0
100
AcDbLine
 10
-79.9999999999996
 20
-21.64999999997711
 30
0.0
 11
-80.39999999999958
 21
-22.04999999997709
 31
0.0
  0
LINE
  5
91
330
2
100
AcDbEntity
  8
GEB-VERDECKT
 48
25.0
100
AcDbLine
 10
-47.85000000000053
 20
20.50000000002345
 30
0.0
 11
-50.40000000000052
 21
20.50000000002339
 31
0.0
  0
LINE
  5
92
330
2
100
AcDbEntity
  8
GEB-VERDECKT
 48
25.0
100
AcDbLine
 10
-47.84999999999982
 20
-20.49999999997655
 30
0.0
 11
-50.29999999999978
 21
-20.49999999997659
 31
0.0
  0
LINE
  5
93
330
2
100
AcDbEntity
  8
GEB-VERDECKT
 48
25.0
100
AcDbLine
 10
-50.40000000000052
 20
21.1500000000234
 30
0.0
 11
-69.81028415834558
 21
21.15000000002305
 31
0.0
  0
LINE
  5
94
330
2
100
AcDbEntity
  8
GEB-VERDECKT
 48
25.0
100
AcDbLine
 10
-50.39999999999977
 20
-21.14999999997658
 30
0.0
 11
-69.81028415834481
 21
-21.14999999997693
 31
0.0
  0
ARC
  5
95
330
2
100
AcDbEntity
  8
GEB-VERDECKT
 48
25.0
100
AcDbCircle
 10
-69.81028415834481
 20
-22.64999999997693
 30
0.0
 40
1.499999999999997
100
AcDbArc
 50
90.00000000000161
 51
124.0000000000018
  0
ARC
  5
96
330
2
100
AcDbEntity
  8
GEB-VERDECKT
 48
25.0
100
AcDbCircle
 10
-69.81028415834561
 20
22.65000000002306
 30
0.0
 40
1.5
100
AcDbArc
 50
236.0000000000018
 51
270.0000000000017
  0
LINE
  5
97
330
2
100
AcDbEntity
  8
GEB-VERDECKT
 48
25.0
100
AcDbLine
 10
-70.64907351355168
 20
21.40644364119049
 30
0.0
 11
-75.75365454788542
 21
24.8495270237608
 31
0.0
  0
LINE
  5
98
330
2
100
AcDbEntity
  8
GEB-VERDECKT
 48
25.0
100
AcDbLine
 10
-70.64907351355095
 20
-21.40644364114439
 30
0.0
 11
-75.75365454788453
 21
-24.84952702371489
 31
0.0
  0
ARC
  5
99
330
2
100
AcDbEntity
  8
GEB-VERDECKT
 48
25.0
100
AcDbCircle
 10
-76.89999999999961
 20
-23.14999999997707
 30
0.0
 40
2.049999999999995
100
AcDbArc
 50
180.0
 51
304.0
  0
ARC
  5
9A
330
2
100
AcDbEntity
  8
GEB-VERDECKT
 48
25.0
100
AcDbCircle
 10
-76.90000000000043
 20
23.15000000002294
 30
0.0
 40
2.049999999999999
100
AcDbArc
 50
56.00000000000177
 51
180.0
  0
LINE
  5
9B
330
2
100
AcDbEntity
  8
GEB-VERDECKT
 48
25.0
100
AcDbLine
 10
-79.34999999999963
 20
-21.6499999999771
 30
0.0
 11
-78.94999999999959
 21
-22.04999999997712
 31
0.0
  0
LINE
  5
9C
330
2
100
AcDbEntity
  8
GEB-VERDECKT
 48
25.0
100
AcDbLine
 10
-79.35000000000036
 20
21.65000000002288
 30
0.0
 11
-78.95000000000038
 21
22.05000000002292
 31
0.0
  0
LINE
  5
9D
330
2
100
AcDbEntity
  8
GEB-VERDECKT
 48
25.0
100
AcDbLine
 10
-79.35000000000036
 20
21.65000000002288
 30
0.0
 11
-80.0000000000004
 21
21.65000000002288
 31
0.0
  0
LINE
  5
9E
330
2
100
AcDbEntity
  8
GEB-VERDECKT
 48
25.0
100
AcDbLine
 10
-79.34999999999963
 20
-21.6499999999771
 30
0.0
 11
-79.9999999999996
 21
-21.64999999997711
 31
0.0
  0
LINE
  5
9F
330
2
100
AcDbEntity
  8
GEB-VERDECKT
 48
25.0
100
AcDbLine
 10
-78.95000000000038
 20
23.15000000002294
 30
0.0
 11
-78.94999999999959
 21
-23.1499999999771
 31
0.0
  0
LINE
  5
A0
330
2
100
AcDbEntity
  8
GEB-VERDECKT
 48
25.0
100
AcDbLine
 10
-80.0000000000004
 20
21.65000000002288
 30
0.0
 11
-79.9999999999996
 21
-21.64999999997711
 31
0.0
  0
LINE
  5
A1
330
2
100
AcDbEntity
  8
GEB-VERDECKT
 48
25.0
100
AcDbLine
 10
-79.35000000000036
 20
21.65000000002288
 30
0.0
 11
-79.34999999999959
 21
-21.6499999999771
 31
0.0
  0
LINE
  5
A2
330
2
100
AcDbEntity
  8
GEB-VERDECKT
 48
25.0
100
AcDbLine
 10
-50.40000000000052
 20
21.15000000002343
 30
0.0
 11
-50.39999999999981
 21
-21.14999999997658
 31
0.0
  0
LINE
  5
A3
330
2
100
AcDbEntity
  8
GEB-VERDECKT
 48
25.0
100
AcDbLine
 10
-50.4000000000002
 20
2.643750000023402
 30
0.0
 11
-50.30000000000021
 21
2.643750000023402
 31
0.0
  0
LINE
  5
A4
330
2
100
AcDbEntity
  8
GEB-VERDECKT
 48
25.0
100
AcDbLine
 10
-50.29999999999978
 20
-20.48104973961371
 30
0.0
 11
-50.39999999999981
 21
-20.48104973961371
 31
0.0
  0
LINE
  5
A5
330
2
100
AcDbEntity
  8
GEB-VERDECKT
 48
25.0
100
AcDbLine
 10
-50.29999999999978
 20
-20.4810497396137
 30
0.0
 11
-50.29999999999978
 21
-20.49999999997659
 31
0.0
  0
ARC
  5
A6
330
2
100
AcDbEntity
  8
GEB-KONTUR-A
 48
25.0
100
AcDbCircle
 10
0.0
 20
0.0
 30
0.0
 40
26.64999999999969
100
AcDbArc
 50
231.998300846233
 51
128.0016991537628
  0
ARC
  5
A7
330
2
100
AcDbEntity
  8
GEB-KONTUR-A
 48
25.0
100
AcDbCircle
 10
0.0
 20
0.0000000000074039
 30
0.0
 40
22.6999999999999
100
AcDbArc
 50
247.6849678388505
 51
112.3150321611407
  0
ARC
  5
A8
330
2
100
AcDbEntity
  8
GEB-KONTUR-A
 48
25.0
100
AcDbCircle
 10
0.0
 20
0.0000000000081144
 30
0.0
 40
21.99999999999993
100
AcDbArc
 50
252.6585571972344
 51
107.3414428027537
  0
ARC
  5
A9
330
2
100
AcDbEntity
  8
GEB-VERDECKT
 48
25.0
100
AcDbCircle
 10
0.0
 20
0.0
 30
0.0
 40
26.64999999999969
100
AcDbArc
 50
128.0016991537664
 51
231.9983008462359
  0
CIRCLE
  5
AA
330
2
100
AcDbEntity
  8
GEB-VERDECKT
 48
25.0
100
AcDbCircle
 10
0.0
 20
0.0
 30
0.0
 40
25.2
  0
ARC
  5
AB
330
2
100
AcDbEntity
  8
GEB-VERDECKT
 48
25.0
100
AcDbCircle
 10
0.0
 20
0.0000000000074039
 30
0.0
 40
22.69999999999991
100
AcDbArc
 50
112.3150321611425
 51
247.6849678388523
  0
ARC
  5
AC
330
2
100
AcDbEntity
  8
GEB-VERDECKT
 48
25.0
100
AcDbCircle
 10
0.0
 20
0.0000000000081144
 30
0.0
 40
21.99999999999994
100
AcDbArc
 50
107.3414428027553
 51
252.6585571972363
  0
CIRCLE
  5
AD
330
2
100
AcDbEntity
  8
GEB-VERDECKT
 48
25.0
100
AcDbCircle
 10
0.0
 20
0.0000000000081002
 30
0.0
 40
20.5
  0
CIRCLE
  5
AE
330
2
100
AcDbEntity
  8
GEB-VERDECKT
 48
25.0
100
AcDbCircle
 10
0.0
 20
-0.0000000000005684
 30
0.0
 40
22.05000000000002
  0
CIRCLE
  5
AF
330
2
100
AcDbEntity
  8
GEB-VERDECKT
 48
25.0
100
AcDbCircle
 10
0.0
 20
-0.0000000000006963
 30
0.0
 40
21.64999999999999
  0
CIRCLE
  5
B0
330
2
100
AcDbEntity
  8
GEB-VERDECKT
 48
25.0
100
AcDbCircle
 10
0.0
 20
0.0000000000073896
 30
0.0
 40
21.15
  0
LINE
  5
B1
330
2
100
AcDbEntity
  8
GEB-KONTUR-A
 48
25.0
100
AcDbLine
 10
-0.0645502652454297
 20
21.0000000000087
 30
0.0
 11
-47.84999999999999
 21
21.00000000002285
 31
0.0
  0
LINE
  5
B2
330
2
100
AcDbEntity
  8
GEB-KONTUR-A
 48
25.0
100
AcDbLine
 10
-47.84999999999999
 20
-20.99999999997715
 30
0.0
 11
-0.0645502652454297
 21
-20.99999999999131
 31
0.0
  0
LINE
  5
B3
330
2
100
AcDbEntity
  8
GEB-VERDECKT
 48
25.0
100
AcDbLine
 10
-0.0645502652454297
 20
19.50000000000867
 30
0.0
 11
-47.84999999999999
 21
19.50000000002285
 31
0.0
  0
LINE
  5
B4
330
2
100
AcDbEntity
  8
GEB-VERDECKT
 48
25.0
100
AcDbLine
 10
-47.84999999999999
 20
-19.49999999997715
 30
0.0
 11
-0.0645502652454297
 21
-19.4999999999913
 31
0.0
  0
POLYLINE
  5
B5
330
2
100
AcDbEntity
  8
GEB-KONTUR-A
 48
25.0
100
AcDb2dPolyline
 66
     1
 10
0.0
 20
0.0
 30
0.0
 70
   128
  0
VERTEX
  5
B6
330
B5
100
AcDbEntity
  8
GEB-KONTUR-A
 48
25.0
100
AcDbVertex
100
AcDb2dVertex
 10
-0.0645502656698227
 20
-20.99999904631701
 30
0.0
  0
VERTEX
  5
B7
330
B5
100
AcDbEntity
  8
GEB-KONTUR-A
 48
25.0
100
AcDbVertex
100
AcDb2dVertex
 10
0.4118848219513894
 20
-20.99433898924914
 30
0.0
  0
VERTEX
  5
B8
330
B5
100
AcDbEntity
  8
GEB-KONTUR-A
 48
25.0
100
AcDbVertex
100
AcDb2dVertex
 10
0.8972536027431488
 20
-20.97721099852649
 30
0.0
  0
VERTEX
  5
B9
330
B5
100
AcDbEntity
  8
GEB-KONTUR-A
 48
25.0
100
AcDbVertex
100
AcDb2dVertex
 10
1.389968544244766
 20
-20.94840288161365
 30
0.0
  0
VERTEX
  5
BA
330
B5
100
AcDbEntity
  8
GEB-KONTUR-A
 48
25.0
100
AcDbVertex
100
AcDb2dVertex
 10
1.888442486524581
 20
-20.90770244597522
 30
0.0
  0
VERTEX
  5
BB
330
B5
100
AcDbEntity
  8
GEB-KONTUR-A
 48
25.0
100
AcDbVertex
100
AcDb2dVertex
 10
2.391087710857391
 20
-20.85489273070422
 30
0.0
  0
VERTEX
  5
BC
330
B5
100
AcDbEntity
  8
GEB-KONTUR-A
 48
25.0
100
AcDbVertex
100
AcDb2dVertex
 10
2.896316945552825
 20
-20.78976392745105
 30
0.0
  0
VERTEX
  5
BD
330
B5
100
AcDbEntity
  8
GEB-KONTUR-A
 48
25.0
100
AcDbVertex
100
AcDb2dVertex
 10
3.402542769908905
 20
-20.71209907530871
 30
0.0
  0
VERTEX
  5
BE
330
B5
100
AcDbEntity
  8
GEB-KONTUR-A
 48
25.0
100
AcDbVertex
100
AcDb2dVertex
 10
3.90817791223526
 20
-20.62168598174182
 30
0.0
  0
VERTEX
  5
BF
330
B5
100
AcDbEntity
  8
GEB-KONTUR-A
 48
25.0
100
AcDbVertex
100
AcDb2dVertex
 10
4.411648511886596
 20
-20.51837921141711
 30
0.0
  0
VERTEX
  5
C0
330
B5
100
AcDbEntity
  8
GEB-KONTUR-A
 48
25.0
100
AcDbVertex
100
AcDb2dVertex
 10
4.911504089832305
 20
-20.4026556014928
 30
0.0
  0
VERTEX
  5
C1
330
B5
100
AcDbEntity
  8
GEB-KONTUR-A
 48
25.0
100
AcDbVertex
100
AcDb2dVertex
 10
5.406358242034912
 20
-20.27530908583728
 30
0.0
  0
VERTEX
  5
C2
330
B5
100
AcDbEntity
  8
GEB-KONTUR-A
 48
25.0
100
AcDbVertex
100
AcDb2dVertex
 10
5.894826054573059
 20
-20.13714790343371
 30
0.0
  0
VERTEX
  5
C3
330
B5
100
AcDbEntity
  8
GEB-KONTUR-A
 48
25.0
100
AcDbVertex
100
AcDb2dVertex
 10
6.375522017478942
 20
-19.98897314070787
 30
0.0
  0
VERTEX
  5
C4
330
B5
100
AcDbEntity
  8
GEB-KONTUR-A
 48
25.0
100
AcDbVertex
100
AcDb2dVertex
 10
6.847060322761535
 20
-19.83158707617845
 30
0.0
  0
VERTEX
  5
C5
330
B5
100
AcDbEntity
  8
GEB-KONTUR-A
 48
25.0
100
AcDbVertex
100
AcDb2dVertex
 10
7.308056950569152
 20
-19.66579437254991
 30
0.0
  0
VERTEX
  5
C6
330
B5
100
AcDbEntity
  8
GEB-KONTUR-A
 48
25.0
100
AcDbVertex
100
AcDb2dVertex
 10
7.757125496864318
 20
-19.49239730834093
 30
0.0
  0
VERTEX
  5
C7
330
B5
100
AcDbEntity
  8
GEB-KONTUR-A
 48
25.0
100
AcDbVertex
100
AcDb2dVertex
 10
8.195152282714843
 20
-19.31124925612535
 30
0.0
  0
VERTEX
  5
C8
330
B5
100
AcDbEntity
  8
GEB-KONTUR-A
 48
25.0
100
AcDbVertex
100
AcDb2dVertex
 10
8.635251522064208
 20
-19.11692619322862
 30
0.0
  0
VERTEX
  5
C9
330
B5
100
AcDbEntity
  8
GEB-KONTUR-A
 48
25.0
100
AcDbVertex
100
AcDb2dVertex
 10
9.078467488288879
 20
-18.908774852744
 30
0.0
  0
VERTEX
  5
CA
330
B5
100
AcDbEntity
  8
GEB-KONTUR-A
 48
25.0
100
AcDbVertex
100
AcDb2dVertex
 10
9.523248672485351
 20
-18.68720531462755
 30
0.0
  0
VERTEX
  5
CB
330
B5
100
AcDbEntity
  8
GEB-KONTUR-A
 48
25.0
100
AcDbVertex
100
AcDb2dVertex
 10
9.968045353889465
 20
-18.45262765883531
 30
0.0
  0
VERTEX
  5
CC
330
B5
100
AcDbEntity
  8
GEB-KONTUR-A
 48
25.0
100
AcDbVertex
100
AcDb2dVertex
 10
10.41130542755127
 20
-18.20545315741624
 30
0.0
  0
VERTEX
  5
CD
330
B5
100
AcDbEntity
  8
GEB-KONTUR-A
 48
25.0
100
AcDbVertex
100
AcDb2dVertex
 10
10.85147738456726
 20
-17.94609308241929
 30
0.0
  0
VERTEX
  5
CE
330
B5
100
AcDbEntity
  8
GEB-KONTUR-A
 48
25.0
100
AcDbVertex
100
AcDb2dVertex
 10
11.28701090812683
 20
-17.67495632170762
 30
0.0
  0
VERTEX
  5
CF
330
B5
100
AcDbEntity
  8
GEB-KONTUR-A
 48
25.0
100
AcDbVertex
100
AcDb2dVertex
 10
11.71635627746582
 20
-17.39245533942308
 30
0.0
  0
VERTEX
  5
D0
330
B5
100
AcDbEntity
  8
GEB-KONTUR-A
 48
25.0
100
AcDbVertex
100
AcDb2dVertex
 10
12.13813781738281
 20
-17.09926605223741
 30
0.0
  0
VERTEX
  5
D1
330
B5
100
AcDbEntity
  8
GEB-KONTUR-A
 48
25.0
100
AcDbVertex
100
AcDb2dVertex
 10
12.55133748054504
 20
-16.79659605025377
 30
0.0
  0
VERTEX
  5
D2
330
B5
100
AcDbEntity
  8
GEB-KONTUR-A
 48
25.0
100
AcDbVertex
100
AcDb2dVertex
 10
12.95498251914978
 20
-16.48571968077745
 30
0.0
  0
VERTEX
  5
D3
330
B5
100
AcDbEntity
  8
GEB-KONTUR-A
 48
25.0
100
AcDbVertex
100
AcDb2dVertex
 10
13.3480966091156
 20
-16.16791248320665
 30
0.0
  0
VERTEX
  5
D4
330
B5
100
AcDbEntity
  8
GEB-KONTUR-A
 48
25.0
100
AcDbVertex
100
AcDb2dVertex
 10
13.72970700263977
 20
-15.84444880484666
 30
0.0
  0
VERTEX
  5
D5
330
B5
100
AcDbEntity
  8
GEB-KONTUR-A
 48
25.0
100
AcDbVertex
100
AcDb2dVertex
 10
14.09883975982666
 20
-15.51660299300279
 30
0.0
  0
VERTEX
  5
D6
330
B5
100
AcDbEntity
  8
GEB-KONTUR-A
 48
25.0
100
AcDbVertex
100
AcDb2dVertex
 10
14.45451855659485
 20
-15.18564939498033
 30
0.0
  0
VERTEX
  5
D7
330
B5
100
AcDbEntity
  8
GEB-KONTUR-A
 48
25.0
100
AcDbVertex
100
AcDb2dVertex
 10
14.79577183723449
 20
-14.85286116599168
 30
0.0
  0
VERTEX
  5
D8
330
B5
100
AcDbEntity
  8
GEB-KONTUR-A
 48
25.0
100
AcDbVertex
100
AcDb2dVertex
 10
15.12874722480774
 20
-14.51230049132432
 30
0.0
  0
VERTEX
  5
D9
330
B5
100
AcDbEntity
  8
GEB-KONTUR-A
 48
25.0
100
AcDbVertex
100
AcDb2dVertex
 10
15.45994400978088
 20
-14.15727257727708
 30
0.0
  0
VERTEX
  5
DA
330
B5
100
AcDbEntity
  8
GEB-KONTUR-A
 48
25.0
100
AcDbVertex
100
AcDb2dVertex
 10
15.78808546066284
 20
-13.78875136374559
 30
0.0
  0
VERTEX
  5
DB
330
B5
100
AcDbEntity
  8
GEB-KONTUR-A
 48
25.0
100
AcDbVertex
100
AcDb2dVertex
 10
16.11189484596252
 20
-13.40770959853258
 30
0.0
  0
VERTEX
  5
DC
330
B5
100
AcDbEntity
  8
GEB-KONTUR-A
 48
25.0
100
AcDbVertex
100
AcDb2dVertex
 10
16.43009662628174
 20
-13.01512241362657
 30
0.0
  0
VERTEX
  5
DD
330
B5
100
AcDbEntity
  8
GEB-KONTUR-A
 48
25.0
100
AcDbVertex
100
AcDb2dVertex
 10
16.7414104938507
 20
-12.6119637489232
 30
0.0
  0
VERTEX
  5
DE
330
B5
100
AcDbEntity
  8
GEB-KONTUR-A
 48
25.0
100
AcDbVertex
100
AcDb2dVertex
 10
17.04456210136413
 20
-12.1992075443181
 30
0.0
  0
VERTEX
  5
DF
330
B5
100
AcDbEntity
  8
GEB-KONTUR-A
 48
25.0
100
AcDbVertex
100
AcDb2dVertex
 10
17.33827352523803
 20
-11.777826547614
 30
0.0
  0
VERTEX
  5
E0
330
B5
100
AcDbEntity
  8
GEB-KONTUR-A
 48
25.0
100
AcDbVertex
100
AcDb2dVertex
 10
17.62132287025451
 20
-11.34883522986497
 30
0.0
  0
VERTEX
  5
E1
330
B5
100
AcDbEntity
  8
GEB-KONTUR-A
 48
25.0
100
AcDbVertex
100
AcDb2dVertex
 10
17.89301514625549
 20
-10.9135949611577
 30
0.0
  0
VERTEX
  5
E2
330
B5
100
AcDbEntity
  8
GEB-KONTUR-A
 48
25.0
100
AcDbVertex
100
AcDb2dVertex
 10
18.15293431282043
 20
-10.47365665434923
 30
0.0
  0
VERTEX
  5
E3
330
B5
100
AcDbEntity
  8
GEB-KONTUR-A
 48
25.0
100
AcDbVertex
100
AcDb2dVertex
 10
18.40066790580749
 20
-10.03057241438951
 30
0.0
  0
VERTEX
  5
E4
330
B5
100
AcDbEntity
  8
GEB-KONTUR-A
 48
25.0
100
AcDbVertex
100
AcDb2dVertex
 10
18.63580465316772
 20
-9.585893154135604
 30
0.0
  0
VERTEX
  5
E5
330
B5
100
AcDbEntity
  8
GEB-KONTUR-A
 48
25.0
100
AcDbVertex
100
AcDb2dVertex
 10
18.85793089866638
 20
-9.141172766676803
 30
0.0
  0
VERTEX
  5
E6
330
B5
100
AcDbEntity
  8
GEB-KONTUR-A
 48
25.0
100
AcDbVertex
100
AcDb2dVertex
 10
19.06663537025451
 20
-8.69796276091661
 30
0.0
  0
VERTEX
  5
E7
330
B5
100
AcDbEntity
  8
GEB-KONTUR-A
 48
25.0
100
AcDbVertex
100
AcDb2dVertex
 10
19.26150441169738
 20
-8.257815837851424
 30
0.0
  0
VERTEX
  5
E8
330
B5
100
AcDbEntity
  8
GEB-KONTUR-A
 48
25.0
100
AcDbVertex
100
AcDb2dVertex
 10
19.44307923316955
 20
-7.819964289656539
 30
0.0
  0
VERTEX
  5
E9
330
B5
100
AcDbEntity
  8
GEB-KONTUR-A
 48
25.0
100
AcDbVertex
100
AcDb2dVertex
 10
19.61679935455322
 20
-7.371284365645308
 30
0.0
  0
VERTEX
  5
EA
330
B5
100
AcDbEntity
  8
GEB-KONTUR-A
 48
25.0
100
AcDbVertex
100
AcDb2dVertex
 10
19.7829258441925
 20
-6.910617947569747
 30
0.0
  0
VERTEX
  5
EB
330
B5
100
AcDbEntity
  8
GEB-KONTUR-A
 48
25.0
100
AcDbVertex
100
AcDb2dVertex
 10
19.94065046310424
 20
-6.439355015746016
 30
0.0
  0
VERTEX
  5
EC
330
B5
100
AcDbEntity
  8
GEB-KONTUR-A
 48
25.0
100
AcDbVertex
100
AcDb2dVertex
 10
20.08916616439819
 20
-5.958885550490279
 30
0.0
  0
VERTEX
  5
ED
330
B5
100
AcDbEntity
  8
GEB-KONTUR-A
 48
25.0
100
AcDbVertex
100
AcDb2dVertex
 10
20.22766351699829
 20
-5.470598936072249
 30
0.0
  0
VERTEX
  5
EE
330
B5
100
AcDbEntity
  8
GEB-KONTUR-A
 48
25.0
100
AcDbVertex
100
AcDb2dVertex
 10
20.35533666610718
 20
-4.975885152808089
 30
0.0
  0
VERTEX
  5
EF
330
B5
100
AcDbEntity
  8
GEB-KONTUR-A
 48
25.0
100
AcDbVertex
100
AcDb2dVertex
 10
20.47137975692749
 20
-4.476134181013961
 30
0.0
  0
VERTEX
  5
F0
330
B5
100
AcDbEntity
  8
GEB-KONTUR-A
 48
25.0
100
AcDbVertex
100
AcDb2dVertex
 10
20.57498455047607
 20
-3.97273629902925
 30
0.0
  0
VERTEX
  5
F1
330
B5
100
AcDbEntity
  8
GEB-KONTUR-A
 48
25.0
100
AcDbVertex
100
AcDb2dVertex
 10
20.66566705703735
 20
-3.467145264140029
 30
0.0
  0
VERTEX
  5
F2
330
B5
100
AcDbEntity
  8
GEB-KONTUR-A
 48
25.0
100
AcDbVertex
100
AcDb2dVertex
 10
20.74356555938721
 20
-2.960939407339949
 30
0.0
  0
VERTEX
  5
F3
330
B5
100
AcDbEntity
  8
GEB-KONTUR-A
 48
25.0
100
AcDbVertex
100
AcDb2dVertex
 10
20.80889225006103
 20
-2.455711513749022
 30
0.0
  0
VERTEX
  5
F4
330
B5
100
AcDbEntity
  8
GEB-KONTUR-A
 48
25.0
100
AcDbVertex
100
AcDb2dVertex
 10
20.86186170578003
 20
-1.953054666510482
 30
0.0
  0
VERTEX
  5
F5
330
B5
100
AcDbEntity
  8
GEB-KONTUR-A
 48
25.0
100
AcDbVertex
100
AcDb2dVertex
 10
20.90269088745117
 20
-1.454562246790786
 30
0.0
  0
VERTEX
  5
F6
330
B5
100
AcDbEntity
  8
GEB-KONTUR-A
 48
25.0
100
AcDbVertex
100
AcDb2dVertex
 10
20.93158721923828
 20
-0.9618268906983331
 30
0.0
  0
VERTEX
  5
F7
330
B5
100
AcDbEntity
  8
GEB-KONTUR-A
 48
25.0
100
AcDbVertex
100
AcDb2dVertex
 10
20.94877004623413
 20
-0.4764417931350664
 30
0.0
  0
VERTEX
  5
F8
330
B5
100
AcDbEntity
  8
GEB-KONTUR-A
 48
25.0
100
AcDbVertex
100
AcDb2dVertex
 10
20.95444917678833
 20
0.0000000000086828
 30
0.0
  0
SEQEND
  5
F9
330
B5
100
AcDbEntity
  8
GEB-KONTUR-A
 48
25.0
  0
POLYLINE
  5
FA
330
2
100
AcDbEntity
  8
GEB-KONTUR-A
 48
25.0
100
AcDb2dPolyline
 66
     1
 10
0.0
 20
0.0
 30
0.0
 70
   128
  0
VERTEX
  5
FB
330
FA
100
AcDbEntity
  8
GEB-KONTUR-A
 48
25.0
100
AcDbVertex
100
AcDb2dVertex
 10
20.95444917678833
 20
0.0000000000086828
 30
0.0
  0
VERTEX
  5
FC
330
FA
100
AcDbEntity
  8
GEB-KONTUR-A
 48
25.0
100
AcDbVertex
100
AcDb2dVertex
 10
20.94877004623413
 20
0.4764417931524321
 30
0.0
  0
VERTEX
  5
FD
330
FA
100
AcDbEntity
  8
GEB-KONTUR-A
 48
25.0
100
AcDbVertex
100
AcDb2dVertex
 10
20.93158721923828
 20
0.9618268907156988
 30
0.0
  0
VERTEX
  5
FE
330
FA
100
AcDbEntity
  8
GEB-KONTUR-A
 48
25.0
100
AcDbVertex
100
AcDb2dVertex
 10
20.90269088745117
 20
1.454562246808151
 30
0.0
  0
VERTEX
  5
FF
330
FA
100
AcDbEntity
  8
GEB-KONTUR-A
 48
25.0
100
AcDbVertex
100
AcDb2dVertex
 10
20.86186170578003
 20
1.953054666527847
 30
0.0
  0
VERTEX
  5
100
330
FA
100
AcDbEntity
  8
GEB-KONTUR-A
 48
25.0
100
AcDbVertex
100
AcDb2dVertex
 10
20.80889225006103
 20
2.455711513766388
 30
0.0
  0
VERTEX
  5
101
330
FA
100
AcDbEntity
  8
GEB-KONTUR-A
 48
25.0
100
AcDbVertex
100
AcDb2dVertex
 10
20.74356555938721
 20
2.960939407357315
 30
0.0
  0
VERTEX
  5
102
330
FA
100
AcDbEntity
  8
GEB-KONTUR-A
 48
25.0
100
AcDbVertex
100
AcDb2dVertex
 10
20.66566705703735
 20
3.467145264157394
 30
0.0
  0
VERTEX
  5
103
330
FA
100
AcDbEntity
  8
GEB-KONTUR-A
 48
25.0
100
AcDbVertex
100
AcDb2dVertex
 10
20.57498455047607
 20
3.972736299046616
 30
0.0
  0
VERTEX
  5
104
330
FA
100
AcDbEntity
  8
GEB-KONTUR-A
 48
25.0
100
AcDbVertex
100
AcDb2dVertex
 10
20.47137975692749
 20
4.476134181031326
 30
0.0
  0
VERTEX
  5
105
330
FA
100
AcDbEntity
  8
GEB-KONTUR-A
 48
25.0
100
AcDbVertex
100
AcDb2dVertex
 10
20.35533666610718
 20
4.975885152825455
 30
0.0
  0
VERTEX
  5
106
330
FA
100
AcDbEntity
  8
GEB-KONTUR-A
 48
25.0
100
AcDbVertex
100
AcDb2dVertex
 10
20.22766351699829
 20
5.470598936089615
 30
0.0
  0
VERTEX
  5
107
330
FA
100
AcDbEntity
  8
GEB-KONTUR-A
 48
25.0
100
AcDbVertex
100
AcDb2dVertex
 10
20.08916616439819
 20
5.958885550507645
 30
0.0
  0
VERTEX
  5
108
330
FA
100
AcDbEntity
  8
GEB-KONTUR-A
 48
25.0
100
AcDbVertex
100
AcDb2dVertex
 10
19.94065046310424
 20
6.439355015763382
 30
0.0
  0
VERTEX
  5
109
330
FA
100
AcDbEntity
  8
GEB-KONTUR-A
 48
25.0
100
AcDbVertex
100
AcDb2dVertex
 10
19.7829258441925
 20
6.910617947587127
 30
0.0
  0
VERTEX
  5
10A
330
FA
100
AcDbEntity
  8
GEB-KONTUR-A
 48
25.0
100
AcDbVertex
100
AcDb2dVertex
 10
19.61679935455322
 20
7.371284365662688
 30
0.0
  0
VERTEX
  5
10B
330
FA
100
AcDbEntity
  8
GEB-KONTUR-A
 48
25.0
100
AcDbVertex
100
AcDb2dVertex
 10
19.44307923316955
 20
7.819964289673919
 30
0.0
  0
VERTEX
  5
10C
330
FA
100
AcDbEntity
  8
GEB-KONTUR-A
 48
25.0
100
AcDbVertex
100
AcDb2dVertex
 10
19.26150441169738
 20
8.257815837868804
 30
0.0
  0
VERTEX
  5
10D
330
FA
100
AcDbEntity
  8
GEB-KONTUR-A
 48
25.0
100
AcDbVertex
100
AcDb2dVertex
 10
19.06663537025451
 20
8.69796276093399
 30
0.0
  0
VERTEX
  5
10E
330
FA
100
AcDbEntity
  8
GEB-KONTUR-A
 48
25.0
100
AcDbVertex
100
AcDb2dVertex
 10
18.85793089866638
 20
9.141172766694182
 30
0.0
  0
VERTEX
  5
10F
330
FA
100
AcDbEntity
  8
GEB-KONTUR-A
 48
25.0
100
AcDbVertex
100
AcDb2dVertex
 10
18.63580465316772
 20
9.585893154152984
 30
0.0
  0
VERTEX
  5
110
330
FA
100
AcDbEntity
  8
GEB-KONTUR-A
 48
25.0
100
AcDbVertex
100
AcDb2dVertex
 10
18.40066790580749
 20
10.03057241440689
 30
0.0
  0
VERTEX
  5
111
330
FA
100
AcDbEntity
  8
GEB-KONTUR-A
 48
25.0
100
AcDbVertex
100
AcDb2dVertex
 10
18.15293431282043
 20
10.4736566543666
 30
0.0
  0
VERTEX
  5
112
330
FA
100
AcDbEntity
  8
GEB-KONTUR-A
 48
25.0
100
AcDbVertex
100
AcDb2dVertex
 10
17.89301514625549
 20
10.91359496117508
 30
0.0
  0
VERTEX
  5
113
330
FA
100
AcDbEntity
  8
GEB-KONTUR-A
 48
25.0
100
AcDbVertex
100
AcDb2dVertex
 10
17.62132287025451
 20
11.34883522988235
 30
0.0
  0
VERTEX
  5
114
330
FA
100
AcDbEntity
  8
GEB-KONTUR-A
 48
25.0
100
AcDbVertex
100
AcDb2dVertex
 10
17.33827352523803
 20
11.77782654763138
 30
0.0
  0
VERTEX
  5
115
330
FA
100
AcDbEntity
  8
GEB-KONTUR-A
 48
25.0
100
AcDbVertex
100
AcDb2dVertex
 10
17.04456210136413
 20
12.19920754433548
 30
0.0
  0
VERTEX
  5
116
330
FA
100
AcDbEntity
  8
GEB-KONTUR-A
 48
25.0
100
AcDbVertex
100
AcDb2dVertex
 10
16.7414104938507
 20
12.61196374894058
 30
0.0
  0
VERTEX
  5
117
330
FA
100
AcDbEntity
  8
GEB-KONTUR-A
 48
25.0
100
AcDbVertex
100
AcDb2dVertex
 10
16.43009662628174
 20
13.01512241364395
 30
0.0
  0
VERTEX
  5
118
330
FA
100
AcDbEntity
  8
GEB-KONTUR-A
 48
25.0
100
AcDbVertex
100
AcDb2dVertex
 10
16.11189484596252
 20
13.40770959854995
 30
0.0
  0
VERTEX
  5
119
330
FA
100
AcDbEntity
  8
GEB-KONTUR-A
 48
25.0
100
AcDbVertex
100
AcDb2dVertex
 10
15.78808546066284
 20
13.78875136376297
 30
0.0
  0
VERTEX
  5
11A
330
FA
100
AcDbEntity
  8
GEB-KONTUR-A
 48
25.0
100
AcDbVertex
100
AcDb2dVertex
 10
15.45994400978088
 20
14.15727257729446
 30
0.0
  0
VERTEX
  5
11B
330
FA
100
AcDbEntity
  8
GEB-KONTUR-A
 48
25.0
100
AcDbVertex
100
AcDb2dVertex
 10
15.12874722480774
 20
14.5123004913417
 30
0.0
  0
VERTEX
  5
11C
330
FA
100
AcDbEntity
  8
GEB-KONTUR-A
 48
25.0
100
AcDbVertex
100
AcDb2dVertex
 10
14.79577183723449
 20
14.85286116600906
 30
0.0
  0
VERTEX
  5
11D
330
FA
100
AcDbEntity
  8
GEB-KONTUR-A
 48
25.0
100
AcDbVertex
100
AcDb2dVertex
 10
14.45451855659485
 20
15.18564939499771
 30
0.0
  0
VERTEX
  5
11E
330
FA
100
AcDbEntity
  8
GEB-KONTUR-A
 48
25.0
100
AcDbVertex
100
AcDb2dVertex
 10
14.09883975982666
 20
15.51660299302017
 30
0.0
  0
VERTEX
  5
11F
330
FA
100
AcDbEntity
  8
GEB-KONTUR-A
 48
25.0
100
AcDbVertex
100
AcDb2dVertex
 10
13.72970700263977
 20
15.84444880486404
 30
0.0
  0
VERTEX
  5
120
330
FA
100
AcDbEntity
  8
GEB-KONTUR-A
 48
25.0
100
AcDbVertex
100
AcDb2dVertex
 10
13.3480966091156
 20
16.16791248322403
 30
0.0
  0
VERTEX
  5
121
330
FA
100
AcDbEntity
  8
GEB-KONTUR-A
 48
25.0
100
AcDbVertex
100
AcDb2dVertex
 10
12.95498251914978
 20
16.48571968079483
 30
0.0
  0
VERTEX
  5
122
330
FA
100
AcDbEntity
  8
GEB-KONTUR-A
 48
25.0
100
AcDbVertex
100
AcDb2dVertex
 10
12.55133748054504
 20
16.79659605027115
 30
0.0
  0
VERTEX
  5
123
330
FA
100
AcDbEntity
  8
GEB-KONTUR-A
 48
25.0
100
AcDbVertex
100
AcDb2dVertex
 10
12.13813781738281
 20
17.09926605225479
 30
0.0
  0
VERTEX
  5
124
330
FA
100
AcDbEntity
  8
GEB-KONTUR-A
 48
25.0
100
AcDbVertex
100
AcDb2dVertex
 10
11.71635627746582
 20
17.39245533944046
 30
0.0
  0
VERTEX
  5
125
330
FA
100
AcDbEntity
  8
GEB-KONTUR-A
 48
25.0
100
AcDbVertex
100
AcDb2dVertex
 10
11.28701090812683
 20
17.674956321725
 30
0.0
  0
VERTEX
  5
126
330
FA
100
AcDbEntity
  8
GEB-KONTUR-A
 48
25.0
100
AcDbVertex
100
AcDb2dVertex
 10
10.85147738456726
 20
17.94609308243667
 30
0.0
  0
VERTEX
  5
127
330
FA
100
AcDbEntity
  8
GEB-KONTUR-A
 48
25.0
100
AcDbVertex
100
AcDb2dVertex
 10
10.41130542755127
 20
18.20545315743362
 30
0.0
  0
VERTEX
  5
128
330
FA
100
AcDbEntity
  8
GEB-KONTUR-A
 48
25.0
100
AcDbVertex
100
AcDb2dVertex
 10
9.968045353889465
 20
18.45262765885269
 30
0.0
  0
VERTEX
  5
129
330
FA
100
AcDbEntity
  8
GEB-KONTUR-A
 48
25.0
100
AcDbVertex
100
AcDb2dVertex
 10
9.523248672485351
 20
18.68720531464493
 30
0.0
  0
VERTEX
  5
12A
330
FA
100
AcDbEntity
  8
GEB-KONTUR-A
 48
25.0
100
AcDbVertex
100
AcDb2dVertex
 10
9.078467488288879
 20
18.90877485276138
 30
0.0
  0
VERTEX
  5
12B
330
FA
100
AcDbEntity
  8
GEB-KONTUR-A
 48
25.0
100
AcDbVertex
100
AcDb2dVertex
 10
8.635251522064208
 20
19.116926193246
 30
0.0
  0
VERTEX
  5
12C
330
FA
100
AcDbEntity
  8
GEB-KONTUR-A
 48
25.0
100
AcDbVertex
100
AcDb2dVertex
 10
8.195152282714843
 20
19.31124925614273
 30
0.0
  0
VERTEX
  5
12D
330
FA
100
AcDbEntity
  8
GEB-KONTUR-A
 48
25.0
100
AcDbVertex
100
AcDb2dVertex
 10
7.757125496864318
 20
19.4923973083583
 30
0.0
  0
VERTEX
  5
12E
330
FA
100
AcDbEntity
  8
GEB-KONTUR-A
 48
25.0
100
AcDbVertex
100
AcDb2dVertex
 10
7.308056950569152
 20
19.66579437256729
 30
0.0
  0
VERTEX
  5
12F
330
FA
100
AcDbEntity
  8
GEB-KONTUR-A
 48
25.0
100
AcDbVertex
100
AcDb2dVertex
 10
6.847060322761535
 20
19.83158707619583
 30
0.0
  0
VERTEX
  5
130
330
FA
100
AcDbEntity
  8
GEB-KONTUR-A
 48
25.0
100
AcDbVertex
100
AcDb2dVertex
 10
6.375522017478942
 20
19.98897314072525
 30
0.0
  0
VERTEX
  5
131
330
FA
100
AcDbEntity
  8
GEB-KONTUR-A
 48
25.0
100
AcDbVertex
100
AcDb2dVertex
 10
5.894826054573059
 20
20.13714790345105
 30
0.0
  0
VERTEX
  5
132
330
FA
100
AcDbEntity
  8
GEB-KONTUR-A
 48
25.0
100
AcDbVertex
100
AcDb2dVertex
 10
5.406358242034912
 20
20.27530908585462
 30
0.0
  0
VERTEX
  5
133
330
FA
100
AcDbEntity
  8
GEB-KONTUR-A
 48
25.0
100
AcDbVertex
100
AcDb2dVertex
 10
4.911504089832305
 20
20.40265560151013
 30
0.0
  0
VERTEX
  5
134
330
FA
100
AcDbEntity
  8
GEB-KONTUR-A
 48
25.0
100
AcDbVertex
100
AcDb2dVertex
 10
4.411648511886596
 20
20.51837921143445
 30
0.0
  0
VERTEX
  5
135
330
FA
100
AcDbEntity
  8
GEB-KONTUR-A
 48
25.0
100
AcDbVertex
100
AcDb2dVertex
 10
3.90817791223526
 20
20.62168598175916
 30
0.0
  0
VERTEX
  5
136
330
FA
100
AcDbEntity
  8
GEB-KONTUR-A
 48
25.0
100
AcDbVertex
100
AcDb2dVertex
 10
3.402542769908905
 20
20.71209907532605
 30
0.0
  0
VERTEX
  5
137
330
FA
100
AcDbEntity
  8
GEB-KONTUR-A
 48
25.0
100
AcDbVertex
100
AcDb2dVertex
 10
2.896316945552825
 20
20.78976392746838
 30
0.0
  0
VERTEX
  5
138
330
FA
100
AcDbEntity
  8
GEB-KONTUR-A
 48
25.0
100
AcDbVertex
100
AcDb2dVertex
 10
2.391087710857391
 20
20.85489273072156
 30
0.0
  0
VERTEX
  5
139
330
FA
100
AcDbEntity
  8
GEB-KONTUR-A
 48
25.0
100
AcDbVertex
100
AcDb2dVertex
 10
1.888442486524581
 20
20.90770244599255
 30
0.0
  0
VERTEX
  5
13A
330
FA
100
AcDbEntity
  8
GEB-KONTUR-A
 48
25.0
100
AcDbVertex
100
AcDb2dVertex
 10
1.389968544244766
 20
20.94840288163098
 30
0.0
  0
VERTEX
  5
13B
330
FA
100
AcDbEntity
  8
GEB-KONTUR-A
 48
25.0
100
AcDbVertex
100
AcDb2dVertex
 10
0.8972536027431488
 20
20.97721099854382
 30
0.0
  0
VERTEX
  5
13C
330
FA
100
AcDbEntity
  8
GEB-KONTUR-A
 48
25.0
100
AcDbVertex
100
AcDb2dVertex
 10
0.4118848219513894
 20
20.99433898926648
 30
0.0
  0
VERTEX
  5
13D
330
FA
100
AcDbEntity
  8
GEB-KONTUR-A
 48
25.0
100
AcDbVertex
100
AcDb2dVertex
 10
-0.0645502656698227
 20
20.99999904633435
 30
0.0
  0
SEQEND
  5
13E
330
FA
100
AcDbEntity
  8
GEB-KONTUR-A
 48
25.0
  0
POLYLINE
  5
13F
330
2
100
AcDbEntity
  8
GEB-VERDECKT
 48
25.0
100
AcDb2dPolyline
 66
     1
 10
0.0
 20
0.0
 30
0.0
 70
   128
  0
VERTEX
  5
140
330
13F
100
AcDbEntity
  8
GEB-VERDECKT
 48
25.0
100
AcDbVertex
100
AcDb2dVertex
 10
-0.0645502656698227
 20
20.99999904633435
 30
0.0
  0
VERTEX
  5
141
330
13F
100
AcDbEntity
  8
GEB-VERDECKT
 48
25.0
100
AcDbVertex
100
AcDb2dVertex
 10
-0.5412371829152108
 20
20.99433183670911
 30
0.0
  0
VERTEX
  5
142
330
13F
100
AcDbEntity
  8
GEB-VERDECKT
 48
25.0
100
AcDbVertex
100
AcDb2dVertex
 10
-1.026861891150474
 20
20.97718954087171
 30
0.0
  0
VERTEX
  5
143
330
13F
100
AcDbEntity
  8
GEB-VERDECKT
 48
25.0
100
AcDbVertex
100
AcDb2dVertex
 10
-1.519836634397506
 20
20.94835519791516
 30
0.0
  0
VERTEX
  5
144
330
13F
100
AcDbEntity
  8
GEB-VERDECKT
 48
25.0
100
AcDbVertex
100
AcDb2dVertex
 10
-2.018573582172393
 20
20.90762138367566
 30
0.0
  0
VERTEX
  5
145
330
13F
100
AcDbEntity
  8
GEB-VERDECKT
 48
25.0
100
AcDbVertex
100
AcDb2dVertex
 10
-2.521485090255737
 20
20.8547759056178
 30
0.0
  0
VERTEX
  5
146
330
13F
100
AcDbEntity
  8
GEB-VERDECKT
 48
25.0
100
AcDbVertex
100
AcDb2dVertex
 10
-3.026983141899108
 20
20.78960418702039
 30
0.0
  0
VERTEX
  5
147
330
13F
100
AcDbEntity
  8
GEB-VERDECKT
 48
25.0
100
AcDbVertex
100
AcDb2dVertex
 10
-3.533480167388916
 20
20.71189403534802
 30
0.0
  0
VERTEX
  5
148
330
13F
100
AcDbEntity
  8
GEB-VERDECKT
 48
25.0
100
AcDbVertex
100
AcDb2dVertex
 10
-4.039388597011566
 20
20.6214356422511
 30
0.0
  0
VERTEX
  5
149
330
13F
100
AcDbEntity
  8
GEB-VERDECKT
 48
25.0
100
AcDbVertex
100
AcDb2dVertex
 10
-4.543133974075317
 20
20.51808595658215
 30
0.0
  0
VERTEX
  5
14A
330
13F
100
AcDbEntity
  8
GEB-VERDECKT
 48
25.0
100
AcDbVertex
100
AcDb2dVertex
 10
-5.043265223503112
 20
20.40231704712781
 30
0.0
  0
VERTEX
  5
14B
330
13F
100
AcDbEntity
  8
GEB-VERDECKT
 48
25.0
100
AcDbVertex
100
AcDb2dVertex
 10
-5.538396835327148
 20
20.27493476868543
 30
0.0
  0
VERTEX
  5
14C
330
13F
100
AcDbEntity
  8
GEB-VERDECKT
 48
25.0
100
AcDbVertex
100
AcDb2dVertex
 10
-6.027142405509948
 20
20.13674259186658
 30
0.0
  0
VERTEX
  5
14D
330
13F
100
AcDbEntity
  8
GEB-VERDECKT
 48
25.0
100
AcDbVertex
100
AcDb2dVertex
 10
-6.508116126060485
 20
19.98854160309707
 30
0.0
  0
VERTEX
  5
14E
330
13F
100
AcDbEntity
  8
GEB-VERDECKT
 48
25.0
100
AcDbVertex
100
AcDb2dVertex
 10
-6.979932188987731
 20
19.83114004136001
 30
0.0
  0
VERTEX
  5
14F
330
13F
100
AcDbEntity
  8
GEB-VERDECKT
 48
25.0
100
AcDbVertex
100
AcDb2dVertex
 10
-7.441205382347106
 20
19.66533899308121
 30
0.0
  0
VERTEX
  5
150
330
13F
100
AcDbEntity
  8
GEB-VERDECKT
 48
25.0
100
AcDbVertex
100
AcDb2dVertex
 10
-7.890549302101135
 20
19.49194312096512
 30
0.0
  0
VERTEX
  5
151
330
13F
100
AcDbEntity
  8
GEB-VERDECKT
 48
25.0
100
AcDbVertex
100
AcDb2dVertex
 10
-8.328852653503417
 20
19.31080937386429
 30
0.0
  0
VERTEX
  5
152
330
13F
100
AcDbEntity
  8
GEB-VERDECKT
 48
25.0
100
AcDbVertex
100
AcDb2dVertex
 10
-8.769236207008361
 20
19.11651253701126
 30
0.0
  0
VERTEX
  5
153
330
13F
100
AcDbEntity
  8
GEB-VERDECKT
 48
25.0
100
AcDbVertex
100
AcDb2dVertex
 10
-9.21274721622467
 20
18.9083993434993
 30
0.0
  0
VERTEX
  5
154
330
13F
100
AcDbEntity
  8
GEB-VERDECKT
 48
25.0
100
AcDbVertex
100
AcDb2dVertex
 10
-9.657836556434631
 20
18.68688225747024
 30
0.0
  0
VERTEX
  5
155
330
13F
100
AcDbEntity
  8
GEB-VERDECKT
 48
25.0
100
AcDbVertex
100
AcDb2dVertex
 10
-10.10295510292053
 20
18.45237016678726
 30
0.0
  0
VERTEX
  5
156
330
13F
100
AcDbEntity
  8
GEB-VERDECKT
 48
25.0
100
AcDbVertex
100
AcDb2dVertex
 10
-10.546555519104
 20
18.2052731514064
 30
0.0
  0
VERTEX
  5
157
330
13F
100
AcDbEntity
  8
GEB-VERDECKT
 48
25.0
100
AcDbVertex
100
AcDb2dVertex
 10
-10.98708748817444
 20
17.94600129128372
 30
0.0
  0
VERTEX
  5
158
330
13F
100
AcDbEntity
  8
GEB-VERDECKT
 48
25.0
100
AcDbVertex
100
AcDb2dVertex
 10
-11.42300367355346
 20
17.67496347428238
 30
0.0
  0
VERTEX
  5
159
330
13F
100
AcDbEntity
  8
GEB-VERDECKT
 48
25.0
100
AcDbVertex
100
AcDb2dVertex
 10
-11.85275554656982
 20
17.39257335663711
 30
0.0
  0
VERTEX
  5
15A
330
13F
100
AcDbEntity
  8
GEB-VERDECKT
 48
25.0
100
AcDbVertex
100
AcDb2dVertex
 10
-12.27496743202209
 20
17.09949970246231
 30
0.0
  0
VERTEX
  5
15B
330
13F
100
AcDbEntity
  8
GEB-VERDECKT
 48
25.0
100
AcDbVertex
100
AcDb2dVertex
 10
-12.68862128257751
 20
16.79694652558243
 30
0.0
  0
VERTEX
  5
15C
330
13F
100
AcDbEntity
  8
GEB-VERDECKT
 48
25.0
100
AcDbVertex
100
AcDb2dVertex
 10
-13.09274315834045
 20
16.48618578911697
 30
0.0
  0
VERTEX
  5
15D
330
13F
100
AcDbEntity
  8
GEB-VERDECKT
 48
25.0
100
AcDbVertex
100
AcDb2dVertex
 10
-13.48635792732238
 20
16.16848826409256
 30
0.0
  0
VERTEX
  5
15E
330
13F
100
AcDbEntity
  8
GEB-VERDECKT
 48
25.0
100
AcDbVertex
100
AcDb2dVertex
 10
-13.86849403381347
 20
15.84512591362869
 30
0.0
  0
VERTEX
  5
15F
330
13F
100
AcDbEntity
  8
GEB-VERDECKT
 48
25.0
100
AcDbVertex
100
AcDb2dVertex
 10
-14.2381751537323
 20
15.51736950875198
 30
0.0
  0
VERTEX
  5
160
330
13F
100
AcDbEntity
  8
GEB-VERDECKT
 48
25.0
100
AcDbVertex
100
AcDb2dVertex
 10
-14.59442853927612
 20
15.18649220467483
 30
0.0
  0
VERTEX
  5
161
330
13F
100
AcDbEntity
  8
GEB-VERDECKT
 48
25.0
100
AcDbVertex
100
AcDb2dVertex
 10
-14.93627905845642
 20
14.85376358033096
 30
0.0
  0
VERTEX
  5
162
330
13F
100
AcDbEntity
  8
GEB-VERDECKT
 48
25.0
100
AcDbVertex
100
AcDb2dVertex
 10
-15.26968121528625
 20
14.51345086098587
 30
0.0
  0
VERTEX
  5
163
330
13F
100
AcDbEntity
  8
GEB-VERDECKT
 48
25.0
100
AcDbVertex
100
AcDb2dVertex
 10
-15.60133695602417
 20
14.15866732598221
 30
0.0
  0
VERTEX
  5
164
330
13F
100
AcDbEntity
  8
GEB-VERDECKT
 48
25.0
100
AcDbVertex
100
AcDb2dVertex
 10
-15.92997550964355
 20
13.79037857056534
 30
0.0
  0
VERTEX
  5
165
330
13F
100
AcDbEntity
  8
GEB-VERDECKT
 48
25.0
100
AcDbVertex
100
AcDb2dVertex
 10
-16.25431895256042
 20
13.4095561504451
 30
0.0
  0
VERTEX
  5
166
330
13F
100
AcDbEntity
  8
GEB-VERDECKT
 48
25.0
100
AcDbVertex
100
AcDb2dVertex
 10
-16.573086977005
 20
13.01717162133133
 30
0.0
  0
VERTEX
  5
167
330
13F
100
AcDbEntity
  8
GEB-VERDECKT
 48
25.0
100
AcDbVertex
100
AcDb2dVertex
 10
-16.88500046730041
 20
12.61419773102676
 30
0.0
  0
VERTEX
  5
168
330
13F
100
AcDbEntity
  8
GEB-VERDECKT
 48
25.0
100
AcDbVertex
100
AcDb2dVertex
 10
-17.18878149986267
 20
12.20160722733413
 30
0.0
  0
VERTEX
  5
169
330
13F
100
AcDbEntity
  8
GEB-VERDECKT
 48
25.0
100
AcDbVertex
100
AcDb2dVertex
 10
-17.48314976692199
 20
11.78037166596328
 30
0.0
  0
VERTEX
  5
16A
330
13F
100
AcDbEntity
  8
GEB-VERDECKT
 48
25.0
100
AcDbVertex
100
AcDb2dVertex
 10
-17.76687860488891
 20
11.35149836541092
 30
0.0
  0
VERTEX
  5
16B
330
13F
100
AcDbEntity
  8
GEB-VERDECKT
 48
25.0
100
AcDbVertex
100
AcDb2dVertex
 10
-18.03925991058349
 20
10.91634154320633
 30
0.0
  0
VERTEX
  5
16C
330
13F
100
AcDbEntity
  8
GEB-VERDECKT
 48
25.0
100
AcDbVertex
100
AcDb2dVertex
 10
-18.29987168312072
 20
10.47644734383499
 30
0.0
  0
VERTEX
  5
16D
330
13F
100
AcDbEntity
  8
GEB-VERDECKT
 48
25.0
100
AcDbVertex
100
AcDb2dVertex
 10
-18.54830145835876
 20
10.03336787224685
 30
0.0
  0
VERTEX
  5
16E
330
13F
100
AcDbEntity
  8
GEB-VERDECKT
 48
25.0
100
AcDbVertex
100
AcDb2dVertex
 10
-18.78413200378418
 20
9.58865404129898
 30
0.0
  0
VERTEX
  5
16F
330
13F
100
AcDbEntity
  8
GEB-VERDECKT
 48
25.0
100
AcDbVertex
100
AcDb2dVertex
 10
-19.00694727897644
 20
9.143855571755523
 30
0.0
  0
VERTEX
  5
170
330
13F
100
AcDbEntity
  8
GEB-VERDECKT
 48
25.0
100
AcDbVertex
100
AcDb2dVertex
 10
-19.2163336277008
 20
8.700522780427093
 30
0.0
  0
VERTEX
  5
171
330
13F
100
AcDbEntity
  8
GEB-VERDECKT
 48
25.0
100
AcDbVertex
100
AcDb2dVertex
 10
-19.41187500953674
 20
8.260205984124297
 30
0.0
  0
VERTEX
  5
172
330
13F
100
AcDbEntity
  8
GEB-VERDECKT
 48
25.0
100
AcDbVertex
100
AcDb2dVertex
 10
-19.5940351486206
 20
7.822316885003203
 30
0.0
  0
VERTEX
  5
173
330
13F
100
AcDbEntity
  8
GEB-VERDECKT
 48
25.0
100
AcDbVertex
100
AcDb2dVertex
 10
-19.76826667785644
 20
7.373743653306121
 30
0.0
  0
VERTEX
  5
174
330
13F
100
AcDbEntity
  8
GEB-VERDECKT
 48
25.0
100
AcDbVertex
100
AcDb2dVertex
 10
-19.93490576744079
 20
6.9131326675502
 30
0.0
  0
VERTEX
  5
175
330
13F
100
AcDbEntity
  8
GEB-VERDECKT
 48
25.0
100
AcDbVertex
100
AcDb2dVertex
 10
-20.09314060211182
 20
6.441877484330277
 30
0.0
  0
VERTEX
  5
176
330
13F
100
AcDbEntity
  8
GEB-VERDECKT
 48
25.0
100
AcDbVertex
100
AcDb2dVertex
 10
-20.24215698242187
 20
5.961372256287674
 30
0.0
  0
VERTEX
  5
177
330
13F
100
AcDbEntity
  8
GEB-VERDECKT
 48
25.0
100
AcDbVertex
100
AcDb2dVertex
 10
-20.38114070892334
 20
5.47300994397078
 30
0.0
  0
VERTEX
  5
178
330
13F
100
AcDbEntity
  8
GEB-VERDECKT
 48
25.0
100
AcDbVertex
100
AcDb2dVertex
 10
-20.50928115844727
 20
4.978183507927994
 30
0.0
  0
VERTEX
  5
179
330
13F
100
AcDbEntity
  8
GEB-VERDECKT
 48
25.0
100
AcDbVertex
100
AcDb2dVertex
 10
-20.62576293945312
 20
4.478286504754166
 30
0.0
  0
VERTEX
  5
17A
330
13F
100
AcDbEntity
  8
GEB-VERDECKT
 48
25.0
100
AcDbVertex
100
AcDb2dVertex
 10
-20.72977781295776
 20
3.974713385113815
 30
0.0
  0
VERTEX
  5
17B
330
13F
100
AcDbEntity
  8
GEB-VERDECKT
 48
25.0
100
AcDbVertex
100
AcDb2dVertex
 10
-20.82082271575928
 20
3.468919396409134
 30
0.0
  0
VERTEX
  5
17C
330
13F
100
AcDbEntity
  8
GEB-VERDECKT
 48
25.0
100
AcDbVertex
100
AcDb2dVertex
 10
-20.89903593063354
 20
2.962487638005356
 30
0.0
  0
VERTEX
  5
17D
330
13F
100
AcDbEntity
  8
GEB-VERDECKT
 48
25.0
100
AcDbVertex
100
AcDb2dVertex
 10
-20.96462965011597
 20
2.457016110428909
 30
0.0
  0
VERTEX
  5
17E
330
13F
100
AcDbEntity
  8
GEB-VERDECKT
 48
25.0
100
AcDbVertex
100
AcDb2dVertex
 10
-21.01781845092773
 20
1.954103112229446
 30
0.0
  0
VERTEX
  5
17F
330
13F
100
AcDbEntity
  8
GEB-VERDECKT
 48
25.0
100
AcDbVertex
100
AcDb2dVertex
 10
-21.05881690979004
 20
1.455346792945007
 30
0.0
  0
VERTEX
  5
180
330
13F
100
AcDbEntity
  8
GEB-VERDECKT
 48
25.0
100
AcDbVertex
100
AcDb2dVertex
 10
-21.08783721923828
 20
0.9623454511252447
 30
0.0
  0
VERTEX
  5
181
330
13F
100
AcDbEntity
  8
GEB-VERDECKT
 48
25.0
100
AcDbVertex
100
AcDb2dVertex
 10
-21.10509157180786
 20
0.4766971245494887
 30
0.0
  0
VERTEX
  5
182
330
13F
100
AcDbEntity
  8
GEB-VERDECKT
 48
25.0
100
AcDbVertex
100
AcDb2dVertex
 10
-21.11079454421997
 20
0.0000000000088249
 30
0.0
  0
VERTEX
  5
183
330
13F
100
AcDbEntity
  8
GEB-VERDECKT
 48
25.0
100
AcDbVertex
100
AcDb2dVertex
 10
-21.10509157180786
 20
-0.476697124532123
 30
0.0
  0
VERTEX
  5
184
330
13F
100
AcDbEntity
  8
GEB-VERDECKT
 48
25.0
100
AcDbVertex
100
AcDb2dVertex
 10
-21.08783721923828
 20
-0.962345451107879
 30
0.0
  0
VERTEX
  5
185
330
13F
100
AcDbEntity
  8
GEB-VERDECKT
 48
25.0
100
AcDbVertex
100
AcDb2dVertex
 10
-21.05881690979004
 20
-1.455346792927642
 30
0.0
  0
VERTEX
  5
186
330
13F
100
AcDbEntity
  8
GEB-VERDECKT
 48
25.0
100
AcDbVertex
100
AcDb2dVertex
 10
-21.01781845092773
 20
-1.954103112212081
 30
0.0
  0
VERTEX
  5
187
330
13F
100
AcDbEntity
  8
GEB-VERDECKT
 48
25.0
100
AcDbVertex
100
AcDb2dVertex
 10
-20.96462965011597
 20
-2.457016110411544
 30
0.0
  0
VERTEX
  5
188
330
13F
100
AcDbEntity
  8
GEB-VERDECKT
 48
25.0
100
AcDbVertex
100
AcDb2dVertex
 10
-20.89903593063354
 20
-2.96248763798799
 30
0.0
  0
VERTEX
  5
189
330
13F
100
AcDbEntity
  8
GEB-VERDECKT
 48
25.0
100
AcDbVertex
100
AcDb2dVertex
 10
-20.82082271575928
 20
-3.468919396391768
 30
0.0
  0
VERTEX
  5
18A
330
13F
100
AcDbEntity
  8
GEB-VERDECKT
 48
25.0
100
AcDbVertex
100
AcDb2dVertex
 10
-20.72977781295776
 20
-3.97471338509645
 30
0.0
  0
VERTEX
  5
18B
330
13F
100
AcDbEntity
  8
GEB-VERDECKT
 48
25.0
100
AcDbVertex
100
AcDb2dVertex
 10
-20.62576293945312
 20
-4.4782865047368
 30
0.0
  0
VERTEX
  5
18C
330
13F
100
AcDbEntity
  8
GEB-VERDECKT
 48
25.0
100
AcDbVertex
100
AcDb2dVertex
 10
-20.50928115844727
 20
-4.978183507910628
 30
0.0
  0
VERTEX
  5
18D
330
13F
100
AcDbEntity
  8
GEB-VERDECKT
 48
25.0
100
AcDbVertex
100
AcDb2dVertex
 10
-20.38114070892334
 20
-5.473009943953414
 30
0.0
  0
VERTEX
  5
18E
330
13F
100
AcDbEntity
  8
GEB-VERDECKT
 48
25.0
100
AcDbVertex
100
AcDb2dVertex
 10
-20.24215698242187
 20
-5.961372256270308
 30
0.0
  0
VERTEX
  5
18F
330
13F
100
AcDbEntity
  8
GEB-VERDECKT
 48
25.0
100
AcDbVertex
100
AcDb2dVertex
 10
-20.09314060211182
 20
-6.441877484312911
 30
0.0
  0
VERTEX
  5
190
330
13F
100
AcDbEntity
  8
GEB-VERDECKT
 48
25.0
100
AcDbVertex
100
AcDb2dVertex
 10
-19.93490576744079
 20
-6.913132667532821
 30
0.0
  0
VERTEX
  5
191
330
13F
100
AcDbEntity
  8
GEB-VERDECKT
 48
25.0
100
AcDbVertex
100
AcDb2dVertex
 10
-19.76826667785644
 20
-7.373743653288741
 30
0.0
  0
VERTEX
  5
192
330
13F
100
AcDbEntity
  8
GEB-VERDECKT
 48
25.0
100
AcDbVertex
100
AcDb2dVertex
 10
-19.5940351486206
 20
-7.822316884985824
 30
0.0
  0
VERTEX
  5
193
330
13F
100
AcDbEntity
  8
GEB-VERDECKT
 48
25.0
100
AcDbVertex
100
AcDb2dVertex
 10
-19.41187500953674
 20
-8.260205984106917
 30
0.0
  0
VERTEX
  5
194
330
13F
100
AcDbEntity
  8
GEB-VERDECKT
 48
25.0
100
AcDbVertex
100
AcDb2dVertex
 10
-19.2163336277008
 20
-8.700522780409713
 30
0.0
  0
VERTEX
  5
195
330
13F
100
AcDbEntity
  8
GEB-VERDECKT
 48
25.0
100
AcDbVertex
100
AcDb2dVertex
 10
-19.00694727897644
 20
-9.143855571738143
 30
0.0
  0
VERTEX
  5
196
330
13F
100
AcDbEntity
  8
GEB-VERDECKT
 48
25.0
100
AcDbVertex
100
AcDb2dVertex
 10
-18.78413200378418
 20
-9.5886540412816
 30
0.0
  0
VERTEX
  5
197
330
13F
100
AcDbEntity
  8
GEB-VERDECKT
 48
25.0
100
AcDbVertex
100
AcDb2dVertex
 10
-18.54830145835876
 20
-10.03336787222947
 30
0.0
  0
VERTEX
  5
198
330
13F
100
AcDbEntity
  8
GEB-VERDECKT
 48
25.0
100
AcDbVertex
100
AcDb2dVertex
 10
-18.29987168312072
 20
-10.47644734381761
 30
0.0
  0
VERTEX
  5
199
330
13F
100
AcDbEntity
  8
GEB-VERDECKT
 48
25.0
100
AcDbVertex
100
AcDb2dVertex
 10
-18.03925991058349
 20
-10.91634154318895
 30
0.0
  0
VERTEX
  5
19A
330
13F
100
AcDbEntity
  8
GEB-VERDECKT
 48
25.0
100
AcDbVertex
100
AcDb2dVertex
 10
-17.76687860488891
 20
-11.35149836539354
 30
0.0
  0
VERTEX
  5
19B
330
13F
100
AcDbEntity
  8
GEB-VERDECKT
 48
25.0
100
AcDbVertex
100
AcDb2dVertex
 10
-17.48314976692199
 20
-11.78037166594591
 30
0.0
  0
VERTEX
  5
19C
330
13F
100
AcDbEntity
  8
GEB-VERDECKT
 48
25.0
100
AcDbVertex
100
AcDb2dVertex
 10
-17.18878149986267
 20
-12.20160722731675
 30
0.0
  0
VERTEX
  5
19D
330
13F
100
AcDbEntity
  8
GEB-VERDECKT
 48
25.0
100
AcDbVertex
100
AcDb2dVertex
 10
-16.88500046730041
 20
-12.61419773100938
 30
0.0
  0
VERTEX
  5
19E
330
13F
100
AcDbEntity
  8
GEB-VERDECKT
 48
25.0
100
AcDbVertex
100
AcDb2dVertex
 10
-16.573086977005
 20
-13.01717162131395
 30
0.0
  0
VERTEX
  5
19F
330
13F
100
AcDbEntity
  8
GEB-VERDECKT
 48
25.0
100
AcDbVertex
100
AcDb2dVertex
 10
-16.25431895256042
 20
-13.40955615042772
 30
0.0
  0
VERTEX
  5
1A0
330
13F
100
AcDbEntity
  8
GEB-VERDECKT
 48
25.0
100
AcDbVertex
100
AcDb2dVertex
 10
-15.92997550964355
 20
-13.79037857054796
 30
0.0
  0
VERTEX
  5
1A1
330
13F
100
AcDbEntity
  8
GEB-VERDECKT
 48
25.0
100
AcDbVertex
100
AcDb2dVertex
 10
-15.60133695602417
 20
-14.15866732596483
 30
0.0
  0
VERTEX
  5
1A2
330
13F
100
AcDbEntity
  8
GEB-VERDECKT
 48
25.0
100
AcDbVertex
100
AcDb2dVertex
 10
-15.26968121528625
 20
-14.51345086096849
 30
0.0
  0
VERTEX
  5
1A3
330
13F
100
AcDbEntity
  8
GEB-VERDECKT
 48
25.0
100
AcDbVertex
100
AcDb2dVertex
 10
-14.93627905845642
 20
-14.85376358031358
 30
0.0
  0
VERTEX
  5
1A4
330
13F
100
AcDbEntity
  8
GEB-VERDECKT
 48
25.0
100
AcDbVertex
100
AcDb2dVertex
 10
-14.59442853927612
 20
-15.18649220465745
 30
0.0
  0
VERTEX
  5
1A5
330
13F
100
AcDbEntity
  8
GEB-VERDECKT
 48
25.0
100
AcDbVertex
100
AcDb2dVertex
 10
-14.2381751537323
 20
-15.5173695087346
 30
0.0
  0
VERTEX
  5
1A6
330
13F
100
AcDbEntity
  8
GEB-VERDECKT
 48
25.0
100
AcDbVertex
100
AcDb2dVertex
 10
-13.86849403381347
 20
-15.84512591361131
 30
0.0
  0
VERTEX
  5
1A7
330
13F
100
AcDbEntity
  8
GEB-VERDECKT
 48
25.0
100
AcDbVertex
100
AcDb2dVertex
 10
-13.48635792732238
 20
-16.16848826407518
 30
0.0
  0
VERTEX
  5
1A8
330
13F
100
AcDbEntity
  8
GEB-VERDECKT
 48
25.0
100
AcDbVertex
100
AcDb2dVertex
 10
-13.09274315834045
 20
-16.48618578909959
 30
0.0
  0
VERTEX
  5
1A9
330
13F
100
AcDbEntity
  8
GEB-VERDECKT
 48
25.0
100
AcDbVertex
100
AcDb2dVertex
 10
-12.68862128257751
 20
-16.79694652556505
 30
0.0
  0
VERTEX
  5
1AA
330
13F
100
AcDbEntity
  8
GEB-VERDECKT
 48
25.0
100
AcDbVertex
100
AcDb2dVertex
 10
-12.27496743202209
 20
-17.09949970244493
 30
0.0
  0
VERTEX
  5
1AB
330
13F
100
AcDbEntity
  8
GEB-VERDECKT
 48
25.0
100
AcDbVertex
100
AcDb2dVertex
 10
-11.85275554656982
 20
-17.39257335661973
 30
0.0
  0
VERTEX
  5
1AC
330
13F
100
AcDbEntity
  8
GEB-VERDECKT
 48
25.0
100
AcDbVertex
100
AcDb2dVertex
 10
-11.42300367355346
 20
-17.674963474265
 30
0.0
  0
VERTEX
  5
1AD
330
13F
100
AcDbEntity
  8
GEB-VERDECKT
 48
25.0
100
AcDbVertex
100
AcDb2dVertex
 10
-10.98708748817444
 20
-17.94600129126634
 30
0.0
  0
VERTEX
  5
1AE
330
13F
100
AcDbEntity
  8
GEB-VERDECKT
 48
25.0
100
AcDbVertex
100
AcDb2dVertex
 10
-10.546555519104
 20
-18.20527315138902
 30
0.0
  0
VERTEX
  5
1AF
330
13F
100
AcDbEntity
  8
GEB-VERDECKT
 48
25.0
100
AcDbVertex
100
AcDb2dVertex
 10
-10.10295510292053
 20
-18.45237016676988
 30
0.0
  0
VERTEX
  5
1B0
330
13F
100
AcDbEntity
  8
GEB-VERDECKT
 48
25.0
100
AcDbVertex
100
AcDb2dVertex
 10
-9.657836556434631
 20
-18.68688225745286
 30
0.0
  0
VERTEX
  5
1B1
330
13F
100
AcDbEntity
  8
GEB-VERDECKT
 48
25.0
100
AcDbVertex
100
AcDb2dVertex
 10
-9.21274721622467
 20
-18.90839934348192
 30
0.0
  0
VERTEX
  5
1B2
330
13F
100
AcDbEntity
  8
GEB-VERDECKT
 48
25.0
100
AcDbVertex
100
AcDb2dVertex
 10
-8.769236207008361
 20
-19.11651253699388
 30
0.0
  0
VERTEX
  5
1B3
330
13F
100
AcDbEntity
  8
GEB-VERDECKT
 48
25.0
100
AcDbVertex
100
AcDb2dVertex
 10
-8.328852653503417
 20
-19.31080937384691
 30
0.0
  0
VERTEX
  5
1B4
330
13F
100
AcDbEntity
  8
GEB-VERDECKT
 48
25.0
100
AcDbVertex
100
AcDb2dVertex
 10
-7.890549302101135
 20
-19.49194312094774
 30
0.0
  0
VERTEX
  5
1B5
330
13F
100
AcDbEntity
  8
GEB-VERDECKT
 48
25.0
100
AcDbVertex
100
AcDb2dVertex
 10
-7.441205382347106
 20
-19.66533899306383
 30
0.0
  0
VERTEX
  5
1B6
330
13F
100
AcDbEntity
  8
GEB-VERDECKT
 48
25.0
100
AcDbVertex
100
AcDb2dVertex
 10
-6.979932188987731
 20
-19.83114004134263
 30
0.0
  0
VERTEX
  5
1B7
330
13F
100
AcDbEntity
  8
GEB-VERDECKT
 48
25.0
100
AcDbVertex
100
AcDb2dVertex
 10
-6.508116126060485
 20
-19.98854160307969
 30
0.0
  0
VERTEX
  5
1B8
330
13F
100
AcDbEntity
  8
GEB-VERDECKT
 48
25.0
100
AcDbVertex
100
AcDb2dVertex
 10
-6.027142405509948
 20
-20.13674259184924
 30
0.0
  0
VERTEX
  5
1B9
330
13F
100
AcDbEntity
  8
GEB-VERDECKT
 48
25.0
100
AcDbVertex
100
AcDb2dVertex
 10
-5.538396835327148
 20
-20.27493476866809
 30
0.0
  0
VERTEX
  5
1BA
330
13F
100
AcDbEntity
  8
GEB-VERDECKT
 48
25.0
100
AcDbVertex
100
AcDb2dVertex
 10
-5.043265223503112
 20
-20.40231704711047
 30
0.0
  0
VERTEX
  5
1BB
330
13F
100
AcDbEntity
  8
GEB-VERDECKT
 48
25.0
100
AcDbVertex
100
AcDb2dVertex
 10
-4.543133974075317
 20
-20.51808595656482
 30
0.0
  0
VERTEX
  5
1BC
330
13F
100
AcDbEntity
  8
GEB-VERDECKT
 48
25.0
100
AcDbVertex
100
AcDb2dVertex
 10
-4.039388597011566
 20
-20.62143564223376
 30
0.0
  0
VERTEX
  5
1BD
330
13F
100
AcDbEntity
  8
GEB-VERDECKT
 48
25.0
100
AcDbVertex
100
AcDb2dVertex
 10
-3.533480167388916
 20
-20.71189403533069
 30
0.0
  0
VERTEX
  5
1BE
330
13F
100
AcDbEntity
  8
GEB-VERDECKT
 48
25.0
100
AcDbVertex
100
AcDb2dVertex
 10
-3.026983141899108
 20
-20.78960418700305
 30
0.0
  0
VERTEX
  5
1BF
330
13F
100
AcDbEntity
  8
GEB-VERDECKT
 48
25.0
100
AcDbVertex
100
AcDb2dVertex
 10
-2.521485090255737
 20
-20.85477590560046
 30
0.0
  0
VERTEX
  5
1C0
330
13F
100
AcDbEntity
  8
GEB-VERDECKT
 48
25.0
100
AcDbVertex
100
AcDb2dVertex
 10
-2.018573582172393
 20
-20.90762138365832
 30
0.0
  0
VERTEX
  5
1C1
330
13F
100
AcDbEntity
  8
GEB-VERDECKT
 48
25.0
100
AcDbVertex
100
AcDb2dVertex
 10
-1.519836634397506
 20
-20.94835519789782
 30
0.0
  0
VERTEX
  5
1C2
330
13F
100
AcDbEntity
  8
GEB-VERDECKT
 48
25.0
100
AcDbVertex
100
AcDb2dVertex
 10
-1.026861891150474
 20
-20.97718954085437
 30
0.0
  0
VERTEX
  5
1C3
330
13F
100
AcDbEntity
  8
GEB-VERDECKT
 48
25.0
100
AcDbVertex
100
AcDb2dVertex
 10
-0.5412371829152108
 20
-20.99433183669177
 30
0.0
  0
VERTEX
  5
1C4
330
13F
100
AcDbEntity
  8
GEB-VERDECKT
 48
25.0
100
AcDbVertex
100
AcDb2dVertex
 10
-0.0645502656698227
 20
-20.99999904631701
 30
0.0
  0
SEQEND
  5
1C5
330
13F
100
AcDbEntity
  8
GEB-VERDECKT
 48
25.0
  0
POLYLINE
  5
1C6
330
2
100
AcDbEntity
  8
GEB-VERDECKT
 48
25.0
100
AcDb2dPolyline
 66
     1
 10
0.0
 20
0.0
 30
0.0
 70
   128
  0
VERTEX
  5
1C7
330
1C6
100
AcDbEntity
  8
GEB-VERDECKT
 48
25.0
100
AcDbVertex
100
AcDb2dVertex
 10
19.45347189903259
 20
0.0000000000086828
 30
0.0
  0
VERTEX
  5
1C8
330
1C6
100
AcDbEntity
  8
GEB-VERDECKT
 48
25.0
100
AcDbVertex
100
AcDb2dVertex
 10
19.44734096527099
 20
-0.477205738416572
 30
0.0
  0
VERTEX
  5
1C9
330
1C6
100
AcDbEntity
  8
GEB-VERDECKT
 48
25.0
100
AcDbVertex
100
AcDb2dVertex
 10
19.42878484725952
 20
-0.9639250487002328
 30
0.0
  0
VERTEX
  5
1CA
330
1C6
100
AcDbEntity
  8
GEB-VERDECKT
 48
25.0
100
AcDbVertex
100
AcDb2dVertex
 10
19.397554397583
 20
-1.458305716505904
 30
0.0
  0
VERTEX
  5
1CB
330
1C6
100
AcDbEntity
  8
GEB-VERDECKT
 48
25.0
100
AcDbVertex
100
AcDb2dVertex
 10
19.35340166091919
 20
-1.958495527497191
 30
0.0
  0
VERTEX
  5
1CC
330
1C6
100
AcDbEntity
  8
GEB-VERDECKT
 48
25.0
100
AcDbVertex
100
AcDb2dVertex
 10
19.2960774898529
 20
-2.462642341843505
 30
0.0
  0
VERTEX
  5
1CD
330
1C6
100
AcDbEntity
  8
GEB-VERDECKT
 48
25.0
100
AcDbVertex
100
AcDb2dVertex
 10
19.22533392906189
 20
-2.968893945208449
 30
0.0
  0
VERTEX
  5
1CE
330
1C6
100
AcDbEntity
  8
GEB-VERDECKT
 48
25.0
100
AcDbVertex
100
AcDb2dVertex
 10
19.14092302322387
 20
-3.475398123255629
 30
0.0
  0
VERTEX
  5
1CF
330
1C6
100
AcDbEntity
  8
GEB-VERDECKT
 48
25.0
100
AcDbVertex
100
AcDb2dVertex
 10
19.04260396957397
 20
-3.980304300776381
 30
0.0
  0
VERTEX
  5
1D0
330
1C6
100
AcDbEntity
  8
GEB-VERDECKT
 48
25.0
100
AcDbVertex
100
AcDb2dVertex
 10
18.93059253692627
 20
-4.481852650633712
 30
0.0
  0
VERTEX
  5
1D1
330
1C6
100
AcDbEntity
  8
GEB-VERDECKT
 48
25.0
100
AcDbVertex
100
AcDb2dVertex
 10
18.80577206611633
 20
-4.978415966025252
 30
0.0
  0
VERTEX
  5
1D2
330
1C6
100
AcDbEntity
  8
GEB-VERDECKT
 48
25.0
100
AcDbVertex
100
AcDb2dVertex
 10
18.66908192634582
 20
-5.468378663054366
 30
0.0
  0
VERTEX
  5
1D3
330
1C6
100
AcDbEntity
  8
GEB-VERDECKT
 48
25.0
100
AcDbVertex
100
AcDb2dVertex
 10
18.52146029472351
 20
-5.950124859801192
 30
0.0
  0
VERTEX
  5
1D4
330
1C6
100
AcDbEntity
  8
GEB-VERDECKT
 48
25.0
100
AcDbVertex
100
AcDb2dVertex
 10
18.36384654045105
 20
-6.42203867434587
 30
0.0
  0
VERTEX
  5
1D5
330
1C6
100
AcDbEntity
  8
GEB-VERDECKT
 48
25.0
100
AcDbVertex
100
AcDb2dVertex
 10
18.1971800327301
 20
-6.882503628722091
 30
0.0
  0
VERTEX
  5
1D6
330
1C6
100
AcDbEntity
  8
GEB-VERDECKT
 48
25.0
100
AcDbVertex
100
AcDb2dVertex
 10
18.02240014076233
 20
-7.329904437056441
 30
0.0
  0
VERTEX
  5
1D7
330
1C6
100
AcDbEntity
  8
GEB-VERDECKT
 48
25.0
100
AcDbVertex
100
AcDb2dVertex
 10
17.83826947212219
 20
-7.767795920363326
 30
0.0
  0
VERTEX
  5
1D8
330
1C6
100
AcDbEntity
  8
GEB-VERDECKT
 48
25.0
100
AcDbVertex
100
AcDb2dVertex
 10
17.63926148414611
 20
-8.209326267233748
 30
0.0
  0
VERTEX
  5
1D9
330
1C6
100
AcDbEntity
  8
GEB-VERDECKT
 48
25.0
100
AcDbVertex
100
AcDb2dVertex
 10
17.42547273635864
 20
-8.653619885435958
 30
0.0
  0
VERTEX
  5
1DA
330
1C6
100
AcDbEntity
  8
GEB-VERDECKT
 48
25.0
100
AcDbVertex
100
AcDb2dVertex
 10
17.19738364219665
 20
-9.098871350279708
 30
0.0
  0
VERTEX
  5
1DB
330
1C6
100
AcDbEntity
  8
GEB-VERDECKT
 48
25.0
100
AcDbVertex
100
AcDb2dVertex
 10
16.95547342300415
 20
-9.543275833121199
 30
0.0
  0
VERTEX
  5
1DC
330
1C6
100
AcDbEntity
  8
GEB-VERDECKT
 48
25.0
100
AcDbVertex
100
AcDb2dVertex
 10
16.70022249221801
 20
-9.985029101363082
 30
0.0
  0
VERTEX
  5
1DD
330
1C6
100
AcDbEntity
  8
GEB-VERDECKT
 48
25.0
100
AcDbVertex
100
AcDb2dVertex
 10
16.43210768699646
 20
-10.42232632636155
 30
0.0
  0
VERTEX
  5
1DE
330
1C6
100
AcDbEntity
  8
GEB-VERDECKT
 48
25.0
100
AcDbVertex
100
AcDb2dVertex
 10
16.15161180496215
 20
-10.85336327551927
 30
0.0
  0
VERTEX
  5
1DF
330
1C6
100
AcDbEntity
  8
GEB-VERDECKT
 48
25.0
100
AcDbVertex
100
AcDb2dVertex
 10
15.85940718650818
 20
-11.27646446227159
 30
0.0
  0
VERTEX
  5
1E0
330
1C6
100
AcDbEntity
  8
GEB-VERDECKT
 48
25.0
100
AcDbVertex
100
AcDb2dVertex
 10
15.55683612823486
 20
-11.69040203093614
 30
0.0
  0
VERTEX
  5
1E1
330
1C6
100
AcDbEntity
  8
GEB-VERDECKT
 48
25.0
100
AcDbVertex
100
AcDb2dVertex
 10
15.24538397789001
 20
-12.09404468535508
 30
0.0
  0
VERTEX
  5
1E2
330
1C6
100
AcDbEntity
  8
GEB-VERDECKT
 48
25.0
100
AcDbVertex
100
AcDb2dVertex
 10
14.92653608322143
 20
-12.4862587451848
 30
0.0
  0
VERTEX
  5
1E3
330
1C6
100
AcDbEntity
  8
GEB-VERDECKT
 48
25.0
100
AcDbVertex
100
AcDb2dVertex
 10
14.60177779197693
 20
-12.86591053008165
 30
0.0
  0
VERTEX
  5
1E4
330
1C6
100
AcDbEntity
  8
GEB-VERDECKT
 48
25.0
100
AcDbVertex
100
AcDb2dVertex
 10
14.2725932598114
 20
-13.2318699359807
 30
0.0
  0
VERTEX
  5
1E5
330
1C6
100
AcDbEntity
  8
GEB-VERDECKT
 48
25.0
100
AcDbVertex
100
AcDb2dVertex
 10
13.94046783447265
 20
-13.58300328253831
 30
0.0
  0
VERTEX
  5
1E6
330
1C6
100
AcDbEntity
  8
GEB-VERDECKT
 48
25.0
100
AcDbVertex
100
AcDb2dVertex
 10
13.60559821128845
 20
-13.91945838927354
 30
0.0
  0
VERTEX
  5
1E7
330
1C6
100
AcDbEntity
  8
GEB-VERDECKT
 48
25.0
100
AcDbVertex
100
AcDb2dVertex
 10
13.25742721557617
 20
-14.25184130667772
 30
0.0
  0
VERTEX
  5
1E8
330
1C6
100
AcDbEntity
  8
GEB-VERDECKT
 48
25.0
100
AcDbVertex
100
AcDb2dVertex
 10
12.89420962333679
 20
-14.58157181738939
 30
0.0
  0
VERTEX
  5
1E9
330
1C6
100
AcDbEntity
  8
GEB-VERDECKT
 48
25.0
100
AcDbVertex
100
AcDb2dVertex
 10
12.51707911491394
 20
-14.90716934203233
 30
0.0
  0
VERTEX
  5
1EA
330
1C6
100
AcDbEntity
  8
GEB-VERDECKT
 48
25.0
100
AcDbVertex
100
AcDb2dVertex
 10
12.12716579437256
 20
-15.22715210913743
 30
0.0
  0
VERTEX
  5
1EB
330
1C6
100
AcDbEntity
  8
GEB-VERDECKT
 48
25.0
100
AcDbVertex
100
AcDb2dVertex
 10
11.72560453414917
 20
-15.54003715514268
 30
0.0
  0
VERTEX
  5
1EC
330
1C6
100
AcDbEntity
  8
GEB-VERDECKT
 48
25.0
100
AcDbVertex
100
AcDb2dVertex
 10
11.31352663040161
 20
-15.84434509276475
 30
0.0
  0
VERTEX
  5
1ED
330
1C6
100
AcDbEntity
  8
GEB-VERDECKT
 48
25.0
100
AcDbVertex
100
AcDb2dVertex
 10
10.89206457138061
 20
-16.13859176634874
 30
0.0
  0
VERTEX
  5
1EE
330
1C6
100
AcDbEntity
  8
GEB-VERDECKT
 48
25.0
100
AcDbVertex
100
AcDb2dVertex
 10
10.46239852905273
 20
-16.42136692999925
 30
0.0
  0
VERTEX
  5
1EF
330
1C6
100
AcDbEntity
  8
GEB-VERDECKT
 48
25.0
100
AcDbVertex
100
AcDb2dVertex
 10
10.02611637115478
 20
-16.69186830519761
 30
0.0
  0
VERTEX
  5
1F0
330
1C6
100
AcDbEntity
  8
GEB-VERDECKT
 48
25.0
100
AcDbVertex
100
AcDb2dVertex
 10
9.585017561912536
 20
-16.94961905478563
 30
0.0
  0
VERTEX
  5
1F1
330
1C6
100
AcDbEntity
  8
GEB-VERDECKT
 48
25.0
100
AcDbVertex
100
AcDb2dVertex
 10
9.140907526016235
 20
-17.1941387653264
 30
0.0
  0
VERTEX
  5
1F2
330
1C6
100
AcDbEntity
  8
GEB-VERDECKT
 48
25.0
100
AcDbVertex
100
AcDb2dVertex
 10
8.695589303970336
 20
-17.42495179175462
 30
0.0
  0
VERTEX
  5
1F3
330
1C6
100
AcDbEntity
  8
GEB-VERDECKT
 48
25.0
100
AcDbVertex
100
AcDb2dVertex
 10
8.250865340232849
 20
-17.64158129691209
 30
0.0
  0
VERTEX
  5
1F4
330
1C6
100
AcDbEntity
  8
GEB-VERDECKT
 48
25.0
100
AcDbVertex
100
AcDb2dVertex
 10
7.80854046344757
 20
-17.84354805945482
 30
0.0
  0
VERTEX
  5
1F5
330
1C6
100
AcDbEntity
  8
GEB-VERDECKT
 48
25.0
100
AcDbVertex
100
AcDb2dVertex
 10
7.370334267616271
 20
-18.03041100501146
 30
0.0
  0
VERTEX
  5
1F6
330
1C6
100
AcDbEntity
  8
GEB-VERDECKT
 48
25.0
100
AcDbVertex
100
AcDb2dVertex
 10
6.925823092460632
 20
-18.20663809775438
 30
0.0
  0
VERTEX
  5
1F7
330
1C6
100
AcDbEntity
  8
GEB-VERDECKT
 48
25.0
100
AcDbVertex
100
AcDb2dVertex
 10
6.467933058738708
 20
-18.37496042250718
 30
0.0
  0
VERTEX
  5
1F8
330
1C6
100
AcDbEntity
  8
GEB-VERDECKT
 48
25.0
100
AcDbVertex
100
AcDb2dVertex
 10
5.998275279998779
 20
-18.5344433784398
 30
0.0
  0
VERTEX
  5
1F9
330
1C6
100
AcDbEntity
  8
GEB-VERDECKT
 48
25.0
100
AcDbVertex
100
AcDb2dVertex
 10
5.518459677696228
 20
-18.68415236472215
 30
0.0
  0
VERTEX
  5
1FA
330
1C6
100
AcDbEntity
  8
GEB-VERDECKT
 48
25.0
100
AcDbVertex
100
AcDb2dVertex
 10
5.030097961425781
 20
-18.82315635680284
 30
0.0
  0
VERTEX
  5
1FB
330
1C6
100
AcDbEntity
  8
GEB-VERDECKT
 48
25.0
100
AcDbVertex
100
AcDb2dVertex
 10
4.53479915857315
 20
-18.95051956175889
 30
0.0
  0
VERTEX
  5
1FC
330
1C6
100
AcDbEntity
  8
GEB-VERDECKT
 48
25.0
100
AcDbVertex
100
AcDb2dVertex
 10
4.034174978733062
 20
-19.06530857085313
 30
0.0
  0
VERTEX
  5
1FD
330
1C6
100
AcDbEntity
  8
GEB-VERDECKT
 48
25.0
100
AcDbVertex
100
AcDb2dVertex
 10
3.529838621616363
 20
-19.16660666464891
 30
0.0
  0
VERTEX
  5
1FE
330
1C6
100
AcDbEntity
  8
GEB-VERDECKT
 48
25.0
100
AcDbVertex
100
AcDb2dVertex
 10
3.023505806922912
 20
-19.25400495528306
 30
0.0
  0
VERTEX
  5
1FF
330
1C6
100
AcDbEntity
  8
GEB-VERDECKT
 48
25.0
100
AcDbVertex
100
AcDb2dVertex
 10
2.517014443874359
 20
-19.32771682738389
 30
0.0
  0
VERTEX
  5
200
330
1C6
100
AcDbEntity
  8
GEB-VERDECKT
 48
25.0
100
AcDbVertex
100
AcDb2dVertex
 10
2.012210041284561
 20
-19.38799023627366
 30
0.0
  0
VERTEX
  5
201
330
1C6
100
AcDbEntity
  8
GEB-VERDECKT
 48
25.0
100
AcDbVertex
100
AcDb2dVertex
 10
1.510938256978988
 20
-19.43507313727464
 30
0.0
  0
VERTEX
  5
202
330
1C6
100
AcDbEntity
  8
GEB-VERDECKT
 48
25.0
100
AcDbVertex
100
AcDb2dVertex
 10
1.015044748783111
 20
-19.46921348570909
 30
0.0
  0
VERTEX
  5
203
330
1C6
100
AcDbEntity
  8
GEB-VERDECKT
 48
25.0
100
AcDbVertex
100
AcDb2dVertex
 10
0.5263748764991761
 20
-19.49066162108507
 30
0.0
  0
VERTEX
  5
204
330
1C6
100
AcDbEntity
  8
GEB-VERDECKT
 48
25.0
100
AcDbVertex
100
AcDb2dVertex
 10
0.0467743119224906
 20
-19.49966311453905
 30
0.0
  0
VERTEX
  5
205
330
1C6
100
AcDbEntity
  8
GEB-VERDECKT
 48
25.0
100
AcDbVertex
100
AcDb2dVertex
 10
-0.4285464808344841
 20
-19.49643254279222
 30
0.0
  0
VERTEX
  5
206
330
1C6
100
AcDbEntity
  8
GEB-VERDECKT
 48
25.0
100
AcDbVertex
100
AcDb2dVertex
 10
-0.9131720662117004
 20
-19.48087334632005
 30
0.0
  0
VERTEX
  5
207
330
1C6
100
AcDbEntity
  8
GEB-VERDECKT
 48
25.0
100
AcDbVertex
100
AcDb2dVertex
 10
-1.405887305736541
 20
-19.45274233817186
 30
0.0
  0
VERTEX
  5
208
330
1C6
100
AcDbEntity
  8
GEB-VERDECKT
 48
25.0
100
AcDbVertex
100
AcDb2dVertex
 10
-1.904848963022232
 20
-19.41179156302537
 30
0.0
  0
VERTEX
  5
209
330
1C6
100
AcDbEntity
  8
GEB-VERDECKT
 48
25.0
100
AcDbVertex
100
AcDb2dVertex
 10
-2.408213764429092
 20
-19.35777425765123
 30
0.0
  0
VERTEX
  5
20A
330
1C6
100
AcDbEntity
  8
GEB-VERDECKT
 48
25.0
100
AcDbVertex
100
AcDb2dVertex
 10
-2.914138436317443
 20
-19.29044604300584
 30
0.0
  0
VERTEX
  5
20B
330
1C6
100
AcDbEntity
  8
GEB-VERDECKT
 48
25.0
100
AcDbVertex
100
AcDb2dVertex
 10
-3.420780003070831
 20
-19.20955896376695
 30
0.0
  0
VERTEX
  5
20C
330
1C6
100
AcDbEntity
  8
GEB-VERDECKT
 48
25.0
100
AcDbVertex
100
AcDb2dVertex
 10
-3.926295042037963
 20
-19.11486625670518
 30
0.0
  0
VERTEX
  5
20D
330
1C6
100
AcDbEntity
  8
GEB-VERDECKT
 48
25.0
100
AcDbVertex
100
AcDb2dVertex
 10
-4.428892135620117
 20
-19.00638461112108
 30
0.0
  0
VERTEX
  5
20E
330
1C6
100
AcDbEntity
  8
GEB-VERDECKT
 48
25.0
100
AcDbVertex
100
AcDb2dVertex
 10
-4.926934242248535
 20
-18.88490080832567
 30
0.0
  0
VERTEX
  5
20F
330
1C6
100
AcDbEntity
  8
GEB-VERDECKT
 48
25.0
100
AcDbVertex
100
AcDb2dVertex
 10
-5.418812036514282
 20
-18.75135064124193
 30
0.0
  0
VERTEX
  5
210
330
1C6
100
AcDbEntity
  8
GEB-VERDECKT
 48
25.0
100
AcDbVertex
100
AcDb2dVertex
 10
-5.902917981147766
 20
-18.60666751860704
 30
0.0
  0
VERTEX
  5
211
330
1C6
100
AcDbEntity
  8
GEB-VERDECKT
 48
25.0
100
AcDbVertex
100
AcDb2dVertex
 10
-6.377641558647155
 20
-18.45178365706529
 30
0.0
  0
VERTEX
  5
212
330
1C6
100
AcDbEntity
  8
GEB-VERDECKT
 48
25.0
100
AcDbVertex
100
AcDb2dVertex
 10
-6.841375827789306
 20
-18.28763365744676
 30
0.0
  0
VERTEX
  5
213
330
1C6
100
AcDbEntity
  8
GEB-VERDECKT
 48
25.0
100
AcDbVertex
100
AcDb2dVertex
 10
-7.292510867118835
 20
-18.11514973639573
 30
0.0
  0
VERTEX
  5
214
330
1C6
100
AcDbEntity
  8
GEB-VERDECKT
 48
25.0
100
AcDbVertex
100
AcDb2dVertex
 10
-7.731403708457946
 20
-17.93444514273729
 30
0.0
  0
VERTEX
  5
215
330
1C6
100
AcDbEntity
  8
GEB-VERDECKT
 48
25.0
100
AcDbVertex
100
AcDb2dVertex
 10
-8.17199170589447
 20
-17.73978114127244
 30
0.0
  0
VERTEX
  5
216
330
1C6
100
AcDbEntity
  8
GEB-VERDECKT
 48
25.0
100
AcDbVertex
100
AcDb2dVertex
 10
-8.615848422050476
 20
-17.5302553176793
 30
0.0
  0
VERTEX
  5
217
330
1C6
100
AcDbEntity
  8
GEB-VERDECKT
 48
25.0
100
AcDbVertex
100
AcDb2dVertex
 10
-9.06117558479309
 20
-17.30634331702318
 30
0.0
  0
VERTEX
  5
218
330
1C6
100
AcDbEntity
  8
GEB-VERDECKT
 48
25.0
100
AcDbVertex
100
AcDb2dVertex
 10
-9.50617492198944
 20
-17.06852078436937
 30
0.0
  0
VERTEX
  5
219
330
1C6
100
AcDbEntity
  8
GEB-VERDECKT
 48
25.0
100
AcDbVertex
100
AcDb2dVertex
 10
-9.949048161506652
 20
-16.81726455687608
 30
0.0
  0
VERTEX
  5
21A
330
1C6
100
AcDbEntity
  8
GEB-VERDECKT
 48
25.0
100
AcDbVertex
100
AcDb2dVertex
 10
-10.3879964351654
 20
-16.55304908751573
 30
0.0
  0
VERTEX
  5
21B
330
1C6
100
AcDbEntity
  8
GEB-VERDECKT
 48
25.0
100
AcDbVertex
100
AcDb2dVertex
 10
-10.82122325897217
 20
-16.27635240553941
 30
0.0
  0
VERTEX
  5
21C
330
1C6
100
AcDbEntity
  8
GEB-VERDECKT
 48
25.0
100
AcDbVertex
100
AcDb2dVertex
 10
-11.24698042869568
 20
-15.98772406577196
 30
0.0
  0
VERTEX
  5
21D
330
1C6
100
AcDbEntity
  8
GEB-VERDECKT
 48
25.0
100
AcDbVertex
100
AcDb2dVertex
 10
-11.66393160820007
 20
-15.68833589552965
 30
0.0
  0
VERTEX
  5
21E
330
1C6
100
AcDbEntity
  8
GEB-VERDECKT
 48
25.0
100
AcDbVertex
100
AcDb2dVertex
 10
-12.07094550132751
 20
-15.37966251372423
 30
0.0
  0
VERTEX
  5
21F
330
1C6
100
AcDbEntity
  8
GEB-VERDECKT
 48
25.0
100
AcDbVertex
100
AcDb2dVertex
 10
-12.46689081192016
 20
-15.06317973136033
 30
0.0
  0
VERTEX
  5
220
330
1C6
100
AcDbEntity
  8
GEB-VERDECKT
 48
25.0
100
AcDbVertex
100
AcDb2dVertex
 10
-12.85063743591308
 20
-14.74036216734971
 30
0.0
  0
VERTEX
  5
221
330
1C6
100
AcDbEntity
  8
GEB-VERDECKT
 48
25.0
100
AcDbVertex
100
AcDb2dVertex
 10
-13.22105407714843
 20
-14.41268920897569
 30
0.0
  0
VERTEX
  5
222
330
1C6
100
AcDbEntity
  8
GEB-VERDECKT
 48
25.0
100
AcDbVertex
100
AcDb2dVertex
 10
-13.57701063156128
 20
-14.08163547515001
 30
0.0
  0
VERTEX
  5
223
330
1C6
100
AcDbEntity
  8
GEB-VERDECKT
 48
25.0
100
AcDbVertex
100
AcDb2dVertex
 10
-13.91746044158935
 20
-13.74859213828172
 30
0.0
  0
VERTEX
  5
224
330
1C6
100
AcDbEntity
  8
GEB-VERDECKT
 48
25.0
100
AcDbVertex
100
AcDb2dVertex
 10
-14.25070643424987
 20
-13.40546250342454
 30
0.0
  0
VERTEX
  5
225
330
1C6
100
AcDbEntity
  8
GEB-VERDECKT
 48
25.0
100
AcDbVertex
100
AcDb2dVertex
 10
-14.58177208900451
 20
-13.04696083067979
 30
0.0
  0
VERTEX
  5
226
330
1C6
100
AcDbEntity
  8
GEB-VERDECKT
 48
25.0
100
AcDbVertex
100
AcDb2dVertex
 10
-14.90917444229126
 20
-12.67421483992662
 30
0.0
  0
VERTEX
  5
227
330
1C6
100
AcDbEntity
  8
GEB-VERDECKT
 48
25.0
100
AcDbVertex
100
AcDb2dVertex
 10
-15.23142695426941
 20
-12.28835463522996
 30
0.0
  0
VERTEX
  5
228
330
1C6
100
AcDbEntity
  8
GEB-VERDECKT
 48
25.0
100
AcDbVertex
100
AcDb2dVertex
 10
-15.54704546928405
 20
-11.89050912856187
 30
0.0
  0
VERTEX
  5
229
330
1C6
100
AcDbEntity
  8
GEB-VERDECKT
 48
25.0
100
AcDbVertex
100
AcDb2dVertex
 10
-15.8545446395874
 20
-11.48180723189439
 30
0.0
  0
VERTEX
  5
22A
330
1C6
100
AcDbEntity
  8
GEB-VERDECKT
 48
25.0
100
AcDbVertex
100
AcDb2dVertex
 10
-16.15244030952453
 20
-11.06337785719957
 30
0.0
  0
VERTEX
  5
22B
330
1C6
100
AcDbEntity
  8
GEB-VERDECKT
 48
25.0
100
AcDbVertex
100
AcDb2dVertex
 10
-16.4392614364624
 20
-10.63635826109971
 30
0.0
  0
VERTEX
  5
22C
330
1C6
100
AcDbEntity
  8
GEB-VERDECKT
 48
25.0
100
AcDbVertex
100
AcDb2dVertex
 10
-16.71398162841797
 20
-10.20218729971971
 30
0.0
  0
VERTEX
  5
22D
330
1C6
100
AcDbEntity
  8
GEB-VERDECKT
 48
25.0
100
AcDbVertex
100
AcDb2dVertex
 10
-16.97609186172485
 20
-9.762644767752547
 30
0.0
  0
VERTEX
  5
22E
330
1C6
100
AcDbEntity
  8
GEB-VERDECKT
 48
25.0
100
AcDbVertex
100
AcDb2dVertex
 10
-17.22510933876037
 20
-9.31953132151689
 30
0.0
  0
VERTEX
  5
22F
330
1C6
100
AcDbEntity
  8
GEB-VERDECKT
 48
25.0
100
AcDbVertex
100
AcDb2dVertex
 10
-17.46055245399475
 20
-8.874647021284957
 30
0.0
  0
VERTEX
  5
230
330
1C6
100
AcDbEntity
  8
GEB-VERDECKT
 48
25.0
100
AcDbVertex
100
AcDb2dVertex
 10
-17.6819372177124
 20
-8.429792523375411
 30
0.0
  0
VERTEX
  5
231
330
1C6
100
AcDbEntity
  8
GEB-VERDECKT
 48
25.0
100
AcDbVertex
100
AcDb2dVertex
 10
-17.88878440856933
 20
-7.986769080153365
 30
0.0
  0
VERTEX
  5
232
330
1C6
100
AcDbEntity
  8
GEB-VERDECKT
 48
25.0
100
AcDbVertex
100
AcDb2dVertex
 10
-18.08061122894287
 20
-7.54737555979814
 30
0.0
  0
VERTEX
  5
233
330
1C6
100
AcDbEntity
  8
GEB-VERDECKT
 48
25.0
100
AcDbVertex
100
AcDb2dVertex
 10
-18.25960516929626
 20
-7.106873393050094
 30
0.0
  0
VERTEX
  5
234
330
1C6
100
AcDbEntity
  8
GEB-VERDECKT
 48
25.0
100
AcDbVertex
100
AcDb2dVertex
 10
-18.43076586723327
 20
-6.652940511694808
 30
0.0
  0
VERTEX
  5
235
330
1C6
100
AcDbEntity
  8
GEB-VERDECKT
 48
25.0
100
AcDbVertex
100
AcDb2dVertex
 10
-18.59334468841552
 20
-6.186726093283553
 30
0.0
  0
VERTEX
  5
236
330
1C6
100
AcDbEntity
  8
GEB-VERDECKT
 48
25.0
100
AcDbVertex
100
AcDb2dVertex
 10
-18.74639749526977
 20
-5.709846615782637
 30
0.0
  0
VERTEX
  5
237
330
1C6
100
AcDbEntity
  8
GEB-VERDECKT
 48
25.0
100
AcDbVertex
100
AcDb2dVertex
 10
-18.88898253440857
 20
-5.223920345297713
 30
0.0
  0
VERTEX
  5
238
330
1C6
100
AcDbEntity
  8
GEB-VERDECKT
 48
25.0
100
AcDbVertex
100
AcDb2dVertex
 10
-19.02015566825866
 20
-4.730563759795089
 30
0.0
  0
VERTEX
  5
239
330
1C6
100
AcDbEntity
  8
GEB-VERDECKT
 48
25.0
100
AcDbVertex
100
AcDb2dVertex
 10
-19.13897275924682
 20
-4.231394827357192
 30
0.0
  0
VERTEX
  5
23A
330
1C6
100
AcDbEntity
  8
GEB-VERDECKT
 48
25.0
100
AcDbVertex
100
AcDb2dVertex
 10
-19.24449205398559
 20
-3.728030621996779
 30
0.0
  0
VERTEX
  5
23B
330
1C6
100
AcDbEntity
  8
GEB-VERDECKT
 48
25.0
100
AcDbVertex
100
AcDb2dVertex
 10
-19.33606386184692
 20
-3.222147524348159
 30
0.0
  0
VERTEX
  5
23C
330
1C6
100
AcDbEntity
  8
GEB-VERDECKT
 48
25.0
100
AcDbVertex
100
AcDb2dVertex
 10
-19.41381096839904
 20
-2.715575098982711
 30
0.0
  0
VERTEX
  5
23D
330
1C6
100
AcDbEntity
  8
GEB-VERDECKT
 48
25.0
100
AcDbVertex
100
AcDb2dVertex
 10
-19.47798252105713
 20
-2.210168689480681
 30
0.0
  0
VERTEX
  5
23E
330
1C6
100
AcDbEntity
  8
GEB-VERDECKT
 48
25.0
100
AcDbVertex
100
AcDb2dVertex
 10
-19.52882647514343
 20
-1.707782745352645
 30
0.0
  0
VERTEX
  5
23F
330
1C6
100
AcDbEntity
  8
GEB-VERDECKT
 48
25.0
100
AcDbVertex
100
AcDb2dVertex
 10
-19.56658959388733
 20
-1.210272461167235
 30
0.0
  0
VERTEX
  5
240
330
1C6
100
AcDbEntity
  8
GEB-VERDECKT
 48
25.0
100
AcDbVertex
100
AcDb2dVertex
 10
-19.59151983261108
 20
-0.7194926589640574
 30
0.0
  0
VERTEX
  5
241
330
1C6
100
AcDbEntity
  8
GEB-VERDECKT
 48
25.0
100
AcDbVertex
100
AcDb2dVertex
 10
-19.60386633872986
 20
-0.2372981049033598
 30
0.0
  0
VERTEX
  5
242
330
1C6
100
AcDbEntity
  8
GEB-VERDECKT
 48
25.0
100
AcDbVertex
100
AcDb2dVertex
 10
-19.60386633872986
 20
0.2372981049207254
 30
0.0
  0
VERTEX
  5
243
330
1C6
100
AcDbEntity
  8
GEB-VERDECKT
 48
25.0
100
AcDbVertex
100
AcDb2dVertex
 10
-19.59151983261108
 20
0.719492658981423
 30
0.0
  0
VERTEX
  5
244
330
1C6
100
AcDbEntity
  8
GEB-VERDECKT
 48
25.0
100
AcDbVertex
100
AcDb2dVertex
 10
-19.56658959388733
 20
1.210272461184601
 30
0.0
  0
VERTEX
  5
245
330
1C6
100
AcDbEntity
  8
GEB-VERDECKT
 48
25.0
100
AcDbVertex
100
AcDb2dVertex
 10
-19.52882647514343
 20
1.70778274537001
 30
0.0
  0
VERTEX
  5
246
330
1C6
100
AcDbEntity
  8
GEB-VERDECKT
 48
25.0
100
AcDbVertex
100
AcDb2dVertex
 10
-19.47798252105713
 20
2.210168689498047
 30
0.0
  0
VERTEX
  5
247
330
1C6
100
AcDbEntity
  8
GEB-VERDECKT
 48
25.0
100
AcDbVertex
100
AcDb2dVertex
 10
-19.41381096839904
 20
2.715575099000076
 30
0.0
  0
VERTEX
  5
248
330
1C6
100
AcDbEntity
  8
GEB-VERDECKT
 48
25.0
100
AcDbVertex
100
AcDb2dVertex
 10
-19.33606386184692
 20
3.222147524365524
 30
0.0
  0
VERTEX
  5
249
330
1C6
100
AcDbEntity
  8
GEB-VERDECKT
 48
25.0
100
AcDbVertex
100
AcDb2dVertex
 10
-19.24449205398559
 20
3.728030622014145
 30
0.0
  0
VERTEX
  5
24A
330
1C6
100
AcDbEntity
  8
GEB-VERDECKT
 48
25.0
100
AcDbVertex
100
AcDb2dVertex
 10
-19.13897275924682
 20
4.231394827374558
 30
0.0
  0
VERTEX
  5
24B
330
1C6
100
AcDbEntity
  8
GEB-VERDECKT
 48
25.0
100
AcDbVertex
100
AcDb2dVertex
 10
-19.02015566825866
 20
4.730563759812454
 30
0.0
  0
VERTEX
  5
24C
330
1C6
100
AcDbEntity
  8
GEB-VERDECKT
 48
25.0
100
AcDbVertex
100
AcDb2dVertex
 10
-18.88898253440857
 20
5.223920345315079
 30
0.0
  0
VERTEX
  5
24D
330
1C6
100
AcDbEntity
  8
GEB-VERDECKT
 48
25.0
100
AcDbVertex
100
AcDb2dVertex
 10
-18.74639749526977
 20
5.709846615800003
 30
0.0
  0
VERTEX
  5
24E
330
1C6
100
AcDbEntity
  8
GEB-VERDECKT
 48
25.0
100
AcDbVertex
100
AcDb2dVertex
 10
-18.59334468841552
 20
6.186726093300919
 30
0.0
  0
VERTEX
  5
24F
330
1C6
100
AcDbEntity
  8
GEB-VERDECKT
 48
25.0
100
AcDbVertex
100
AcDb2dVertex
 10
-18.43076586723327
 20
6.652940511712174
 30
0.0
  0
VERTEX
  5
250
330
1C6
100
AcDbEntity
  8
GEB-VERDECKT
 48
25.0
100
AcDbVertex
100
AcDb2dVertex
 10
-18.25960516929626
 20
7.106873393067473
 30
0.0
  0
VERTEX
  5
251
330
1C6
100
AcDbEntity
  8
GEB-VERDECKT
 48
25.0
100
AcDbVertex
100
AcDb2dVertex
 10
-18.08061122894287
 20
7.54737555981552
 30
0.0
  0
VERTEX
  5
252
330
1C6
100
AcDbEntity
  8
GEB-VERDECKT
 48
25.0
100
AcDbVertex
100
AcDb2dVertex
 10
-17.88878440856933
 20
7.986769080170745
 30
0.0
  0
VERTEX
  5
253
330
1C6
100
AcDbEntity
  8
GEB-VERDECKT
 48
25.0
100
AcDbVertex
100
AcDb2dVertex
 10
-17.6819372177124
 20
8.429792523392791
 30
0.0
  0
VERTEX
  5
254
330
1C6
100
AcDbEntity
  8
GEB-VERDECKT
 48
25.0
100
AcDbVertex
100
AcDb2dVertex
 10
-17.46055245399475
 20
8.874647021302337
 30
0.0
  0
VERTEX
  5
255
330
1C6
100
AcDbEntity
  8
GEB-VERDECKT
 48
25.0
100
AcDbVertex
100
AcDb2dVertex
 10
-17.22510933876037
 20
9.31953132153427
 30
0.0
  0
VERTEX
  5
256
330
1C6
100
AcDbEntity
  8
GEB-VERDECKT
 48
25.0
100
AcDbVertex
100
AcDb2dVertex
 10
-16.97609186172485
 20
9.762644767769927
 30
0.0
  0
VERTEX
  5
257
330
1C6
100
AcDbEntity
  8
GEB-VERDECKT
 48
25.0
100
AcDbVertex
100
AcDb2dVertex
 10
-16.71398162841797
 20
10.20218729973709
 30
0.0
  0
VERTEX
  5
258
330
1C6
100
AcDbEntity
  8
GEB-VERDECKT
 48
25.0
100
AcDbVertex
100
AcDb2dVertex
 10
-16.4392614364624
 20
10.63635826111709
 30
0.0
  0
VERTEX
  5
259
330
1C6
100
AcDbEntity
  8
GEB-VERDECKT
 48
25.0
100
AcDbVertex
100
AcDb2dVertex
 10
-16.15244030952453
 20
11.06337785721695
 30
0.0
  0
VERTEX
  5
25A
330
1C6
100
AcDbEntity
  8
GEB-VERDECKT
 48
25.0
100
AcDbVertex
100
AcDb2dVertex
 10
-15.8545446395874
 20
11.48180723191177
 30
0.0
  0
VERTEX
  5
25B
330
1C6
100
AcDbEntity
  8
GEB-VERDECKT
 48
25.0
100
AcDbVertex
100
AcDb2dVertex
 10
-15.54704546928405
 20
11.89050912857925
 30
0.0
  0
VERTEX
  5
25C
330
1C6
100
AcDbEntity
  8
GEB-VERDECKT
 48
25.0
100
AcDbVertex
100
AcDb2dVertex
 10
-15.23142695426941
 20
12.28835463524734
 30
0.0
  0
VERTEX
  5
25D
330
1C6
100
AcDbEntity
  8
GEB-VERDECKT
 48
25.0
100
AcDbVertex
100
AcDb2dVertex
 10
-14.90917444229126
 20
12.674214839944
 30
0.0
  0
VERTEX
  5
25E
330
1C6
100
AcDbEntity
  8
GEB-VERDECKT
 48
25.0
100
AcDbVertex
100
AcDb2dVertex
 10
-14.58177208900451
 20
13.04696083069717
 30
0.0
  0
VERTEX
  5
25F
330
1C6
100
AcDbEntity
  8
GEB-VERDECKT
 48
25.0
100
AcDbVertex
100
AcDb2dVertex
 10
-14.25070643424987
 20
13.40546250344192
 30
0.0
  0
VERTEX
  5
260
330
1C6
100
AcDbEntity
  8
GEB-VERDECKT
 48
25.0
100
AcDbVertex
100
AcDb2dVertex
 10
-13.91746044158935
 20
13.7485921382991
 30
0.0
  0
VERTEX
  5
261
330
1C6
100
AcDbEntity
  8
GEB-VERDECKT
 48
25.0
100
AcDbVertex
100
AcDb2dVertex
 10
-13.57701063156128
 20
14.08163547516739
 30
0.0
  0
VERTEX
  5
262
330
1C6
100
AcDbEntity
  8
GEB-VERDECKT
 48
25.0
100
AcDbVertex
100
AcDb2dVertex
 10
-13.22105407714843
 20
14.41268920899307
 30
0.0
  0
VERTEX
  5
263
330
1C6
100
AcDbEntity
  8
GEB-VERDECKT
 48
25.0
100
AcDbVertex
100
AcDb2dVertex
 10
-12.85063743591308
 20
14.74036216736709
 30
0.0
  0
VERTEX
  5
264
330
1C6
100
AcDbEntity
  8
GEB-VERDECKT
 48
25.0
100
AcDbVertex
100
AcDb2dVertex
 10
-12.46689081192016
 20
15.06317973137771
 30
0.0
  0
VERTEX
  5
265
330
1C6
100
AcDbEntity
  8
GEB-VERDECKT
 48
25.0
100
AcDbVertex
100
AcDb2dVertex
 10
-12.07094550132751
 20
15.3796625137416
 30
0.0
  0
VERTEX
  5
266
330
1C6
100
AcDbEntity
  8
GEB-VERDECKT
 48
25.0
100
AcDbVertex
100
AcDb2dVertex
 10
-11.66393160820007
 20
15.68833589554702
 30
0.0
  0
VERTEX
  5
267
330
1C6
100
AcDbEntity
  8
GEB-VERDECKT
 48
25.0
100
AcDbVertex
100
AcDb2dVertex
 10
-11.24698042869568
 20
15.98772406578933
 30
0.0
  0
VERTEX
  5
268
330
1C6
100
AcDbEntity
  8
GEB-VERDECKT
 48
25.0
100
AcDbVertex
100
AcDb2dVertex
 10
-10.82122325897217
 20
16.27635240555679
 30
0.0
  0
VERTEX
  5
269
330
1C6
100
AcDbEntity
  8
GEB-VERDECKT
 48
25.0
100
AcDbVertex
100
AcDb2dVertex
 10
-10.3879964351654
 20
16.55304908753311
 30
0.0
  0
VERTEX
  5
26A
330
1C6
100
AcDbEntity
  8
GEB-VERDECKT
 48
25.0
100
AcDbVertex
100
AcDb2dVertex
 10
-9.949048161506652
 20
16.81726455689346
 30
0.0
  0
VERTEX
  5
26B
330
1C6
100
AcDbEntity
  8
GEB-VERDECKT
 48
25.0
100
AcDbVertex
100
AcDb2dVertex
 10
-9.50617492198944
 20
17.06852078438675
 30
0.0
  0
VERTEX
  5
26C
330
1C6
100
AcDbEntity
  8
GEB-VERDECKT
 48
25.0
100
AcDbVertex
100
AcDb2dVertex
 10
-9.06117558479309
 20
17.30634331704056
 30
0.0
  0
VERTEX
  5
26D
330
1C6
100
AcDbEntity
  8
GEB-VERDECKT
 48
25.0
100
AcDbVertex
100
AcDb2dVertex
 10
-8.615848422050476
 20
17.53025531769668
 30
0.0
  0
VERTEX
  5
26E
330
1C6
100
AcDbEntity
  8
GEB-VERDECKT
 48
25.0
100
AcDbVertex
100
AcDb2dVertex
 10
-8.17199170589447
 20
17.73978114128982
 30
0.0
  0
VERTEX
  5
26F
330
1C6
100
AcDbEntity
  8
GEB-VERDECKT
 48
25.0
100
AcDbVertex
100
AcDb2dVertex
 10
-7.731403708457946
 20
17.93444514275467
 30
0.0
  0
VERTEX
  5
270
330
1C6
100
AcDbEntity
  8
GEB-VERDECKT
 48
25.0
100
AcDbVertex
100
AcDb2dVertex
 10
-7.292510867118835
 20
18.11514973641311
 30
0.0
  0
VERTEX
  5
271
330
1C6
100
AcDbEntity
  8
GEB-VERDECKT
 48
25.0
100
AcDbVertex
100
AcDb2dVertex
 10
-6.841375827789306
 20
18.28763365746414
 30
0.0
  0
VERTEX
  5
272
330
1C6
100
AcDbEntity
  8
GEB-VERDECKT
 48
25.0
100
AcDbVertex
100
AcDb2dVertex
 10
-6.377641558647155
 20
18.45178365708267
 30
0.0
  0
VERTEX
  5
273
330
1C6
100
AcDbEntity
  8
GEB-VERDECKT
 48
25.0
100
AcDbVertex
100
AcDb2dVertex
 10
-5.902917981147766
 20
18.60666751862442
 30
0.0
  0
VERTEX
  5
274
330
1C6
100
AcDbEntity
  8
GEB-VERDECKT
 48
25.0
100
AcDbVertex
100
AcDb2dVertex
 10
-5.418812036514282
 20
18.75135064125931
 30
0.0
  0
VERTEX
  5
275
330
1C6
100
AcDbEntity
  8
GEB-VERDECKT
 48
25.0
100
AcDbVertex
100
AcDb2dVertex
 10
-4.926934242248535
 20
18.88490080834305
 30
0.0
  0
VERTEX
  5
276
330
1C6
100
AcDbEntity
  8
GEB-VERDECKT
 48
25.0
100
AcDbVertex
100
AcDb2dVertex
 10
-4.428892135620117
 20
19.00638461113846
 30
0.0
  0
VERTEX
  5
277
330
1C6
100
AcDbEntity
  8
GEB-VERDECKT
 48
25.0
100
AcDbVertex
100
AcDb2dVertex
 10
-3.926295042037963
 20
19.11486625672256
 30
0.0
  0
VERTEX
  5
278
330
1C6
100
AcDbEntity
  8
GEB-VERDECKT
 48
25.0
100
AcDbVertex
100
AcDb2dVertex
 10
-3.420780003070831
 20
19.20955896378433
 30
0.0
  0
VERTEX
  5
279
330
1C6
100
AcDbEntity
  8
GEB-VERDECKT
 48
25.0
100
AcDbVertex
100
AcDb2dVertex
 10
-2.914138436317443
 20
19.29044604302322
 30
0.0
  0
VERTEX
  5
27A
330
1C6
100
AcDbEntity
  8
GEB-VERDECKT
 48
25.0
100
AcDbVertex
100
AcDb2dVertex
 10
-2.408213764429092
 20
19.35777425766861
 30
0.0
  0
VERTEX
  5
27B
330
1C6
100
AcDbEntity
  8
GEB-VERDECKT
 48
25.0
100
AcDbVertex
100
AcDb2dVertex
 10
-1.904848963022232
 20
19.41179156304275
 30
0.0
  0
VERTEX
  5
27C
330
1C6
100
AcDbEntity
  8
GEB-VERDECKT
 48
25.0
100
AcDbVertex
100
AcDb2dVertex
 10
-1.405887305736541
 20
19.45274233818924
 30
0.0
  0
VERTEX
  5
27D
330
1C6
100
AcDbEntity
  8
GEB-VERDECKT
 48
25.0
100
AcDbVertex
100
AcDb2dVertex
 10
-0.9131720662117004
 20
19.48087334633743
 30
0.0
  0
VERTEX
  5
27E
330
1C6
100
AcDbEntity
  8
GEB-VERDECKT
 48
25.0
100
AcDbVertex
100
AcDb2dVertex
 10
-0.4285464808344841
 20
19.4964325428096
 30
0.0
  0
VERTEX
  5
27F
330
1C6
100
AcDbEntity
  8
GEB-VERDECKT
 48
25.0
100
AcDbVertex
100
AcDb2dVertex
 10
0.0467743119224906
 20
19.49966311455643
 30
0.0
  0
VERTEX
  5
280
330
1C6
100
AcDbEntity
  8
GEB-VERDECKT
 48
25.0
100
AcDbVertex
100
AcDb2dVertex
 10
0.5263748764991761
 20
19.49066162110245
 30
0.0
  0
VERTEX
  5
281
330
1C6
100
AcDbEntity
  8
GEB-VERDECKT
 48
25.0
100
AcDbVertex
100
AcDb2dVertex
 10
1.015044748783111
 20
19.46921348572647
 30
0.0
  0
VERTEX
  5
282
330
1C6
100
AcDbEntity
  8
GEB-VERDECKT
 48
25.0
100
AcDbVertex
100
AcDb2dVertex
 10
1.510938256978988
 20
19.43507313729202
 30
0.0
  0
VERTEX
  5
283
330
1C6
100
AcDbEntity
  8
GEB-VERDECKT
 48
25.0
100
AcDbVertex
100
AcDb2dVertex
 10
2.012210041284561
 20
19.38799023629104
 30
0.0
  0
VERTEX
  5
284
330
1C6
100
AcDbEntity
  8
GEB-VERDECKT
 48
25.0
100
AcDbVertex
100
AcDb2dVertex
 10
2.517014443874359
 20
19.32771682740127
 30
0.0
  0
VERTEX
  5
285
330
1C6
100
AcDbEntity
  8
GEB-VERDECKT
 48
25.0
100
AcDbVertex
100
AcDb2dVertex
 10
3.023505806922912
 20
19.25400495530044
 30
0.0
  0
VERTEX
  5
286
330
1C6
100
AcDbEntity
  8
GEB-VERDECKT
 48
25.0
100
AcDbVertex
100
AcDb2dVertex
 10
3.529838621616363
 20
19.16660666466629
 30
0.0
  0
VERTEX
  5
287
330
1C6
100
AcDbEntity
  8
GEB-VERDECKT
 48
25.0
100
AcDbVertex
100
AcDb2dVertex
 10
4.034174978733062
 20
19.06530857087051
 30
0.0
  0
VERTEX
  5
288
330
1C6
100
AcDbEntity
  8
GEB-VERDECKT
 48
25.0
100
AcDbVertex
100
AcDb2dVertex
 10
4.53479915857315
 20
18.95051956177627
 30
0.0
  0
VERTEX
  5
289
330
1C6
100
AcDbEntity
  8
GEB-VERDECKT
 48
25.0
100
AcDbVertex
100
AcDb2dVertex
 10
5.030097961425781
 20
18.82315635682022
 30
0.0
  0
VERTEX
  5
28A
330
1C6
100
AcDbEntity
  8
GEB-VERDECKT
 48
25.0
100
AcDbVertex
100
AcDb2dVertex
 10
5.518459677696228
 20
18.68415236473953
 30
0.0
  0
VERTEX
  5
28B
330
1C6
100
AcDbEntity
  8
GEB-VERDECKT
 48
25.0
100
AcDbVertex
100
AcDb2dVertex
 10
5.998275279998779
 20
18.53444337845718
 30
0.0
  0
VERTEX
  5
28C
330
1C6
100
AcDbEntity
  8
GEB-VERDECKT
 48
25.0
100
AcDbVertex
100
AcDb2dVertex
 10
6.467933058738708
 20
18.37496042252456
 30
0.0
  0
VERTEX
  5
28D
330
1C6
100
AcDbEntity
  8
GEB-VERDECKT
 48
25.0
100
AcDbVertex
100
AcDb2dVertex
 10
6.925823092460632
 20
18.20663809777176
 30
0.0
  0
VERTEX
  5
28E
330
1C6
100
AcDbEntity
  8
GEB-VERDECKT
 48
25.0
100
AcDbVertex
100
AcDb2dVertex
 10
7.370334267616271
 20
18.03041100502884
 30
0.0
  0
VERTEX
  5
28F
330
1C6
100
AcDbEntity
  8
GEB-VERDECKT
 48
25.0
100
AcDbVertex
100
AcDb2dVertex
 10
7.80854046344757
 20
17.8435480594722
 30
0.0
  0
VERTEX
  5
290
330
1C6
100
AcDbEntity
  8
GEB-VERDECKT
 48
25.0
100
AcDbVertex
100
AcDb2dVertex
 10
8.250865340232849
 20
17.64158129692947
 30
0.0
  0
VERTEX
  5
291
330
1C6
100
AcDbEntity
  8
GEB-VERDECKT
 48
25.0
100
AcDbVertex
100
AcDb2dVertex
 10
8.695589303970336
 20
17.424951791772
 30
0.0
  0
VERTEX
  5
292
330
1C6
100
AcDbEntity
  8
GEB-VERDECKT
 48
25.0
100
AcDbVertex
100
AcDb2dVertex
 10
9.140907526016235
 20
17.19413876534378
 30
0.0
  0
VERTEX
  5
293
330
1C6
100
AcDbEntity
  8
GEB-VERDECKT
 48
25.0
100
AcDbVertex
100
AcDb2dVertex
 10
9.585017561912536
 20
16.94961905480301
 30
0.0
  0
VERTEX
  5
294
330
1C6
100
AcDbEntity
  8
GEB-VERDECKT
 48
25.0
100
AcDbVertex
100
AcDb2dVertex
 10
10.02611637115478
 20
16.69186830521499
 30
0.0
  0
VERTEX
  5
295
330
1C6
100
AcDbEntity
  8
GEB-VERDECKT
 48
25.0
100
AcDbVertex
100
AcDb2dVertex
 10
10.46239852905273
 20
16.42136693001663
 30
0.0
  0
VERTEX
  5
296
330
1C6
100
AcDbEntity
  8
GEB-VERDECKT
 48
25.0
100
AcDbVertex
100
AcDb2dVertex
 10
10.89206457138061
 20
16.13859176636612
 30
0.0
  0
VERTEX
  5
297
330
1C6
100
AcDbEntity
  8
GEB-VERDECKT
 48
25.0
100
AcDbVertex
100
AcDb2dVertex
 10
11.31352663040161
 20
15.84434509278213
 30
0.0
  0
VERTEX
  5
298
330
1C6
100
AcDbEntity
  8
GEB-VERDECKT
 48
25.0
100
AcDbVertex
100
AcDb2dVertex
 10
11.72560453414917
 20
15.54003715516006
 30
0.0
  0
VERTEX
  5
299
330
1C6
100
AcDbEntity
  8
GEB-VERDECKT
 48
25.0
100
AcDbVertex
100
AcDb2dVertex
 10
12.12716579437256
 20
15.22715210915481
 30
0.0
  0
VERTEX
  5
29A
330
1C6
100
AcDbEntity
  8
GEB-VERDECKT
 48
25.0
100
AcDbVertex
100
AcDb2dVertex
 10
12.51707911491394
 20
14.90716934204971
 30
0.0
  0
VERTEX
  5
29B
330
1C6
100
AcDbEntity
  8
GEB-VERDECKT
 48
25.0
100
AcDbVertex
100
AcDb2dVertex
 10
12.89420962333679
 20
14.58157181740677
 30
0.0
  0
VERTEX
  5
29C
330
1C6
100
AcDbEntity
  8
GEB-VERDECKT
 48
25.0
100
AcDbVertex
100
AcDb2dVertex
 10
13.25742721557617
 20
14.2518413066951
 30
0.0
  0
VERTEX
  5
29D
330
1C6
100
AcDbEntity
  8
GEB-VERDECKT
 48
25.0
100
AcDbVertex
100
AcDb2dVertex
 10
13.60559821128845
 20
13.91945838929092
 30
0.0
  0
VERTEX
  5
29E
330
1C6
100
AcDbEntity
  8
GEB-VERDECKT
 48
25.0
100
AcDbVertex
100
AcDb2dVertex
 10
13.94046783447265
 20
13.58300328255569
 30
0.0
  0
VERTEX
  5
29F
330
1C6
100
AcDbEntity
  8
GEB-VERDECKT
 48
25.0
100
AcDbVertex
100
AcDb2dVertex
 10
14.2725932598114
 20
13.23186993599807
 30
0.0
  0
VERTEX
  5
2A0
330
1C6
100
AcDbEntity
  8
GEB-VERDECKT
 48
25.0
100
AcDbVertex
100
AcDb2dVertex
 10
14.60177779197693
 20
12.86591053009903
 30
0.0
  0
VERTEX
  5
2A1
330
1C6
100
AcDbEntity
  8
GEB-VERDECKT
 48
25.0
100
AcDbVertex
100
AcDb2dVertex
 10
14.92653608322143
 20
12.48625874520218
 30
0.0
  0
VERTEX
  5
2A2
330
1C6
100
AcDbEntity
  8
GEB-VERDECKT
 48
25.0
100
AcDbVertex
100
AcDb2dVertex
 10
15.24538397789001
 20
12.09404468537246
 30
0.0
  0
VERTEX
  5
2A3
330
1C6
100
AcDbEntity
  8
GEB-VERDECKT
 48
25.0
100
AcDbVertex
100
AcDb2dVertex
 10
15.55683612823486
 20
11.69040203095352
 30
0.0
  0
VERTEX
  5
2A4
330
1C6
100
AcDbEntity
  8
GEB-VERDECKT
 48
25.0
100
AcDbVertex
100
AcDb2dVertex
 10
15.85940718650818
 20
11.27646446228897
 30
0.0
  0
VERTEX
  5
2A5
330
1C6
100
AcDbEntity
  8
GEB-VERDECKT
 48
25.0
100
AcDbVertex
100
AcDb2dVertex
 10
16.15161180496215
 20
10.85336327553665
 30
0.0
  0
VERTEX
  5
2A6
330
1C6
100
AcDbEntity
  8
GEB-VERDECKT
 48
25.0
100
AcDbVertex
100
AcDb2dVertex
 10
16.43210768699646
 20
10.42232632637893
 30
0.0
  0
VERTEX
  5
2A7
330
1C6
100
AcDbEntity
  8
GEB-VERDECKT
 48
25.0
100
AcDbVertex
100
AcDb2dVertex
 10
16.70022249221801
 20
9.985029101380462
 30
0.0
  0
VERTEX
  5
2A8
330
1C6
100
AcDbEntity
  8
GEB-VERDECKT
 48
25.0
100
AcDbVertex
100
AcDb2dVertex
 10
16.95547342300415
 20
9.543275833138579
 30
0.0
  0
VERTEX
  5
2A9
330
1C6
100
AcDbEntity
  8
GEB-VERDECKT
 48
25.0
100
AcDbVertex
100
AcDb2dVertex
 10
17.19738364219665
 20
9.098871350297088
 30
0.0
  0
VERTEX
  5
2AA
330
1C6
100
AcDbEntity
  8
GEB-VERDECKT
 48
25.0
100
AcDbVertex
100
AcDb2dVertex
 10
17.42547273635864
 20
8.653619885453338
 30
0.0
  0
VERTEX
  5
2AB
330
1C6
100
AcDbEntity
  8
GEB-VERDECKT
 48
25.0
100
AcDbVertex
100
AcDb2dVertex
 10
17.63926148414611
 20
8.209326267251128
 30
0.0
  0
VERTEX
  5
2AC
330
1C6
100
AcDbEntity
  8
GEB-VERDECKT
 48
25.0
100
AcDbVertex
100
AcDb2dVertex
 10
17.83826947212219
 20
7.767795920380706
 30
0.0
  0
VERTEX
  5
2AD
330
1C6
100
AcDbEntity
  8
GEB-VERDECKT
 48
25.0
100
AcDbVertex
100
AcDb2dVertex
 10
18.02240014076233
 20
7.329904437073821
 30
0.0
  0
VERTEX
  5
2AE
330
1C6
100
AcDbEntity
  8
GEB-VERDECKT
 48
25.0
100
AcDbVertex
100
AcDb2dVertex
 10
18.1971800327301
 20
6.88250362873947
 30
0.0
  0
VERTEX
  5
2AF
330
1C6
100
AcDbEntity
  8
GEB-VERDECKT
 48
25.0
100
AcDbVertex
100
AcDb2dVertex
 10
18.36384654045105
 20
6.422038674363236
 30
0.0
  0
VERTEX
  5
2B0
330
1C6
100
AcDbEntity
  8
GEB-VERDECKT
 48
25.0
100
AcDbVertex
100
AcDb2dVertex
 10
18.52146029472351
 20
5.950124859818558
 30
0.0
  0
VERTEX
  5
2B1
330
1C6
100
AcDbEntity
  8
GEB-VERDECKT
 48
25.0
100
AcDbVertex
100
AcDb2dVertex
 10
18.66908192634582
 20
5.468378663071732
 30
0.0
  0
VERTEX
  5
2B2
330
1C6
100
AcDbEntity
  8
GEB-VERDECKT
 48
25.0
100
AcDbVertex
100
AcDb2dVertex
 10
18.80577206611633
 20
4.978415966042618
 30
0.0
  0
VERTEX
  5
2B3
330
1C6
100
AcDbEntity
  8
GEB-VERDECKT
 48
25.0
100
AcDbVertex
100
AcDb2dVertex
 10
18.93059253692627
 20
4.481852650651077
 30
0.0
  0
VERTEX
  5
2B4
330
1C6
100
AcDbEntity
  8
GEB-VERDECKT
 48
25.0
100
AcDbVertex
100
AcDb2dVertex
 10
19.04260396957397
 20
3.980304300793747
 30
0.0
  0
VERTEX
  5
2B5
330
1C6
100
AcDbEntity
  8
GEB-VERDECKT
 48
25.0
100
AcDbVertex
100
AcDb2dVertex
 10
19.14092302322387
 20
3.475398123272995
 30
0.0
  0
VERTEX
  5
2B6
330
1C6
100
AcDbEntity
  8
GEB-VERDECKT
 48
25.0
100
AcDbVertex
100
AcDb2dVertex
 10
19.22533392906189
 20
2.968893945225815
 30
0.0
  0
VERTEX
  5
2B7
330
1C6
100
AcDbEntity
  8
GEB-VERDECKT
 48
25.0
100
AcDbVertex
100
AcDb2dVertex
 10
19.2960774898529
 20
2.46264234186087
 30
0.0
  0
VERTEX
  5
2B8
330
1C6
100
AcDbEntity
  8
GEB-VERDECKT
 48
25.0
100
AcDbVertex
100
AcDb2dVertex
 10
19.35340166091919
 20
1.958495527514557
 30
0.0
  0
VERTEX
  5
2B9
330
1C6
100
AcDbEntity
  8
GEB-VERDECKT
 48
25.0
100
AcDbVertex
100
AcDb2dVertex
 10
19.397554397583
 20
1.45830571652327
 30
0.0
  0
VERTEX
  5
2BA
330
1C6
100
AcDbEntity
  8
GEB-VERDECKT
 48
25.0
100
AcDbVertex
100
AcDb2dVertex
 10
19.42878484725952
 20
0.9639250487175985
 30
0.0
  0
VERTEX
  5
2BB
330
1C6
100
AcDbEntity
  8
GEB-VERDECKT
 48
25.0
100
AcDbVertex
100
AcDb2dVertex
 10
19.44734096527099
 20
0.4772057384339377
 30
0.0
  0
VERTEX
  5
2BC
330
1C6
100
AcDbEntity
  8
GEB-VERDECKT
 48
25.0
100
AcDbVertex
100
AcDb2dVertex
 10
19.45347189903259
 20
0.0000000000086828
 30
0.0
  0
SEQEND
  5
2BD
330
1C6
100
AcDbEntity
  8
GEB-VERDECKT
 48
25.0
  0
TEXT
  5
2BE
330
2
100
AcDbEntity
  8
GEB-TEXT
100
AcDbText
 10
-50.35300136425664
 20
-39.65000000000001
 30
0.0
 40
3.5
  1
BOGEN EST 90G D42
 72
     1
 11
-25.62500000000017
 21
-39.65000000000001
 31
0.0
100
AcDbText
  0
TEXT
  5
2C0
330
2
100
AcDbEntity
  8
GEB-TEXT
100
AcDbText
 10
-43.69560027285146
 20
-34.15000000000001
 30
0.0
 40
3.5
  1
Geberit Mapress
 72
     1
 11
-25.62500000000017
 21
-34.15000000000001
 31
0.0
100
AcDbText
  0
TEXT
  5
2C1
330
2
100
AcDbEntity
  8
GEB-ART-NR
100
AcDbText
 10
-46.77517209182389
 20
-45.99278125428023
 30
0.0
 40
3.5
  1
GEB-ART-NR 31107
 72
     1
 11
-24.08605203725364
 21
-45.99278125428023
 31
0.0
100
AcDbText
  0
ENDSEC
  0
SECTION
  2
OBJECTS
  0
DICTIONARY
  5
9
330
0
100
AcDbDictionary
281
     1
  3
ACAD_2007HEADERVARS_RT
350
378
  3
ACAD_COLOR
350
44
  3
ACAD_GROUP
350
31
  3
ACAD_LAYOUT
350
16
  3
ACAD_MATERIAL
350
B
  3
ACAD_MLEADERSTYLE
350
47
  3
ACAD_MLINESTYLE
350
32
  3
ACAD_PLOTSETTINGS
350
33
  3
ACAD_PLOTSTYLENAME
350
8
  3
ACAD_SCALELIST
350
45
  3
ACAD_TABLESTYLE
350
46
  3
ACAD_VISUALSTYLE
350
2B
  3
ACDB_RECOMPOSE_DATA
350
377
  3
AcDbVariableDictionary
350
321
  3
AcmDictionary
350
2D4
  3
AcmSystemVariableManager
350
38F
  3
AMG
350
2C5
  0
DICTIONARY
  5
2C
330
28
100
AcDbDictionary
280
     1
281
     1
  0
DICTIONARY
  5
1C
330
1B
100
AcDbDictionary
280
     1
281
     1
  3
ACAD_LAYERFILTERS
360
1D
  3
ACLYDICTIONARY
360
1E
  0
DICTIONARY
  5
3
330
2
100
AcDbDictionary
280
     1
281
     1
  3
ACAD_SORTENTS
360
2C3
  0
DICTIONARY
  5
378
102
{ACAD_REACTORS
330
9
102
}
330
9
100
AcDbDictionary
281
     1
  3
DIMARCSYM
350
379
  3
DIMLTEX1
350
37B
  3
DIMLTEX2
350
37C
  3
DIMLTYPE
350
37A
  0
DICTIONARY
  5
44
102
{ACAD_REACTORS
330
9
102
}
330
9
100
AcDbDictionary
281
     1
  0
DICTIONARY
  5
31
102
{ACAD_REACTORS
330
9
102
}
330
9
100
AcDbDictionary
281
     1
  0
DICTIONARY
  5
16
102
{ACAD_REACTORS
330
9
102
}
330
9
100
AcDbDictionary
281
     1
  3
Layout1
350
1A
  3
Model
350
15
  0
DICTIONARY
  5
B
102
{ACAD_REACTORS
330
9
102
}
330
9
100
AcDbDictionary
281
     1
  3
ByBlock
350
3C
  3
ByLayer
350
34
  3
Global
350
A
  0
DICTIONARY
  5
47
102
{ACAD_REACTORS
330
9
102
}
330
9
100
AcDbDictionary
281
     1
  3
Standard
350
33F
  0
DICTIONARY
  5
32
102
{ACAD_REACTORS
330
9
102
}
330
9
100
AcDbDictionary
281
     1
  3
Standard
350
48
  0
DICTIONARY
  5
33
102
{ACAD_REACTORS
330
9
102
}
330
9
100
AcDbDictionary
281
     1
  0
ACDBDICTIONARYWDFLT
  5
8
102
{ACAD_REACTORS
330
9
102
}
330
9
100
AcDbDictionary
281
     1
  3
Normal
350
7
100
AcDbDictionaryWithDefault
340
7
  0
DICTIONARY
  5
45
102
{ACAD_REACTORS
330
9
102
}
330
9
100
AcDbDictionary
281
     1
  3
A0
350
4D
  3
A1
350
4E
  3
A2
350
4F
  3
A3
350
50
  3
A4
350
51
  3
A5
350
52
  3
A6
350
53
  3
A7
350
54
  3
A8
350
55
  3
A9
350
56
  3
B0
350
57
  3
B1
350
58
  3
B2
350
59
  3
B3
350
5A
  3
B4
350
5B
  3
B5
350
5C
  3
B6
350
5D
  3
B7
350
5E
  3
B8
350
5F
  3
B9
350
60
  3
C0
350
61
  3
C1
350
62
  3
C2
350
63
  3
C3
350
64
  3
C4
350
65
  3
C5
350
66
  3
C6
350
67
  3
C7
350
68
  3
C8
350
69
  3
C9
350
6A
  3
D0
350
6B
  3
D1
350
6C
  3
D2
350
6D
  0
DICTIONARY
  5
46
102
{ACAD_REACTORS
330
9
102
}
330
9
100
AcDbDictionary
281
     1
  3
Standard
350
49
  0
DICTIONARY
  5
2B
102
{ACAD_REACTORS
330
9
102
}
330
9
100
AcDbDictionary
281
     1
  3
2dWireframe
350
2A
  3
Basic
350
32E
  3
Brighten
350
332
  3
ColorChange
350
336
  3
Conceptual
350
330
  3
Dim
350
331
  3
EdgeColorOff
350
33E
  3
Facepattern
350
335
  3
Flat
350
32A
  3
FlatWithEdges
350
32B
  3
Gouraud
350
32C
  3
GouraudWithEdges
350
32D
  3
Hidden
350
32F
  3
JitterOff
350
33C
  3
Linepattern
350
334
  3
OverhangOff
350
33D
  3
Realistic
350
4B
  3
Shaded
350
33B
  3
Shaded with edges
350
33A
  3
Shades of Gray
350
337
  3
Sketchy
350
338
  3
Thicken
350
333
  3
Wireframe
350
4C
  3
X-Ray
350
339
  0
XRECORD
  5
377
102
{ACAD_REACTORS
330
9
102
}
330
9
100
AcDbXrecord
280
     1
 90
        1
330
49
  0
DICTIONARY
  5
321
102
{ACAD_REACTORS
330
9
102
}
330
9
100
AcDbDictionary
281
     1
  3
CANNOSCALE
350
325
  3
CMLEADERSTYLE
350
323
  3
CTABLESTYLE
350
322
  3
DIMASSOC
350
374
  3
HIDETEXT
350
373
  3
INDEXCTL
350
372
  3
LAYEREVAL
350
327
  3
LAYERNOTIFY
350
328
  3
LIGHTINGUNITS
350
326
  3
MSLTSCALE
350
324
  3
SORTENTS
350
371
  3
XCLIPFRAME
350
375
  0
DICTIONARY
  5
2D4
102
{ACAD_REACTORS
330
9
102
}
330
9
100
AcDbDictionary
281
     1
  3
AcmStdDictionary
350
2D5
  0
DICTIONARY
  5
2C5
102
{ACAD_REACTORS
330
9
102
}
330
9
100
AcDbDictionary
281
     1
  3
AcMgSettings
350
2CF
  0
DICTIONARY
  5
1D
102
{ACAD_REACTORS
330
1C
102
}
330
1C
100
AcDbDictionary
281
     1
  0
DICTIONARY
  5
1E
102
{ACAD_REACTORS
330
1C
102
}
330
1C
100
AcDbDictionary
281
     1
1001
ACAD
1000
<All
  0
SORTENTSTABLE
  5
2C3
102
{ACAD_REACTORS
330
3
102
}
330
3
100
AcDbSortentsTable
330
2
331
A8
  5
89
331
A9
  5
88
331
AA
  5
87
331
AB
  5
86
331
AC
  5
85
331
75
  5
13F
331
7E
  5
B2
331
7F
  5
B1
331
A0
  5
93
331
2C1
  5
2BE
331
B1
  5
7F
331
B2
  5
7E
331
B3
  5
7A
331
B4
  5
79
331
B5
  5
78
331
1C6
  5
6E
331
A6
  5
8B
331
A7
  5
8A
331
13F
  5
75
331
97
  5
9C
331
87
  5
AA
331
6E
  5
1C6
331
96
  5
9D
331
86
  5
AB
331
A5
  5
8C
331
95
  5
9E
331
85
  5
AC
331
A4
  5
8D
331
94
  5
9F
331
84
  5
AD
331
A3
  5
90
331
93
  5
A0
331
83
  5
AE
331
FA
  5
77
331
A2
  5
91
331
92
  5
A1
331
A1
  5
92
331
91
  5
A2
331
81
  5
AF
331
B0
  5
80
331
90
  5
A3
331
80
  5
B0
331
77
  5
FA
331
AF
  5
81
331
9F
  5
94
331
AE
  5
83
331
9E
  5
95
331
2BE
  5
2C1
331
AD
  5
84
331
9D
  5
96
331
8D
  5
A4
331
9C
  5
97
331
8C
  5
A5
331
9B
  5
98
331
8B
  5
A6
331
9A
  5
99
331
8A
  5
A7
331
7A
  5
B3
331
99
  5
9A
331
89
  5
A8
331
79
  5
B4
331
98
  5
9B
331
88
  5
A9
331
78
  5
B5
  0
XRECORD
  5
379
102
{ACAD_REACTORS
330
378
102
}
330
378
100
AcDbXrecord
280
     1
 70
     1
  0
XRECORD
  5
37B
102
{ACAD_REACTORS
330
378
102
}
330
378
100
AcDbXrecord
280
     1
340
24
  0
XRECORD
  5
37C
102
{ACAD_REACTORS
330
378
102
}
330
378
100
AcDbXrecord
280
     1
340
24
  0
XRECORD
  5
37A
102
{ACAD_REACTORS
330
378
102
}
330
378
100
AcDbXrecord
280
     1
340
24
  0
LAYOUT
  5
1A
102
{ACAD_XDICTIONARY
360
380
102
}
102
{ACAD_REACTORS
330
16
102
}
330
16
100
AcDbPlotSettings
  1

  2
\\le-server\HP LaserJet 2100
  4

  6

 40
0.0
 41
0.0
 42
0.0
 43
0.0
 44
0.0
 45
0.0
 46
0.0
 47
0.0
 48
0.0
 49
0.0
140
0.0
141
0.0
142
1.0
143
1.0
 70
   688
 72
     0
 73
     0
 74
     5
  7

 75
    16
147
1.0
148
0.0
149
0.0
100
AcDbLayout
  1
Layout1
 70
     1
 71
     1
 10
0.0
 20
0.0
 11
1189.0
 21
840.9999999999998
 12
0.0
 22
0.0
 32
0.0
 14
0.0
 24
0.0
 34
0.0
 15
1189.0
 25
840.9999999999998
 35
0.0
146
0.0
 13
0.0
 23
0.0
 33
0.0
 16
1.0
 26
0.0
 36
0.0
 17
0.0
 27
1.0
 37
0.0
 76
     0
330
17
  0
LAYOUT
  5
15
102
{ACAD_XDICTIONARY
360
37E
102
}
102
{ACAD_REACTORS
330
16
102
}
330
16
100
AcDbPlotSettings
  1

  2
\\le-server\HP LaserJet 2100
  4

  6

 40
0.0
 41
0.0
 42
0.0
 43
0.0
 44
0.0
 45
0.0
 46
0.0
 47
0.0
 48
0.0
 49
0.0
140
0.0
141
0.0
142
1.0
143
1.0
 70
  1712
 72
     0
 73
     0
 74
     0
  7

 75
     0
147
1.0
148
0.0
149
0.0
100
AcDbLayout
  1
Model
 70
     1
 71
     0
 10
0.0
 20
0.0
 11
12.0
 21
9.0
 12
0.0
 22
0.0
 32
0.0
 14
0.0
 24
0.0
 34
0.0
 15
0.0
 25
0.0
 35
0.0
146
0.0
 13
0.0
 23
0.0
 33
0.0
 16
1.0
 26
0.0
 36
0.0
 17
0.0
 27
1.0
 37
0.0
 76
     0
330
2
331
29
  0
MATERIAL
  5
3C
102
{ACAD_XDICTIONARY
360
3D
102
}
102
{ACAD_REACTORS
330
B
102
}
330
B
100
AcDbMaterial
  1
ByBlock
 72
     0
 43
0.0208333333333333
 43
0.0
 43
0.0
 43
0.0
 43
0.0
 43
0.0208333333333333
 43
0.0
 43
0.0
 43
0.0
 43
0.0
 43
1.0
 43
0.0
 43
0.0
 43
0.0
 43
0.0
 43
1.0
 77
     0
 47
0.0208333333333333
 47
0.0
 47
0.0
 47
0.0
 47
0.0
 47
0.0208333333333333
 47
0.0
 47
0.0
 47
0.0
 47
0.0
 47
1.0
 47
0.0
 47
0.0
 47
0.0
 47
0.0
 47
1.0
171
     0
 49
0.0208333333333333
 49
0.0
 49
0.0
 49
0.0
 49
0.0
 49
0.0208333333333333
 49
0.0
 49
0.0
 49
0.0
 49
0.0
 49
1.0
 49
0.0
 49
0.0
 49
0.0
 49
0.0
 49
1.0
175
     0
142
0.0208333333333333
142
0.0
142
0.0
142
0.0
142
0.0
142
0.0208333333333333
142
0.0
142
0.0
142
0.0
142
0.0
142
1.0
142
0.0
142
0.0
142
0.0
142
0.0
142
1.0
179
     0
144
0.0208333333333333
144
0.0
144
0.0
144
0.0
144
0.0
144
0.0208333333333333
144
0.0
144
0.0
144
0.0
144
0.0
144
1.0
144
0.0
144
0.0
144
0.0
144
0.0
144
1.0
147
0.0208333333333333
147
0.0
147
0.0
147
0.0
147
0.0
147
0.0208333333333333
147
0.0
147
0.0
147
0.0
147
0.0
147
1.0
147
0.0
147
0.0
147
0.0
147
0.0
147
1.0
  0
MATERIAL
  5
34
102
{ACAD_XDICTIONARY
360
35
102
}
102
{ACAD_REACTORS
330
B
102
}
330
B
100
AcDbMaterial
  1
ByLayer
 72
     0
 43
0.0208333333333333
 43
0.0
 43
0.0
 43
0.0
 43
0.0
 43
0.0208333333333333
 43
0.0
 43
0.0
 43
0.0
 43
0.0
 43
1.0
 43
0.0
 43
0.0
 43
0.0
 43
0.0
 43
1.0
 77
     0
 47
0.0208333333333333
 47
0.0
 47
0.0
 47
0.0
 47
0.0
 47
0.0208333333333333
 47
0.0
 47
0.0
 47
0.0
 47
0.0
 47
1.0
 47
0.0
 47
0.0
 47
0.0
 47
0.0
 47
1.0
171
     0
 49
0.0208333333333333
 49
0.0
 49
0.0
 49
0.0
 49
0.0
 49
0.0208333333333333
 49
0.0
 49
0.0
 49
0.0
 49
0.0
 49
1.0
 49
0.0
 49
0.0
 49
0.0
 49
0.0
 49
1.0
175
     0
142
0.0208333333333333
142
0.0
142
0.0
142
0.0
142
0.0
142
0.0208333333333333
142
0.0
142
0.0
142
0.0
142
0.0
142
1.0
142
0.0
142
0.0
142
0.0
142
0.0
142
1.0
179
     0
144
0.0208333333333333
144
0.0
144
0.0
144
0.0
144
0.0
144
0.0208333333333333
144
0.0
144
0.0
144
0.0
144
0.0
144
1.0
144
0.0
144
0.0
144
0.0
144
0.0
144
1.0
147
0.0208333333333333
147
0.0
147
0.0
147
0.0
147
0.0
147
0.0208333333333333
147
0.0
147
0.0
147
0.0
147
0.0
147
1.0
147
0.0
147
0.0
147
0.0
147
0.0
147
1.0
  0
MATERIAL
  5
A
102
{ACAD_XDICTIONARY
360
C
102
}
102
{ACAD_REACTORS
330
B
102
}
330
B
100
AcDbMaterial
  1
Global
 72
     0
 43
0.0208333333333333
 43
0.0
 43
0.0
 43
0.0
 43
0.0
 43
0.0208333333333333
 43
0.0
 43
0.0
 43
0.0
 43
0.0
 43
1.0
 43
0.0
 43
0.0
 43
0.0
 43
0.0
 43
1.0
 77
     0
 47
0.0208333333333333
 47
0.0
 47
0.0
 47
0.0
 47
0.0
 47
0.0208333333333333
 47
0.0
 47
0.0
 47
0.0
 47
0.0
 47
1.0
 47
0.0
 47
0.0
 47
0.0
 47
0.0
 47
1.0
171
     0
 49
0.0208333333333333
 49
0.0
 49
0.0
 49
0.0
 49
0.0
 49
0.0208333333333333
 49
0.0
 49
0.0
 49
0.0
 49
0.0
 49
1.0
 49
0.0
 49
0.0
 49
0.0
 49
0.0
 49
1.0
175
     0
142
0.0208333333333333
142
0.0
142
0.0
142
0.0
142
0.0
142
0.0208333333333333
142
0.0
142
0.0
142
0.0
142
0.0
142
1.0
142
0.0
142
0.0
142
0.0
142
0.0
142
1.0
179
     0
144
0.0208333333333333
144
0.0
144
0.0
144
0.0
144
0.0
144
0.0208333333333333
144
0.0
144
0.0
144
0.0
144
0.0
144
1.0
144
0.0
144
0.0
144
0.0
144
0.0
144
1.0
147
0.0208333333333333
147
0.0
147
0.0
147
0.0
147
0.0
147
0.0208333333333333
147
0.0
147
0.0
147
0.0
147
0.0
147
1.0
147
0.0
147
0.0
147
0.0
147
0.0
147
1.0
  0
MLEADERSTYLE
  5
33F
102
{ACAD_REACTORS
330
47
102
}
330
47
100
AcDbMLeaderStyle
170
     2
171
     1
172
     0
 90
        2
 40
0.0
 41
0.0
173
     1
 91
-1056964608
340
24
 92
       -2
290
     1
 42
2.0
291
     1
 43
0.36
  3
Standard
 44
4.0
300

342
21
174
     1
178
     6
175
     1
176
     0
 93
-1056964608
 45
4.0
292
     0
297
     0
 46
4.0
 94
-1056964608
 47
1.0
 49
1.0
140
1.0
293
     1
141
0.0
294
     1
177
     0
142
1.0
295
     0
296
     0
143
0.125
1001
ACAD_MLEADERVER
1070
     2
  0
MLINESTYLE
  5
48
102
{ACAD_REACTORS
330
32
102
}
330
32
100
AcDbMlineStyle
  2
STANDARD
 70
     0
  3

 62
   256
 51
90.0
 52
90.0
 71
     2
 49
0.5
 62
   256
  6
BYLAYER
 49
-0.5
 62
   256
  6
BYLAYER
  0
ACDBPLACEHOLDER
  5
7
102
{ACAD_REACTORS
330
8
102
}
330
8
  0
SCALE
  5
4D
102
{ACAD_REACTORS
330
45
102
}
330
45
100
AcDbScale
 70
     0
300
1:1
140
1.0
141
1.0
290
     1
  0
SCALE
  5
4E
102
{ACAD_REACTORS
330
45
102
}
330
45
100
AcDbScale
 70
     0
300
1:2
140
1.0
141
2.0
290
     0
  0
SCALE
  5
4F
102
{ACAD_REACTORS
330
45
102
}
330
45
100
AcDbScale
 70
     0
300
1:4
140
1.0
141
4.0
290
     0
  0
SCALE
  5
50
102
{ACAD_REACTORS
330
45
102
}
330
45
100
AcDbScale
 70
     0
300
1:5
140
1.0
141
5.0
290
     0
  0
SCALE
  5
51
102
{ACAD_REACTORS
330
45
102
}
330
45
100
AcDbScale
 70
     0
300
1:8
140
1.0
141
8.0
290
     0
  0
SCALE
  5
52
102
{ACAD_REACTORS
330
45
102
}
330
45
100
AcDbScale
 70
     0
300
1:10
140
1.0
141
10.0
290
     0
  0
SCALE
  5
53
102
{ACAD_REACTORS
330
45
102
}
330
45
100
AcDbScale
 70
     0
300
1:16
140
1.0
141
16.0
290
     0
  0
SCALE
  5
54
102
{ACAD_REACTORS
330
45
102
}
330
45
100
AcDbScale
 70
     0
300
1:20
140
1.0
141
20.0
290
     0
  0
SCALE
  5
55
102
{ACAD_REACTORS
330
45
102
}
330
45
100
AcDbScale
 70
     0
300
1:30
140
1.0
141
30.0
290
     0
  0
SCALE
  5
56
102
{ACAD_REACTORS
330
45
102
}
330
45
100
AcDbScale
 70
     0
300
1:40
140
1.0
141
40.0
290
     0
  0
SCALE
  5
57
102
{ACAD_REACTORS
330
45
102
}
330
45
100
AcDbScale
 70
     0
300
1:50
140
1.0
141
50.0
290
     0
  0
SCALE
  5
58
102
{ACAD_REACTORS
330
45
102
}
330
45
100
AcDbScale
 70
     0
300
1:100
140
1.0
141
100.0
290
     0
  0
SCALE
  5
59
102
{ACAD_REACTORS
330
45
102
}
330
45
100
AcDbScale
 70
     0
300
2:1
140
2.0
141
1.0
290
     0
  0
SCALE
  5
5A
102
{ACAD_REACTORS
330
45
102
}
330
45
100
AcDbScale
 70
     0
300
4:1
140
4.0
141
1.0
290
     0
  0
SCALE
  5
5B
102
{ACAD_REACTORS
330
45
102
}
330
45
100
AcDbScale
 70
     0
300
8:1
140
8.0
141
1.0
290
     0
  0
SCALE
  5
5C
102
{ACAD_REACTORS
330
45
102
}
330
45
100
AcDbScale
 70
     0
300
10:1
140
10.0
141
1.0
290
     0
  0
SCALE
  5
5D
102
{ACAD_REACTORS
330
45
102
}
330
45
100
AcDbScale
 70
     0
300
100:1
140
100.0
141
1.0
290
     0
  0
SCALE
  5
5E
102
{ACAD_REACTORS
330
45
102
}
330
45
100
AcDbScale
 70
     0
300
1/128" = 1'-0"
140
0.0078125
141
12.0
290
     0
  0
SCALE
  5
5F
102
{ACAD_REACTORS
330
45
102
}
330
45
100
AcDbScale
 70
     0
300
1/64" = 1'-0"
140
0.015625
141
12.0
290
     0
  0
SCALE
  5
60
102
{ACAD_REACTORS
330
45
102
}
330
45
100
AcDbScale
 70
     0
300
1/32" = 1'-0"
140
0.03125
141
12.0
290
     0
  0
SCALE
  5
61
102
{ACAD_REACTORS
330
45
102
}
330
45
100
AcDbScale
 70
     0
300
1/16" = 1'-0"
140
0.0625
141
12.0
290
     0
  0
SCALE
  5
62
102
{ACAD_REACTORS
330
45
102
}
330
45
100
AcDbScale
 70
     0
300
3/32" = 1'-0"
140
0.09375
141
12.0
290
     0
  0
SCALE
  5
63
102
{ACAD_REACTORS
330
45
102
}
330
45
100
AcDbScale
 70
     0
300
1/8" = 1'-0"
140
0.125
141
12.0
290
     0
  0
SCALE
  5
64
102
{ACAD_REACTORS
330
45
102
}
330
45
100
AcDbScale
 70
     0
300
3/16" = 1'-0"
140
0.1875
141
12.0
290
     0
  0
SCALE
  5
65
102
{ACAD_REACTORS
330
45
102
}
330
45
100
AcDbScale
 70
     0
300
1/4" = 1'-0"
140
0.25
141
12.0
290
     0
  0
SCALE
  5
66
102
{ACAD_REACTORS
330
45
102
}
330
45
100
AcDbScale
 70
     0
300
3/8" = 1'-0"
140
0.375
141
12.0
290
     0
  0
SCALE
  5
67
102
{ACAD_REACTORS
330
45
102
}
330
45
100
AcDbScale
 70
     0
300
1/2" = 1'-0"
140
0.5
141
12.0
290
     0
  0
SCALE
  5
68
102
{ACAD_REACTORS
330
45
102
}
330
45
100
AcDbScale
 70
     0
300
3/4" = 1'-0"
140
0.75
141
12.0
290
     0
  0
SCALE
  5
69
102
{ACAD_REACTORS
330
45
102
}
330
45
100
AcDbScale
 70
     0
300
1" = 1'-0"
140
1.0
141
12.0
290
     0
  0
SCALE
  5
6A
102
{ACAD_REACTORS
330
45
102
}
330
45
100
AcDbScale
 70
     0
300
1-1/2" = 1'-0"
140
1.5
141
12.0
290
     0
  0
SCALE
  5
6B
102
{ACAD_REACTORS
330
45
102
}
330
45
100
AcDbScale
 70
     0
300
3" = 1'-0"
140
3.0
141
12.0
290
     0
  0
SCALE
  5
6C
102
{ACAD_REACTORS
330
45
102
}
330
45
100
AcDbScale
 70
     0
300
6" = 1'-0"
140
6.0
141
12.0
290
     0
  0
SCALE
  5
6D
102
{ACAD_REACTORS
330
45
102
}
330
45
100
AcDbScale
 70
     0
300
1'-0" = 1'-0"
140
12.0
141
12.0
290
     0
  0
TABLESTYLE
  5
49
102
{ACAD_XDICTIONARY
360
4A
102
}
102
{ACAD_REACTORS
330
46
102
}
330
46
100
AcDbTableStyle
  3
Standard
 70
     0
 71
     0
 40
0.06
 41
0.06
280
     0
281
     0
  7
STANDARD
140
0.18
170
     2
 62
     0
 63
     7
283
     0
274
    -2
284
     1
 64
     0
275
    -2
285
     1
 65
     0
276
    -2
286
     1
 66
     0
277
    -2
287
     1
 67
     0
278
    -2
288
     1
 68
     0
279
    -2
289
     1
 69
     0
  7
STANDARD
140
0.25
170
     5
 62
     0
 63
     7
283
     0
274
    -2
284
     1
 64
     0
275
    -2
285
     1
 65
     0
276
    -2
286
     1
 66
     0
277
    -2
287
     1
 67
     0
278
    -2
288
     1
 68
     0
279
    -2
289
     1
 69
     0
  7
STANDARD
140
0.18
170
     5
 62
     0
 63
     7
283
     0
274
    -2
284
     1
 64
     0
275
    -2
285
     1
 65
     0
276
    -2
286
     1
 66
     0
277
    -2
287
     1
 67
     0
278
    -2
288
     1
 68
     0
279
    -2
289
     1
 69
     0
  0
VISUALSTYLE
  5
2A
102
{ACAD_XDICTIONARY
360
382
102
}
102
{ACAD_REACTORS
330
2B
102
}
330
2B
100
AcDbVisualStyle
  2
2dWireframe
 70
     4
 71
     0
 72
     2
 73
     0
 90
        0
 40
-0.6
 41
-30.0
 62
     5
 63
     7
 74
     1
 91
        4
 64
     7
 65
   257
 75
     1
175
     1
 42
1.0
 92
        0
 66
   257
 43
1.0
 76
     1
 77
     6
 78
     2
 67
     7
 79
     5
170
     0
171
     0
290
     0
174
     0
 93
        1
 44
0.0
173
     0
291
     0
 45
0.0
1001
ACAD
1000
AcDbSavedByObjectVersion
1070
     0
  0
VISUALSTYLE
  5
32E
102
{ACAD_XDICTIONARY
360
399
102
}
102
{ACAD_REACTORS
330
2B
102
}
330
2B
100
AcDbVisualStyle
  2
Basic
 70
     7
 71
     1
 72
     0
 73
     1
 90
        0
 40
-0.6
 41
-30.0
 62
     5
 63
     7
 74
     0
 91
        4
 64
     7
 65
   257
 75
     1
175
     1
 42
1.0
 92
        8
 66
     7
 43
1.0
 76
     1
 77
     6
 78
     2
 67
     7
 79
     5
170
     0
171
     0
290
     0
174
     0
 93
        1
 44
0.0
173
     0
291
     1
 45
0.0
1001
ACAD
1000
AcDbSavedByObjectVersion
1070
     0
  0
VISUALSTYLE
  5
332
102
{ACAD_XDICTIONARY
360
3A1
102
}
102
{ACAD_REACTORS
330
2B
102
}
330
2B
100
AcDbVisualStyle
  2
Brighten
 70
    12
 71
     2
 72
     2
 73
     0
 90
        0
 40
-0.6
 41
-30.0
 62
     5
 63
     7
 74
     1
 91
        4
 64
     7
 65
   257
 75
     1
175
     1
 42
1.0
 92
        8
 66
     7
 43
1.0
 76
     1
 77
     6
 78
     2
 67
     7
 79
     5
170
     0
171
     0
290
     0
174
     0
 93
        1
 44
50.0
173
     0
291
     1
 45
0.0
1001
ACAD
1000
AcDbSavedByObjectVersion
1070
     0
  0
VISUALSTYLE
  5
336
102
{ACAD_XDICTIONARY
360
3A9
102
}
102
{ACAD_REACTORS
330
2B
102
}
330
2B
100
AcDbVisualStyle
  2
ColorChange
 70
    16
 71
     2
 72
     2
 73
     3
 90
        0
 40
-0.6
 41
-30.0
 62
     5
 63
     8
 74
     1
 91
        4
 64
     7
 65
   257
 75
     1
175
     1
 42
1.0
 92
        8
 66
     8
 43
1.0
 76
     1
 77
     6
 78
     2
 67
     7
 79
     5
170
     0
171
     0
290
     0
174
     0
 93
        1
 44
0.0
173
     0
291
     1
 45
0.0
1001
ACAD
1000
AcDbSavedByObjectVersion
1070
     0
  0
VISUALSTYLE
  5
330
102
{ACAD_XDICTIONARY
360
39D
102
}
102
{ACAD_REACTORS
330
2B
102
}
330
2B
100
AcDbVisualStyle
  2
Conceptual
 70
     9
 71
     3
 72
     2
 73
     0
 90
        0
 40
-0.6
 41
-30.0
 62
     5
 63
     7
 74
     2
 91
        2
 64
     7
 65
   257
 75
     1
175
     1
 42
179.0
 92
        8
 66
     7
 43
1.0
 76
     1
 77
     6
 78
     2
 67
     7
 79
     3
170
     0
171
     0
290
     0
174
     0
 93
        1
 44
0.0
173
     0
291
     0
 45
0.0
1001
ACAD
1000
AcDbSavedByObjectVersion
1070
     0
  0
VISUALSTYLE
  5
331
102
{ACAD_XDICTIONARY
360
39F
102
}
102
{ACAD_REACTORS
330
2B
102
}
330
2B
100
AcDbVisualStyle
  2
Dim
 70
    11
 71
     2
 72
     2
 73
     0
 90
        0
 40
-0.6
 41
-30.0
 62
     5
 63
     7
 74
     1
 91
        4
 64
     7
 65
   257
 75
     1
175
     1
 42
1.0
 92
        8
 66
     7
 43
1.0
 76
     1
 77
     6
 78
     2
 67
     7
 79
     5
170
     0
171
     0
290
     0
174
     0
 93
        1
 44
-50.0
173
     0
291
     1
 45
0.0
1001
ACAD
1000
AcDbSavedByObjectVersion
1070
     0
  0
VISUALSTYLE
  5
33E
102
{ACAD_XDICTIONARY
360
3B9
102
}
102
{ACAD_REACTORS
330
2B
102
}
330
2B
100
AcDbVisualStyle
  2
EdgeColorOff
 70
    22
 71
     2
 72
     2
 73
     0
 90
        0
 40
-0.6
 41
-30.0
 62
     5
 63
     7
 74
     1
 91
        4
 64
     7
 65
   257
 75
     1
175
     1
 42
1.0
 92
        8
 66
     7
 43
1.0
 76
     1
 77
     6
 78
     2
 67
     7
 79
     5
170
     0
171
     0
290
     0
174
     0
 93
        1
 44
0.0
173
     0
291
     1
 45
0.0
1001
ACAD
1000
AcDbSavedByObjectVersion
1070
     0
  0
VISUALSTYLE
  5
335
102
{ACAD_XDICTIONARY
360
3A7
102
}
102
{ACAD_REACTORS
330
2B
102
}
330
2B
100
AcDbVisualStyle
  2
Facepattern
 70
    15
 71
     2
 72
     2
 73
     0
 90
        0
 40
-0.6
 41
-30.0
 62
     5
 63
     7
 74
     1
 91
        4
 64
     7
 65
   257
 75
     1
175
     1
 42
1.0
 92
        8
 66
     7
 43
1.0
 76
     1
 77
     6
 78
     2
 67
     7
 79
     5
170
     0
171
     0
290
     0
174
     0
 93
        1
 44
0.0
173
     0
291
     1
 45
0.0
1001
ACAD
1000
AcDbSavedByObjectVersion
1070
     0
  0
VISUALSTYLE
  5
32A
102
{ACAD_XDICTIONARY
360
391
102
}
102
{ACAD_REACTORS
330
2B
102
}
330
2B
100
AcDbVisualStyle
  2
Flat
 70
     0
 71
     2
 72
     1
 73
     1
 90
        2
 40
-0.6
 41
30.0
 62
     5
 63
     7
 74
     0
 91
        0
 64
     7
 65
   257
 75
     1
175
     1
 42
1.0
 92
        8
 66
     7
 43
1.0
 76
     1
 77
     6
 78
     2
 67
     7
 79
     5
170
     0
171
     0
290
     0
174
     0
 93
       13
 44
0.0
173
     0
291
     1
 45
0.0
1001
ACAD
1000
AcDbSavedByObjectVersion
1070
     0
  0
VISUALSTYLE
  5
32B
102
{ACAD_XDICTIONARY
360
393
102
}
102
{ACAD_REACTORS
330
2B
102
}
330
2B
100
AcDbVisualStyle
  2
FlatWithEdges
 70
     1
 71
     2
 72
     1
 73
     1
 90
        2
 40
-0.6
 41
30.0
 62
     5
 63
     7
 74
     1
 91
        0
 64
     7
 65
   257
 75
     1
175
     1
 42
1.0
 92
        0
 66
   257
 43
1.0
 76
     1
 77
     6
 78
     2
 67
     7
 79
     5
170
     0
171
     0
290
     0
174
     0
 93
       13
 44
0.0
173
     0
291
     1
 45
0.0
1001
ACAD
1000
AcDbSavedByObjectVersion
1070
     0
  0
VISUALSTYLE
  5
32C
102
{ACAD_XDICTIONARY
360
395
102
}
102
{ACAD_REACTORS
330
2B
102
}
330
2B
100
AcDbVisualStyle
  2
Gouraud
 70
     2
 71
     2
 72
     2
 73
     1
 90
        2
 40
-0.6
 41
30.0
 62
     5
 63
     7
 74
     0
 91
        0
 64
     7
 65
   257
 75
     1
175
     1
 42
1.0
 92
        0
 66
     7
 43
1.0
 76
     1
 77
     6
 78
     2
 67
     7
 79
     5
170
     0
171
     0
290
     0
174
     0
 93
       13
 44
0.0
173
     0
291
     1
 45
0.0
1001
ACAD
1000
AcDbSavedByObjectVersion
1070
     0
  0
VISUALSTYLE
  5
32D
102
{ACAD_XDICTIONARY
360
397
102
}
102
{ACAD_REACTORS
330
2B
102
}
330
2B
100
AcDbVisualStyle
  2
GouraudWithEdges
 70
     3
 71
     2
 72
     2
 73
     1
 90
        2
 40
-0.6
 41
30.0
 62
     5
 63
     7
 74
     1
 91
        0
 64
     7
 65
   257
 75
     1
175
     1
 42
1.0
 92
        0
 66
   257
 43
1.0
 76
     1
 77
     6
 78
     2
 67
     7
 79
     5
170
     0
171
     0
290
     0
174
     0
 93
       13
 44
0.0
173
     0
291
     1
 45
0.0
1001
ACAD
1000
AcDbSavedByObjectVersion
1070
     0
  0
VISUALSTYLE
  5
32F
102
{ACAD_XDICTIONARY
360
39B
102
}
102
{ACAD_REACTORS
330
2B
102
}
330
2B
100
AcDbVisualStyle
  2
Hidden
 70
     6
 71
     1
 72
     2
 73
     2
 90
        0
 40
-0.6
 41
-30.0
 62
     5
 63
     7
 74
     2
 91
        2
 64
     7
 65
   257
 75
     2
175
     1
 42
40.0
 92
        0
 66
   257
 43
1.0
 76
     1
 77
     6
 78
     2
 67
     7
 79
     3
170
     0
171
     0
290
     0
174
     0
 93
        1
 44
0.0
173
     0
291
     0
 45
0.0
1001
ACAD
1000
AcDbSavedByObjectVersion
1070
     0
  0
VISUALSTYLE
  5
33C
102
{ACAD_XDICTIONARY
360
3B5
102
}
102
{ACAD_REACTORS
330
2B
102
}
330
2B
100
AcDbVisualStyle
  2
JitterOff
 70
    20
 71
     2
 72
     2
 73
     0
 90
        0
 40
-0.6
 41
-30.0
 62
     5
 63
     7
 74
     1
 91
        4
 64
     7
 65
   257
 75
     1
175
     1
 42
1.0
 92
       10
 66
     7
 43
1.0
 76
     1
 77
     6
 78
     2
 67
     7
 79
     5
170
     0
171
     0
290
     0
174
     0
 93
        1
 44
0.0
173
     0
291
     1
 45
0.0
1001
ACAD
1000
AcDbSavedByObjectVersion
1070
     0
  0
VISUALSTYLE
  5
334
102
{ACAD_XDICTIONARY
360
3A5
102
}
102
{ACAD_REACTORS
330
2B
102
}
330
2B
100
AcDbVisualStyle
  2
Linepattern
 70
    14
 71
     2
 72
     2
 73
     0
 90
        0
 40
-0.6
 41
-30.0
 62
     5
 63
     7
 74
     1
 91
        4
 64
     7
 65
   257
 75
     7
175
     7
 42
1.0
 92
        8
 66
     7
 43
1.0
 76
     1
 77
     6
 78
     2
 67
     7
 79
     5
170
     0
171
     0
290
     0
174
     0
 93
        1
 44
0.0
173
     0
291
     1
 45
0.0
1001
ACAD
1000
AcDbSavedByObjectVersion
1070
     0
  0
VISUALSTYLE
  5
33D
102
{ACAD_XDICTIONARY
360
3B7
102
}
102
{ACAD_REACTORS
330
2B
102
}
330
2B
100
AcDbVisualStyle
  2
OverhangOff
 70
    21
 71
     2
 72
     2
 73
     0
 90
        0
 40
-0.6
 41
-30.0
 62
     5
 63
     7
 74
     1
 91
        4
 64
     7
 65
   257
 75
     1
175
     1
 42
1.0
 92
        9
 66
     7
 43
1.0
 76
     1
 77
     6
 78
     2
 67
     7
 79
     5
170
     0
171
     0
290
     0
174
     0
 93
        1
 44
0.0
173
     0
291
     1
 45
0.0
1001
ACAD
1000
AcDbSavedByObjectVersion
1070
     0
  0
VISUALSTYLE
  5
4B
102
{ACAD_XDICTIONARY
360
387
102
}
102
{ACAD_REACTORS
330
2B
102
}
330
2B
100
AcDbVisualStyle
  2
Realistic
 70
     8
 71
     2
 72
     2
 73
     0
 90
        0
 40
-0.6
 41
-30.0
 62
     5
 63
     7
 74
     1
 91
        0
 64
     7
 65
   257
 75
     1
175
     1
 42
1.0
 92
        8
 66
     8
 43
1.0
 76
     1
 77
     6
 78
     2
 67
     7
 79
     5
170
     0
171
     0
290
     0
174
     0
 93
       13
 44
0.0
173
     0
291
     0
 45
0.0
1001
ACAD
1000
AcDbSavedByObjectVersion
1070
     0
  0
VISUALSTYLE
  5
33B
102
{ACAD_XDICTIONARY
360
3B3
102
}
102
{ACAD_REACTORS
330
2B
102
}
330
2B
100
AcDbVisualStyle
  2
Shaded
 70
    27
 71
     2
 72
     2
 73
     1
 90
        2
 40
-0.6
 41
30.0
 62
     5
 63
     7
 74
     0
 91
        4
 64
     7
 65
   257
 75
     1
175
     1
 42
1.0
 92
        8
 66
   257
 43
1.0
 76
     1
 77
     6
 78
     2
 67
     8
 79
     3
170
     0
171
     0
290
     0
174
     0
 93
        5
 44
0.0
173
     0
291
     0
 45
0.0
1001
ACAD
1000
AcDbSavedByObjectVersion
1070
     0
  0
VISUALSTYLE
  5
33A
102
{ACAD_XDICTIONARY
360
3B1
102
}
102
{ACAD_REACTORS
330
2B
102
}
330
2B
100
AcDbVisualStyle
  2
Shaded with edges
 70
    26
 71
     2
 72
     2
 73
     1
 90
        2
 40
-0.6
 41
30.0
 62
     5
 63
     7
 74
     1
 91
       10
 64
     7
 65
   257
 75
     2
175
     1
 42
1.0
 92
        8
 66
   257
 43
1.0
 76
     1
 77
     6
 78
     2
 67
     7
 79
     3
170
     0
171
     0
290
     0
174
     0
 93
        5
 44
0.0
173
     0
291
     0
 45
0.0
1001
ACAD
1000
AcDbSavedByObjectVersion
1070
     0
  0
VISUALSTYLE
  5
337
102
{ACAD_XDICTIONARY
360
3AB
102
}
102
{ACAD_REACTORS
330
2B
102
}
330
2B
100
AcDbVisualStyle
  2
Shades of Gray
 70
    23
 71
     2
 72
     2
 73
     3
 90
        0
 40
-0.6
 41
-30.0
 62
     5
 63
     7
 74
     2
 91
        2
 64
     7
 65
     7
 75
     1
175
     1
 42
40.0
 92
        8
 66
     7
 43
1.0
 76
     1
 77
     6
 78
     2
 67
     7
 79
     3
170
     0
171
     0
290
     0
174
     0
 93
        1
 44
0.0
173
     0
291
     0
 45
0.0
1001
ACAD
1000
AcDbSavedByObjectVersion
1070
     0
  0
VISUALSTYLE
  5
338
102
{ACAD_XDICTIONARY
360
3AD
102
}
102
{ACAD_REACTORS
330
2B
102
}
330
2B
100
AcDbVisualStyle
  2
Sketchy
 70
    24
 71
     1
 72
     2
 73
     2
 90
        0
 40
-0.6
 41
-30.0
 62
     5
 63
     7
 74
     2
 91
        2
 64
     7
 65
     7
 75
     1
175
     1
 42
40.0
 92
       11
 66
     7
 43
1.0
 76
     1
 77
     6
 78
     2
 67
     7
 79
     6
170
     0
171
     0
290
     0
174
     0
 93
        1
 44
0.0
173
     0
291
     0
 45
0.0
1001
ACAD
1000
AcDbSavedByObjectVersion
1070
     0
  0
VISUALSTYLE
  5
333
102
{ACAD_XDICTIONARY
360
3A3
102
}
102
{ACAD_REACTORS
330
2B
102
}
330
2B
100
AcDbVisualStyle
  2
Thicken
 70
    13
 71
     2
 72
     2
 73
     0
 90
        0
 40
-0.6
 41
-30.0
 62
     5
 63
     7
 74
     1
 91
        4
 64
     7
 65
   257
 75
     1
175
     1
 42
1.0
 92
       12
 66
     7
 43
1.0
 76
     1
 77
     6
 78
     2
 67
     7
 79
     5
170
     0
171
     0
290
     0
174
     0
 93
        1
 44
0.0
173
     0
291
     1
 45
0.0
1001
ACAD
1000
AcDbSavedByObjectVersion
1070
     0
  0
VISUALSTYLE
  5
4C
102
{ACAD_XDICTIONARY
360
389
102
}
102
{ACAD_REACTORS
330
2B
102
}
330
2B
100
AcDbVisualStyle
  2
Wireframe
 70
     5
 71
     0
 72
     2
 73
     0
 90
        0
 40
-0.6
 41
-30.0
 62
     5
 63
     7
 74
     1
 91
        4
 64
     7
 65
   257
 75
     1
175
     1
 42
1.0
 92
        0
 66
   257
 43
1.0
 76
     1
 77
     6
 78
     2
 67
     7
 79
     3
170
     0
171
     0
290
     0
174
     0
 93
        1
 44
0.0
173
     0
291
     0
 45
0.0
1001
ACAD
1000
AcDbSavedByObjectVersion
1070
     0
  0
VISUALSTYLE
  5
339
102
{ACAD_XDICTIONARY
360
3AF
102
}
102
{ACAD_REACTORS
330
2B
102
}
330
2B
100
AcDbVisualStyle
  2
X-Ray
 70
    25
 71
     2
 72
     2
 73
     1
 90
        1
 40
0.5
 41
-30.0
 62
     5
 63
     7
 74
     1
 91
        0
 64
     7
 65
   257
 75
     1
175
     1
 42
1.0
 92
        8
 66
     7
 43
1.0
 76
     1
 77
     6
 78
     2
 67
     7
 79
     3
170
     0
171
     0
290
     0
174
     0
 93
       13
 44
0.0
173
     0
291
     0
 45
0.0
1001
ACAD
1000
AcDbSavedByObjectVersion
1070
     0
  0
DICTIONARYVAR
  5
325
102
{ACAD_REACTORS
330
321
102
}
330
321
100
DictionaryVariables
280
     0
  1
1:1
  0
DICTIONARYVAR
  5
323
102
{ACAD_REACTORS
330
321
102
}
330
321
100
DictionaryVariables
280
     0
  1
STANDARD
  0
DICTIONARYVAR
  5
322
102
{ACAD_REACTORS
330
321
102
}
330
321
100
DictionaryVariables
280
     0
  1
STANDARD
  0
DICTIONARYVAR
  5
374
102
{ACAD_REACTORS
330
321
102
}
330
321
100
DictionaryVariables
280
     0
  1
1
  0
DICTIONARYVAR
  5
373
102
{ACAD_REACTORS
330
321
102
}
330
321
100
DictionaryVariables
280
     0
  1
1
  0
DICTIONARYVAR
  5
372
102
{ACAD_REACTORS
330
321
102
}
330
321
100
DictionaryVariables
280
     0
  1
0
  0
DICTIONARYVAR
  5
327
102
{ACAD_REACTORS
330
321
102
}
330
321
100
DictionaryVariables
280
     0
  1
1
  0
DICTIONARYVAR
  5
328
102
{ACAD_REACTORS
330
321
102
}
330
321
100
DictionaryVariables
280
     0
  1
15
  0
DICTIONARYVAR
  5
326
102
{ACAD_REACTORS
330
321
102
}
330
321
100
DictionaryVariables
280
     0
  1
0
  0
DICTIONARYVAR
  5
324
102
{ACAD_REACTORS
330
321
102
}
330
321
100
DictionaryVariables
280
     0
  1
0
  0
DICTIONARYVAR
  5
371
102
{ACAD_REACTORS
330
321
102
}
330
321
100
DictionaryVariables
280
     0
  1
127
  0
DICTIONARYVAR
  5
375
102
{ACAD_REACTORS
330
321
102
}
330
321
100
DictionaryVariables
280
     0
  1
2
  0
DICTIONARY
  5
2D5
102
{ACAD_REACTORS
330
2D4
102
}
330
2D4
100
AcDbDictionary
281
     1
  0
DICTIONARY
  5
2CF
102
{ACAD_REACTORS
330
2C5
102
}
330
2C5
100
AcDbDictionary
281
     1
  3
DWGSETTINGS
350
2CE
  3
TRANSSETTINGS
350
2D0
  0
DICTIONARY
  5
380
330
1A
100
AcDbDictionary
280
     1
281
     1
  3
ACAD_XREC_ROUNDTRIP
360
381
  0
DICTIONARY
  5
37E
330
15
100
AcDbDictionary
280
     1
281
     1
  3
ACAD_XREC_ROUNDTRIP
360
37F
  0
DICTIONARY
  5
3D
330
3C
100
AcDbDictionary
280
     1
281
     1
  3
ACAD_XREC_ROUNDTRIP
360
385
  3
BUMPTILE
360
3E
  3
DIFFUSETILE
360
3F
  3
OPACITYTILE
360
40
  3
REFLECTIONTILE
360
41
  3
REFRACTIONTILE
360
42
  3
SPECULARTILE
360
43
  0
DICTIONARY
  5
35
330
34
100
AcDbDictionary
280
     1
281
     1
  3
ACAD_XREC_ROUNDTRIP
360
384
  3
BUMPTILE
360
36
  3
DIFFUSETILE
360
37
  3
OPACITYTILE
360
38
  3
REFLECTIONTILE
360
39
  3
REFRACTIONTILE
360
3A
  3
SPECULARTILE
360
3B
  0
DICTIONARY
  5
C
330
A
100
AcDbDictionary
280
     1
281
     1
  3
ACAD_XREC_ROUNDTRIP
360
37D
  3
BUMPTILE
360
D
  3
DIFFUSETILE
360
E
  3
OPACITYTILE
360
F
  3
REFLECTIONTILE
360
10
  3
REFRACTIONTILE
360
11
  3
SPECULARTILE
360
12
  0
DICTIONARY
  5
4A
330
49
100
AcDbDictionary
280
     1
281
     1
  3
ACAD_ROUNDTRIP_2008_TABLESTYLE_CELLSTYLEMAP
360
376
  3
ACAD_XREC_ROUNDTRIP
360
386
  0
DICTIONARY
  5
382
330
2A
100
AcDbDictionary
280
     1
281
     1
  3
ACAD_XREC_ROUNDTRIP
360
383
  0
DICTIONARY
  5
399
330
32E
100
AcDbDictionary
280
     1
281
     1
  3
ACAD_XREC_ROUNDTRIP
360
39A
  0
DICTIONARY
  5
3A1
330
332
100
AcDbDictionary
280
     1
281
     1
  3
ACAD_XREC_ROUNDTRIP
360
3A2
  0
DICTIONARY
  5
3A9
330
336
100
AcDbDictionary
280
     1
281
     1
  3
ACAD_XREC_ROUNDTRIP
360
3AA
  0
DICTIONARY
  5
39D
330
330
100
AcDbDictionary
280
     1
281
     1
  3
ACAD_XREC_ROUNDTRIP
360
39E
  0
DICTIONARY
  5
39F
330
331
100
AcDbDictionary
280
     1
281
     1
  3
ACAD_XREC_ROUNDTRIP
360
3A0
  0
DICTIONARY
  5
3B9
330
33E
100
AcDbDictionary
280
     1
281
     1
  3
ACAD_XREC_ROUNDTRIP
360
3BA
  0
DICTIONARY
  5
3A7
330
335
100
AcDbDictionary
280
     1
281
     1
  3
ACAD_XREC_ROUNDTRIP
360
3A8
  0
DICTIONARY
  5
391
330
32A
100
AcDbDictionary
280
     1
281
     1
  3
ACAD_XREC_ROUNDTRIP
360
392
  0
DICTIONARY
  5
393
330
32B
100
AcDbDictionary
280
     1
281
     1
  3
ACAD_XREC_ROUNDTRIP
360
394
  0
DICTIONARY
  5
395
330
32C
100
AcDbDictionary
280
     1
281
     1
  3
ACAD_XREC_ROUNDTRIP
360
396
  0
DICTIONARY
  5
397
330
32D
100
AcDbDictionary
280
     1
281
     1
  3
ACAD_XREC_ROUNDTRIP
360
398
  0
DICTIONARY
  5
39B
330
32F
100
AcDbDictionary
280
     1
281
     1
  3
ACAD_XREC_ROUNDTRIP
360
39C
  0
DICTIONARY
  5
3B5
330
33C
100
AcDbDictionary
280
     1
281
     1
  3
ACAD_XREC_ROUNDTRIP
360
3B6
  0
DICTIONARY
  5
3A5
330
334
100
AcDbDictionary
280
     1
281
     1
  3
ACAD_XREC_ROUNDTRIP
360
3A6
  0
DICTIONARY
  5
3B7
330
33D
100
AcDbDictionary
280
     1
281
     1
  3
ACAD_XREC_ROUNDTRIP
360
3B8
  0
DICTIONARY
  5
387
330
4B
100
AcDbDictionary
280
     1
281
     1
  3
ACAD_XREC_ROUNDTRIP
360
388
  0
DICTIONARY
  5
3B3
330
33B
100
AcDbDictionary
280
     1
281
     1
  3
ACAD_XREC_ROUNDTRIP
360
3B4
  0
DICTIONARY
  5
3B1
330
33A
100
AcDbDictionary
280
     1
281
     1
  3
ACAD_XREC_ROUNDTRIP
360
3B2
  0
DICTIONARY
  5
3AB
330
337
100
AcDbDictionary
280
     1
281
     1
  3
ACAD_XREC_ROUNDTRIP
360
3AC
  0
DICTIONARY
  5
3AD
330
338
100
AcDbDictionary
280
     1
281
     1
  3
ACAD_XREC_ROUNDTRIP
360
3AE
  0
DICTIONARY
  5
3A3
330
333
100
AcDbDictionary
280
     1
281
     1
  3
ACAD_XREC_ROUNDTRIP
360
3A4
  0
DICTIONARY
  5
389
330
4C
100
AcDbDictionary
280
     1
281
     1
  3
ACAD_XREC_ROUNDTRIP
360
38A
  0
DICTIONARY
  5
3AF
330
339
100
AcDbDictionary
280
     1
281
     1
  3
ACAD_XREC_ROUNDTRIP
360
3B0
  0
XRECORD
  5
381
102
{ACAD_REACTORS
330
380
102
}
330
380
100
AcDbXrecord
280
     1
102
SHADEPLOT
 70
     0
102
SHADEPLOTRESLEVEL
 70
     2
102
SHADEPLOTCUSTOMDPI
 70
   300
  0
XRECORD
  5
37F
102
{ACAD_REACTORS
330
37E
102
}
330
37E
100
AcDbXrecord
280
     1
102
SHADEPLOT
 70
     0
102
SHADEPLOTRESLEVEL
 70
     2
102
SHADEPLOTCUSTOMDPI
 70
   300
  0
XRECORD
  5
385
102
{ACAD_REACTORS
330
3D
102
}
330
3D
100
AcDbXrecord
280
     1
102
MATERIAL
148
0.0
149
0.0
149
0.0
 93
        0
 94
      127
282
     0
 72
     0
 77
     0
171
     0
175
     0
179
     0
273
     0
  0
XRECORD
  5
3E
102
{ACAD_REACTORS
330
3D
102
}
330
3D
100
AcDbXrecord
280
     1
270
     1
271
     1
  0
XRECORD
  5
3F
102
{ACAD_REACTORS
330
3D
102
}
330
3D
100
AcDbXrecord
280
     1
270
     1
271
     1
  0
XRECORD
  5
40
102
{ACAD_REACTORS
330
3D
102
}
330
3D
100
AcDbXrecord
280
     1
270
     1
271
     1
  0
XRECORD
  5
41
102
{ACAD_REACTORS
330
3D
102
}
330
3D
100
AcDbXrecord
280
     1
270
     1
271
     1
  0
XRECORD
  5
42
102
{ACAD_REACTORS
330
3D
102
}
330
3D
100
AcDbXrecord
280
     1
270
     1
271
     1
  0
XRECORD
  5
43
102
{ACAD_REACTORS
330
3D
102
}
330
3D
100
AcDbXrecord
280
     1
270
     1
271
     1
  0
XRECORD
  5
384
102
{ACAD_REACTORS
330
35
102
}
330
35
100
AcDbXrecord
280
     1
102
MATERIAL
148
0.0
149
0.0
149
0.0
 93
        0
 94
      127
282
     0
 72
     0
 77
     0
171
     0
175
     0
179
     0
273
     0
  0
XRECORD
  5
36
102
{ACAD_REACTORS
330
35
102
}
330
35
100
AcDbXrecord
280
     1
270
     1
271
     1
  0
XRECORD
  5
37
102
{ACAD_REACTORS
330
35
102
}
330
35
100
AcDbXrecord
280
     1
270
     1
271
     1
  0
XRECORD
  5
38
102
{ACAD_REACTORS
330
35
102
}
330
35
100
AcDbXrecord
280
     1
270
     1
271
     1
  0
XRECORD
  5
39
102
{ACAD_REACTORS
330
35
102
}
330
35
100
AcDbXrecord
280
     1
270
     1
271
     1
  0
XRECORD
  5
3A
102
{ACAD_REACTORS
330
35
102
}
330
35
100
AcDbXrecord
280
     1
270
     1
271
     1
  0
XRECORD
  5
3B
102
{ACAD_REACTORS
330
35
102
}
330
35
100
AcDbXrecord
280
     1
270
     1
271
     1
  0
XRECORD
  5
37D
102
{ACAD_REACTORS
330
C
102
}
330
C
100
AcDbXrecord
280
     1
102
MATERIAL
148
0.0
149
0.0
149
0.0
 93
        0
 94
      127
282
     0
 72
     0
 77
     0
171
     0
175
     0
179
     0
273
     0
  0
XRECORD
  5
D
102
{ACAD_REACTORS
330
C
102
}
330
C
100
AcDbXrecord
280
     1
270
     1
271
     1
  0
XRECORD
  5
E
102
{ACAD_REACTORS
330
C
102
}
330
C
100
AcDbXrecord
280
     1
270
     1
271
     1
  0
XRECORD
  5
F
102
{ACAD_REACTORS
330
C
102
}
330
C
100
AcDbXrecord
280
     1
270
     1
271
     1
  0
XRECORD
  5
10
102
{ACAD_REACTORS
330
C
102
}
330
C
100
AcDbXrecord
280
     1
270
     1
271
     1
  0
XRECORD
  5
11
102
{ACAD_REACTORS
330
C
102
}
330
C
100
AcDbXrecord
280
     1
270
     1
271
     1
  0
XRECORD
  5
12
102
{ACAD_REACTORS
330
C
102
}
330
C
100
AcDbXrecord
280
     1
270
     1
271
     1
  0
CELLSTYLEMAP
  5
376
102
{ACAD_REACTORS
330
4A
102
}
330
4A
100
AcDbCellStyleMap
 90
        3
300
CELLSTYLE
  1
TABLEFORMAT_BEGIN
 90
        5
170
     1
 91
        0
 92
    32768
 62
   257
 93
        1
300
CONTENTFORMAT
  1
CONTENTFORMAT_BEGIN
 90
        0
 91
        0
 92
      512
 93
        0
300

 40
0.0
140
1.0
 94
        5
 62
     0
340
21
144
0.25
309
CONTENTFORMAT_END
171
     0
 94
        0
309
TABLEFORMAT_END
  1
CELLSTYLE_BEGIN
 90
        1
 91
        1
300
_TITLE
309
CELLSTYLE_END
300
CELLSTYLE
  1
TABLEFORMAT_BEGIN
 90
        5
170
     1
 91
        0
 92
        0
 62
   257
 93
        1
300
CONTENTFORMAT
  1
CONTENTFORMAT_BEGIN
 90
        0
 91
        0
 92
      512
 93
        0
300

 40
0.0
140
1.0
 94
        5
 62
     0
340
21
144
0.18
309
CONTENTFORMAT_END
171
     0
 94
        0
309
TABLEFORMAT_END
  1
CELLSTYLE_BEGIN
 90
        2
 91
        1
300
_HEADER
309
CELLSTYLE_END
300
CELLSTYLE
  1
TABLEFORMAT_BEGIN
 90
        5
170
     1
 91
        0
 92
        0
 62
   257
 93
        1
300
CONTENTFORMAT
  1
CONTENTFORMAT_BEGIN
 90
        0
 91
        0
 92
      512
 93
        0
300

 40
0.0
140
1.0
 94
        2
 62
     0
340
21
144
0.18
309
CONTENTFORMAT_END
171
     0
 94
        0
309
TABLEFORMAT_END
  1
CELLSTYLE_BEGIN
 90
        3
 91
        2
300
_DATA
309
CELLSTYLE_END
  0
XRECORD
  5
386
102
{ACAD_REACTORS
330
4A
102
}
330
4A
100
AcDbXrecord
280
     1
102
ACAD_ROUNDTRIP_PRE2007_TABLESTYLE
 90
      512
 91
        0
  1

 92
      512
 93
        0
  2

 94
      512
 95
        0
  3

  0
XRECORD
  5
383
102
{ACAD_REACTORS
330
382
102
}
330
382
100
AcDbXrecord
280
     1
102
RTVSPropertyOp0
 70
     1
102
RTVSPropertyOp1
 70
     1
102
RTVSPropertyOp2
 70
     1
102
RTVSPropertyOp3
 70
     1
102
RTVSPropertyOp4
 70
     1
102
RTVSPropertyOp5
 70
     1
102
RTVSPropertyOp6
 70
     1
102
RTVSPropertyOp7
 70
     1
102
RTVSPropertyOp8
 70
     1
102
RTVSPropertyOp9
 70
     1
102
RTVSPropertyOp10
 70
     1
102
RTVSPropertyOp11
 70
     1
102
RTVSPropertyOp12
 70
     1
102
RTVSPropertyOp13
 70
     1
102
RTVSPropertyOp14
 70
     1
102
RTVSPropertyOp15
 70
     1
102
RTVSPropertyOp16
 70
     1
102
RTVSPropertyOp17
 70
     1
102
RTVSPropertyOp18
 70
     1
102
RTVSPropertyOp19
 70
     1
102
RTVSPropertyOp20
 70
     1
102
RTVSPropertyOp21
 70
     1
102
RTVSPropertyOp22
 70
     1
102
RTVSPropertyOp23
 70
     1
102
RTVSPropertyOp24
 70
     1
102
RTVSPropertyOp25
 70
     1
102
RTVSPropertyOp26
 70
     1
102
RTVSPropertyOp27
 70
     1
102
RTVSPropertyOp28
 70
     1
102
RTVSPropertyOp29
 70
     1
102
RTVSPropertyOp30
 70
     1
102
RTVSPropertyOp31
 70
     1
102
RTVSPropertyOp32
 70
     1
  0
XRECORD
  5
39A
102
{ACAD_REACTORS
330
399
102
}
330
399
100
AcDbXrecord
280
     1
102
RTVSPropertyOp0
 70
     1
102
RTVSPropertyOp1
 70
     1
102
RTVSPropertyOp2
 70
     1
102
RTVSPropertyOp3
 70
     1
102
RTVSPropertyOp4
 70
     1
102
RTVSPropertyOp5
 70
     1
102
RTVSPropertyOp6
 70
     1
102
RTVSPropertyOp7
 70
     1
102
RTVSPropertyOp8
 70
     1
102
RTVSPropertyOp9
 70
     1
102
RTVSPropertyOp10
 70
     1
102
RTVSPropertyOp11
 70
     1
102
RTVSPropertyOp12
 70
     1
102
RTVSPropertyOp13
 70
     1
102
RTVSPropertyOp14
 70
     1
102
RTVSPropertyOp15
 70
     1
102
RTVSPropertyOp16
 70
     1
102
RTVSPropertyOp17
 70
     1
102
RTVSPropertyOp18
 70
     1
102
RTVSPropertyOp19
 70
     1
102
RTVSPropertyOp20
 70
     1
102
RTVSPropertyOp21
 70
     1
102
RTVSPropertyOp22
 70
     1
102
RTVSPropertyOp23
 70
     1
102
RTVSPropertyOp24
 70
     1
102
RTVSPropertyOp25
 70
     1
102
RTVSPropertyOp26
 70
     1
102
RTVSPropertyOp27
 70
     1
102
RTVSPropertyOp28
 70
     1
102
RTVSPropertyOp29
 70
     1
102
RTVSPropertyOp30
 70
     1
102
RTVSPropertyOp31
 70
     1
102
RTVSPropertyOp32
 70
     1
  0
XRECORD
  5
3A2
102
{ACAD_REACTORS
330
3A1
102
}
330
3A1
100
AcDbXrecord
280
     1
102
RTVSPropertyOp0
 70
     1
102
RTVSPropertyOp1
 70
     1
102
RTVSPropertyOp2
 70
     1
102
RTVSPropertyOp3
 70
     1
102
RTVSPropertyOp4
 70
     1
102
RTVSPropertyOp5
 70
     1
102
RTVSPropertyOp6
 70
     1
102
RTVSPropertyOp7
 70
     1
102
RTVSPropertyOp8
 70
     1
102
RTVSPropertyOp9
 70
     1
102
RTVSPropertyOp10
 70
     1
102
RTVSPropertyOp11
 70
     1
102
RTVSPropertyOp12
 70
     1
102
RTVSPropertyOp13
 70
     1
102
RTVSPropertyOp14
 70
     1
102
RTVSPropertyOp15
 70
     1
102
RTVSPropertyOp16
 70
     1
102
RTVSPropertyOp17
 70
     1
102
RTVSPropertyOp18
 70
     1
102
RTVSPropertyOp19
 70
     1
102
RTVSPropertyOp20
 70
     1
102
RTVSPropertyOp21
 70
     1
102
RTVSPropertyOp22
 70
     1
102
RTVSPropertyOp23
 70
     1
102
RTVSPropertyOp24
 70
     1
102
RTVSPropertyOp25
 70
     1
102
RTVSPropertyOp26
 70
     1
102
RTVSPropertyOp27
 70
     1
102
RTVSPropertyOp28
 70
     1
102
RTVSPropertyOp29
 70
     1
102
RTVSPropertyOp30
 70
     1
102
RTVSPropertyOp31
 70
     1
102
RTVSPropertyOp32
 70
     1
  0
XRECORD
  5
3AA
102
{ACAD_REACTORS
330
3A9
102
}
330
3A9
100
AcDbXrecord
280
     1
102
RTVSPropertyOp0
 70
     1
102
RTVSPropertyOp1
 70
     1
102
RTVSPropertyOp2
 70
     1
102
RTVSPropertyOp3
 70
     1
102
RTVSPropertyOp4
 70
     1
102
RTVSPropertyOp5
 70
     1
102
RTVSPropertyOp6
 70
     1
102
RTVSPropertyOp7
 70
     1
102
RTVSPropertyOp8
 70
     1
102
RTVSPropertyOp9
 70
     1
102
RTVSPropertyOp10
 70
     1
102
RTVSPropertyOp11
 70
     1
102
RTVSPropertyOp12
 70
     1
102
RTVSPropertyOp13
 70
     1
102
RTVSPropertyOp14
 70
     1
102
RTVSPropertyOp15
 70
     1
102
RTVSPropertyOp16
 70
     1
102
RTVSPropertyOp17
 70
     1
102
RTVSPropertyOp18
 70
     1
102
RTVSPropertyOp19
 70
     1
102
RTVSPropertyOp20
 70
     1
102
RTVSPropertyOp21
 70
     1
102
RTVSPropertyOp22
 70
     1
102
RTVSPropertyOp23
 70
     1
102
RTVSPropertyOp24
 70
     1
102
RTVSPropertyOp25
 70
     1
102
RTVSPropertyOp26
 70
     1
102
RTVSPropertyOp27
 70
     1
102
RTVSPropertyOp28
 70
     1
102
RTVSPropertyOp29
 70
     1
102
RTVSPropertyOp30
 70
     1
102
RTVSPropertyOp31
 70
     1
102
RTVSPropertyOp32
 70
     1
  0
XRECORD
  5
39E
102
{ACAD_REACTORS
330
39D
102
}
330
39D
100
AcDbXrecord
280
     1
102
RTVSPropertyOp0
 70
     1
102
RTVSPropertyOp1
 70
     1
102
RTVSPropertyOp2
 70
     1
102
RTVSPropertyOp3
 70
     1
102
RTVSPropertyOp4
 70
     1
102
RTVSPropertyOp5
 70
     1
102
RTVSPropertyOp6
 70
     1
102
RTVSPropertyOp7
 70
     1
102
RTVSPropertyOp8
 70
     1
102
RTVSPropertyOp9
 70
     1
102
RTVSPropertyOp10
 70
     1
102
RTVSPropertyOp11
 70
     1
102
RTVSPropertyOp12
 70
     1
102
RTVSPropertyOp13
 70
     1
102
RTVSPropertyOp14
 70
     1
102
RTVSPropertyOp15
 70
     1
102
RTVSPropertyOp16
 70
     1
102
RTVSPropertyOp17
 70
     1
102
RTVSPropertyOp18
 70
     1
102
RTVSPropertyOp19
 70
     1
102
RTVSPropertyOp20
 70
     1
102
RTVSPropertyOp21
 70
     1
102
RTVSPropertyOp22
 70
     1
102
RTVSPropertyOp23
 70
     1
102
RTVSPropertyOp24
 70
     1
102
RTVSPropertyOp25
 70
     1
102
RTVSPropertyOp26
 70
     1
102
RTVSPropertyOp27
 70
     1
102
RTVSPropertyOp28
 70
     1
102
RTVSPropertyOp29
 70
     1
102
RTVSPropertyOp30
 70
     1
102
RTVSPropertyOp31
 70
     1
102
RTVSPropertyOp32
 70
     1
  0
XRECORD
  5
3A0
102
{ACAD_REACTORS
330
39F
102
}
330
39F
100
AcDbXrecord
280
     1
102
RTVSPropertyOp0
 70
     1
102
RTVSPropertyOp1
 70
     1
102
RTVSPropertyOp2
 70
     1
102
RTVSPropertyOp3
 70
     1
102
RTVSPropertyOp4
 70
     1
102
RTVSPropertyOp5
 70
     1
102
RTVSPropertyOp6
 70
     1
102
RTVSPropertyOp7
 70
     1
102
RTVSPropertyOp8
 70
     1
102
RTVSPropertyOp9
 70
     1
102
RTVSPropertyOp10
 70
     1
102
RTVSPropertyOp11
 70
     1
102
RTVSPropertyOp12
 70
     1
102
RTVSPropertyOp13
 70
     1
102
RTVSPropertyOp14
 70
     1
102
RTVSPropertyOp15
 70
     1
102
RTVSPropertyOp16
 70
     1
102
RTVSPropertyOp17
 70
     1
102
RTVSPropertyOp18
 70
     1
102
RTVSPropertyOp19
 70
     1
102
RTVSPropertyOp20
 70
     1
102
RTVSPropertyOp21
 70
     1
102
RTVSPropertyOp22
 70
     1
102
RTVSPropertyOp23
 70
     1
102
RTVSPropertyOp24
 70
     1
102
RTVSPropertyOp25
 70
     1
102
RTVSPropertyOp26
 70
     1
102
RTVSPropertyOp27
 70
     1
102
RTVSPropertyOp28
 70
     1
102
RTVSPropertyOp29
 70
     1
102
RTVSPropertyOp30
 70
     1
102
RTVSPropertyOp31
 70
     1
102
RTVSPropertyOp32
 70
     1
  0
XRECORD
  5
3BA
102
{ACAD_REACTORS
330
3B9
102
}
330
3B9
100
AcDbXrecord
280
     1
102
RTVSPropertyOp0
 70
     0
102
RTVSPropertyOp1
 70
     0
102
RTVSPropertyOp2
 70
     0
102
RTVSPropertyOp3
 70
     0
102
RTVSPropertyOp4
 70
     0
102
RTVSPropertyOp5
 70
     0
102
RTVSPropertyOp6
 70
     0
102
RTVSPropertyOp7
 70
     0
102
RTVSPropertyOp8
 70
     0
102
RTVSPropertyOp9
 70
     0
102
RTVSPropertyOp10
 70
     0
102
RTVSPropertyOp11
 70
     0
102
RTVSPropertyOp12
 70
     0
102
RTVSPropertyOp13
 70
     0
102
RTVSPropertyOp14
 70
     2
102
RTVSPropertyOp15
 70
     0
102
RTVSPropertyOp16
 70
     0
102
RTVSPropertyOp17
 70
     0
102
RTVSPropertyOp18
 70
     0
102
RTVSPropertyOp19
 70
     0
102
RTVSPropertyOp20
 70
     0
102
RTVSPropertyOp21
 70
     0
102
RTVSPropertyOp22
 70
     0
102
RTVSPropertyOp23
 70
     0
102
RTVSPropertyOp24
 70
     0
102
RTVSPropertyOp25
 70
     0
102
RTVSPropertyOp26
 70
     0
102
RTVSPropertyOp27
 70
     0
102
RTVSPropertyOp28
 70
     0
102
RTVSPropertyOp29
 70
     0
102
RTVSPropertyOp30
 70
     0
102
RTVSPropertyOp31
 70
     0
102
RTVSPropertyOp32
 70
     0
  0
XRECORD
  5
3A8
102
{ACAD_REACTORS
330
3A7
102
}
330
3A7
100
AcDbXrecord
280
     1
102
RTVSPropertyOp0
 70
     1
102
RTVSPropertyOp1
 70
     1
102
RTVSPropertyOp2
 70
     1
102
RTVSPropertyOp3
 70
     1
102
RTVSPropertyOp4
 70
     1
102
RTVSPropertyOp5
 70
     1
102
RTVSPropertyOp6
 70
     1
102
RTVSPropertyOp7
 70
     1
102
RTVSPropertyOp8
 70
     1
102
RTVSPropertyOp9
 70
     1
102
RTVSPropertyOp10
 70
     1
102
RTVSPropertyOp11
 70
     1
102
RTVSPropertyOp12
 70
     1
102
RTVSPropertyOp13
 70
     1
102
RTVSPropertyOp14
 70
     1
102
RTVSPropertyOp15
 70
     1
102
RTVSPropertyOp16
 70
     1
102
RTVSPropertyOp17
 70
     1
102
RTVSPropertyOp18
 70
     1
102
RTVSPropertyOp19
 70
     1
102
RTVSPropertyOp20
 70
     1
102
RTVSPropertyOp21
 70
     1
102
RTVSPropertyOp22
 70
     1
102
RTVSPropertyOp23
 70
     1
102
RTVSPropertyOp24
 70
     1
102
RTVSPropertyOp25
 70
     1
102
RTVSPropertyOp26
 70
     1
102
RTVSPropertyOp27
 70
     1
102
RTVSPropertyOp28
 70
     1
102
RTVSPropertyOp29
 70
     1
102
RTVSPropertyOp30
 70
     1
102
RTVSPropertyOp31
 70
     1
102
RTVSPropertyOp32
 70
     1
  0
XRECORD
  5
392
102
{ACAD_REACTORS
330
391
102
}
330
391
100
AcDbXrecord
280
     1
102
RTVSPropertyOp0
 70
     1
102
RTVSPropertyOp1
 70
     1
102
RTVSPropertyOp2
 70
     1
102
RTVSPropertyOp3
 70
     1
102
RTVSPropertyOp4
 70
     1
102
RTVSPropertyOp5
 70
     1
102
RTVSPropertyOp6
 70
     1
102
RTVSPropertyOp7
 70
     1
102
RTVSPropertyOp8
 70
     1
102
RTVSPropertyOp9
 70
     1
102
RTVSPropertyOp10
 70
     1
102
RTVSPropertyOp11
 70
     1
102
RTVSPropertyOp12
 70
     1
102
RTVSPropertyOp13
 70
     1
102
RTVSPropertyOp14
 70
     1
102
RTVSPropertyOp15
 70
     1
102
RTVSPropertyOp16
 70
     1
102
RTVSPropertyOp17
 70
     1
102
RTVSPropertyOp18
 70
     1
102
RTVSPropertyOp19
 70
     1
102
RTVSPropertyOp20
 70
     1
102
RTVSPropertyOp21
 70
     1
102
RTVSPropertyOp22
 70
     1
102
RTVSPropertyOp23
 70
     1
102
RTVSPropertyOp24
 70
     1
102
RTVSPropertyOp25
 70
     1
102
RTVSPropertyOp26
 70
     1
102
RTVSPropertyOp27
 70
     1
102
RTVSPropertyOp28
 70
     1
102
RTVSPropertyOp29
 70
     1
102
RTVSPropertyOp30
 70
     1
102
RTVSPropertyOp31
 70
     1
102
RTVSPropertyOp32
 70
     1
  0
XRECORD
  5
394
102
{ACAD_REACTORS
330
393
102
}
330
393
100
AcDbXrecord
280
     1
102
RTVSPropertyOp0
 70
     1
102
RTVSPropertyOp1
 70
     1
102
RTVSPropertyOp2
 70
     1
102
RTVSPropertyOp3
 70
     1
102
RTVSPropertyOp4
 70
     1
102
RTVSPropertyOp5
 70
     1
102
RTVSPropertyOp6
 70
     1
102
RTVSPropertyOp7
 70
     1
102
RTVSPropertyOp8
 70
     1
102
RTVSPropertyOp9
 70
     1
102
RTVSPropertyOp10
 70
     1
102
RTVSPropertyOp11
 70
     1
102
RTVSPropertyOp12
 70
     1
102
RTVSPropertyOp13
 70
     1
102
RTVSPropertyOp14
 70
     1
102
RTVSPropertyOp15
 70
     1
102
RTVSPropertyOp16
 70
     1
102
RTVSPropertyOp17
 70
     1
102
RTVSPropertyOp18
 70
     1
102
RTVSPropertyOp19
 70
     1
102
RTVSPropertyOp20
 70
     1
102
RTVSPropertyOp21
 70
     1
102
RTVSPropertyOp22
 70
     1
102
RTVSPropertyOp23
 70
     1
102
RTVSPropertyOp24
 70
     1
102
RTVSPropertyOp25
 70
     1
102
RTVSPropertyOp26
 70
     1
102
RTVSPropertyOp27
 70
     1
102
RTVSPropertyOp28
 70
     1
102
RTVSPropertyOp29
 70
     1
102
RTVSPropertyOp30
 70
     1
102
RTVSPropertyOp31
 70
     1
102
RTVSPropertyOp32
 70
     1
  0
XRECORD
  5
396
102
{ACAD_REACTORS
330
395
102
}
330
395
100
AcDbXrecord
280
     1
102
RTVSPropertyOp0
 70
     1
102
RTVSPropertyOp1
 70
     1
102
RTVSPropertyOp2
 70
     1
102
RTVSPropertyOp3
 70
     1
102
RTVSPropertyOp4
 70
     1
102
RTVSPropertyOp5
 70
     1
102
RTVSPropertyOp6
 70
     1
102
RTVSPropertyOp7
 70
     1
102
RTVSPropertyOp8
 70
     1
102
RTVSPropertyOp9
 70
     1
102
RTVSPropertyOp10
 70
     1
102
RTVSPropertyOp11
 70
     1
102
RTVSPropertyOp12
 70
     1
102
RTVSPropertyOp13
 70
     1
102
RTVSPropertyOp14
 70
     1
102
RTVSPropertyOp15
 70
     1
102
RTVSPropertyOp16
 70
     1
102
RTVSPropertyOp17
 70
     1
102
RTVSPropertyOp18
 70
     1
102
RTVSPropertyOp19
 70
     1
102
RTVSPropertyOp20
 70
     1
102
RTVSPropertyOp21
 70
     1
102
RTVSPropertyOp22
 70
     1
102
RTVSPropertyOp23
 70
     1
102
RTVSPropertyOp24
 70
     1
102
RTVSPropertyOp25
 70
     1
102
RTVSPropertyOp26
 70
     1
102
RTVSPropertyOp27
 70
     1
102
RTVSPropertyOp28
 70
     1
102
RTVSPropertyOp29
 70
     1
102
RTVSPropertyOp30
 70
     1
102
RTVSPropertyOp31
 70
     1
102
RTVSPropertyOp32
 70
     1
  0
XRECORD
  5
398
102
{ACAD_REACTORS
330
397
102
}
330
397
100
AcDbXrecord
280
     1
102
RTVSPropertyOp0
 70
     1
102
RTVSPropertyOp1
 70
     1
102
RTVSPropertyOp2
 70
     1
102
RTVSPropertyOp3
 70
     1
102
RTVSPropertyOp4
 70
     1
102
RTVSPropertyOp5
 70
     1
102
RTVSPropertyOp6
 70
     1
102
RTVSPropertyOp7
 70
     1
102
RTVSPropertyOp8
 70
     1
102
RTVSPropertyOp9
 70
     1
102
RTVSPropertyOp10
 70
     1
102
RTVSPropertyOp11
 70
     1
102
RTVSPropertyOp12
 70
     1
102
RTVSPropertyOp13
 70
     1
102
RTVSPropertyOp14
 70
     1
102
RTVSPropertyOp15
 70
     1
102
RTVSPropertyOp16
 70
     1
102
RTVSPropertyOp17
 70
     1
102
RTVSPropertyOp18
 70
     1
102
RTVSPropertyOp19
 70
     1
102
RTVSPropertyOp20
 70
     1
102
RTVSPropertyOp21
 70
     1
102
RTVSPropertyOp22
 70
     1
102
RTVSPropertyOp23
 70
     1
102
RTVSPropertyOp24
 70
     1
102
RTVSPropertyOp25
 70
     1
102
RTVSPropertyOp26
 70
     1
102
RTVSPropertyOp27
 70
     1
102
RTVSPropertyOp28
 70
     1
102
RTVSPropertyOp29
 70
     1
102
RTVSPropertyOp30
 70
     1
102
RTVSPropertyOp31
 70
     1
102
RTVSPropertyOp32
 70
     1
  0
XRECORD
  5
39C
102
{ACAD_REACTORS
330
39B
102
}
330
39B
100
AcDbXrecord
280
     1
102
RTVSPropertyOp0
 70
     1
102
RTVSPropertyOp1
 70
     1
102
RTVSPropertyOp2
 70
     1
102
RTVSPropertyOp3
 70
     1
102
RTVSPropertyOp4
 70
     1
102
RTVSPropertyOp5
 70
     1
102
RTVSPropertyOp6
 70
     1
102
RTVSPropertyOp7
 70
     1
102
RTVSPropertyOp8
 70
     1
102
RTVSPropertyOp9
 70
     1
102
RTVSPropertyOp10
 70
     1
102
RTVSPropertyOp11
 70
     1
102
RTVSPropertyOp12
 70
     1
102
RTVSPropertyOp13
 70
     1
102
RTVSPropertyOp14
 70
     1
102
RTVSPropertyOp15
 70
     1
102
RTVSPropertyOp16
 70
     1
102
RTVSPropertyOp17
 70
     1
102
RTVSPropertyOp18
 70
     1
102
RTVSPropertyOp19
 70
     1
102
RTVSPropertyOp20
 70
     1
102
RTVSPropertyOp21
 70
     1
102
RTVSPropertyOp22
 70
     1
102
RTVSPropertyOp23
 70
     1
102
RTVSPropertyOp24
 70
     1
102
RTVSPropertyOp25
 70
     1
102
RTVSPropertyOp26
 70
     1
102
RTVSPropertyOp27
 70
     1
102
RTVSPropertyOp28
 70
     1
102
RTVSPropertyOp29
 70
     1
102
RTVSPropertyOp30
 70
     1
102
RTVSPropertyOp31
 70
     1
102
RTVSPropertyOp32
 70
     1
  0
XRECORD
  5
3B6
102
{ACAD_REACTORS
330
3B5
102
}
330
3B5
100
AcDbXrecord
280
     1
102
RTVSPropertyOp0
 70
     0
102
RTVSPropertyOp1
 70
     0
102
RTVSPropertyOp2
 70
     0
102
RTVSPropertyOp3
 70
     0
102
RTVSPropertyOp4
 70
     0
102
RTVSPropertyOp5
 70
     0
102
RTVSPropertyOp6
 70
     0
102
RTVSPropertyOp7
 70
     0
102
RTVSPropertyOp8
 70
     0
102
RTVSPropertyOp9
 70
     0
102
RTVSPropertyOp10
 70
     0
102
RTVSPropertyOp11
 70
     0
102
RTVSPropertyOp12
 70
     0
102
RTVSPropertyOp13
 70
     0
102
RTVSPropertyOp14
 70
     2
102
RTVSPropertyOp15
 70
     0
102
RTVSPropertyOp16
 70
     0
102
RTVSPropertyOp17
 70
     0
102
RTVSPropertyOp18
 70
     0
102
RTVSPropertyOp19
 70
     0
102
RTVSPropertyOp20
 70
     0
102
RTVSPropertyOp21
 70
     0
102
RTVSPropertyOp22
 70
     0
102
RTVSPropertyOp23
 70
     0
102
RTVSPropertyOp24
 70
     0
102
RTVSPropertyOp25
 70
     0
102
RTVSPropertyOp26
 70
     0
102
RTVSPropertyOp27
 70
     0
102
RTVSPropertyOp28
 70
     0
102
RTVSPropertyOp29
 70
     0
102
RTVSPropertyOp30
 70
     0
102
RTVSPropertyOp31
 70
     0
102
RTVSPropertyOp32
 70
     0
  0
XRECORD
  5
3A6
102
{ACAD_REACTORS
330
3A5
102
}
330
3A5
100
AcDbXrecord
280
     1
102
RTVSPropertyOp0
 70
     1
102
RTVSPropertyOp1
 70
     1
102
RTVSPropertyOp2
 70
     1
102
RTVSPropertyOp3
 70
     1
102
RTVSPropertyOp4
 70
     1
102
RTVSPropertyOp5
 70
     1
102
RTVSPropertyOp6
 70
     1
102
RTVSPropertyOp7
 70
     1
102
RTVSPropertyOp8
 70
     1
102
RTVSPropertyOp9
 70
     1
102
RTVSPropertyOp10
 70
     1
102
RTVSPropertyOp11
 70
     1
102
RTVSPropertyOp12
 70
     1
102
RTVSPropertyOp13
 70
     1
102
RTVSPropertyOp14
 70
     1
102
RTVSPropertyOp15
 70
     1
102
RTVSPropertyOp16
 70
     1
102
RTVSPropertyOp17
 70
     1
102
RTVSPropertyOp18
 70
     1
102
RTVSPropertyOp19
 70
     1
102
RTVSPropertyOp20
 70
     1
102
RTVSPropertyOp21
 70
     1
102
RTVSPropertyOp22
 70
     1
102
RTVSPropertyOp23
 70
     1
102
RTVSPropertyOp24
 70
     1
102
RTVSPropertyOp25
 70
     1
102
RTVSPropertyOp26
 70
     1
102
RTVSPropertyOp27
 70
     1
102
RTVSPropertyOp28
 70
     1
102
RTVSPropertyOp29
 70
     1
102
RTVSPropertyOp30
 70
     1
102
RTVSPropertyOp31
 70
     1
102
RTVSPropertyOp32
 70
     1
  0
XRECORD
  5
3B8
102
{ACAD_REACTORS
330
3B7
102
}
330
3B7
100
AcDbXrecord
280
     1
102
RTVSPropertyOp0
 70
     0
102
RTVSPropertyOp1
 70
     0
102
RTVSPropertyOp2
 70
     0
102
RTVSPropertyOp3
 70
     0
102
RTVSPropertyOp4
 70
     0
102
RTVSPropertyOp5
 70
     0
102
RTVSPropertyOp6
 70
     0
102
RTVSPropertyOp7
 70
     0
102
RTVSPropertyOp8
 70
     0
102
RTVSPropertyOp9
 70
     0
102
RTVSPropertyOp10
 70
     0
102
RTVSPropertyOp11
 70
     0
102
RTVSPropertyOp12
 70
     0
102
RTVSPropertyOp13
 70
     0
102
RTVSPropertyOp14
 70
     2
102
RTVSPropertyOp15
 70
     0
102
RTVSPropertyOp16
 70
     0
102
RTVSPropertyOp17
 70
     0
102
RTVSPropertyOp18
 70
     0
102
RTVSPropertyOp19
 70
     0
102
RTVSPropertyOp20
 70
     0
102
RTVSPropertyOp21
 70
     0
102
RTVSPropertyOp22
 70
     0
102
RTVSPropertyOp23
 70
     0
102
RTVSPropertyOp24
 70
     0
102
RTVSPropertyOp25
 70
     0
102
RTVSPropertyOp26
 70
     0
102
RTVSPropertyOp27
 70
     0
102
RTVSPropertyOp28
 70
     0
102
RTVSPropertyOp29
 70
     0
102
RTVSPropertyOp30
 70
     0
102
RTVSPropertyOp31
 70
     0
102
RTVSPropertyOp32
 70
     0
  0
XRECORD
  5
388
102
{ACAD_REACTORS
330
387
102
}
330
387
100
AcDbXrecord
280
     1
102
RTVSPropertyOp0
 70
     1
102
RTVSPropertyOp1
 70
     1
102
RTVSPropertyOp2
 70
     1
102
RTVSPropertyOp3
 70
     1
102
RTVSPropertyOp4
 70
     1
102
RTVSPropertyOp5
 70
     1
102
RTVSPropertyOp6
 70
     1
102
RTVSPropertyOp7
 70
     1
102
RTVSPropertyOp8
 70
     1
102
RTVSPropertyOp9
 70
     1
102
RTVSPropertyOp10
 70
     1
102
RTVSPropertyOp11
 70
     1
102
RTVSPropertyOp12
 70
     1
102
RTVSPropertyOp13
 70
     1
102
RTVSPropertyOp14
 70
     1
102
RTVSPropertyOp15
 70
     1
102
RTVSPropertyOp16
 70
     1
102
RTVSPropertyOp17
 70
     1
102
RTVSPropertyOp18
 70
     1
102
RTVSPropertyOp19
 70
     1
102
RTVSPropertyOp20
 70
     1
102
RTVSPropertyOp21
 70
     1
102
RTVSPropertyOp22
 70
     1
102
RTVSPropertyOp23
 70
     1
102
RTVSPropertyOp24
 70
     1
102
RTVSPropertyOp25
 70
     1
102
RTVSPropertyOp26
 70
     1
102
RTVSPropertyOp27
 70
     1
102
RTVSPropertyOp28
 70
     1
102
RTVSPropertyOp29
 70
     1
102
RTVSPropertyOp30
 70
     1
102
RTVSPropertyOp31
 70
     1
102
RTVSPropertyOp32
 70
     1
  0
XRECORD
  5
3B4
102
{ACAD_REACTORS
330
3B3
102
}
330
3B3
100
AcDbXrecord
280
     1
102
RTVSPropertyOp0
 70
     1
102
RTVSPropertyOp1
 70
     1
102
RTVSPropertyOp2
 70
     1
102
RTVSPropertyOp3
 70
     1
102
RTVSPropertyOp4
 70
     1
102
RTVSPropertyOp5
 70
     1
102
RTVSPropertyOp6
 70
     1
102
RTVSPropertyOp7
 70
     1
102
RTVSPropertyOp8
 70
     1
102
RTVSPropertyOp9
 70
     1
102
RTVSPropertyOp10
 70
     1
102
RTVSPropertyOp11
 70
     1
102
RTVSPropertyOp12
 70
     1
102
RTVSPropertyOp13
 70
     1
102
RTVSPropertyOp14
 70
     1
102
RTVSPropertyOp15
 70
     1
102
RTVSPropertyOp16
 70
     1
102
RTVSPropertyOp17
 70
     1
102
RTVSPropertyOp18
 70
     1
102
RTVSPropertyOp19
 70
     1
102
RTVSPropertyOp20
 70
     1
102
RTVSPropertyOp21
 70
     1
102
RTVSPropertyOp22
 70
     1
102
RTVSPropertyOp23
 70
     1
102
RTVSPropertyOp24
 70
     1
102
RTVSPropertyOp25
 70
     1
102
RTVSPropertyOp26
 70
     1
102
RTVSPropertyOp27
 70
     1
102
RTVSPropertyOp28
 70
     1
102
RTVSPropertyOp29
 70
     1
102
RTVSPropertyOp30
 70
     1
102
RTVSPropertyOp31
 70
     1
102
RTVSPropertyOp32
 70
     1
  0
XRECORD
  5
3B2
102
{ACAD_REACTORS
330
3B1
102
}
330
3B1
100
AcDbXrecord
280
     1
102
RTVSPropertyOp0
 70
     1
102
RTVSPropertyOp1
 70
     1
102
RTVSPropertyOp2
 70
     1
102
RTVSPropertyOp3
 70
     1
102
RTVSPropertyOp4
 70
     1
102
RTVSPropertyOp5
 70
     1
102
RTVSPropertyOp6
 70
     1
102
RTVSPropertyOp7
 70
     1
102
RTVSPropertyOp8
 70
     1
102
RTVSPropertyOp9
 70
     1
102
RTVSPropertyOp10
 70
     1
102
RTVSPropertyOp11
 70
     1
102
RTVSPropertyOp12
 70
     1
102
RTVSPropertyOp13
 70
     1
102
RTVSPropertyOp14
 70
     1
102
RTVSPropertyOp15
 70
     1
102
RTVSPropertyOp16
 70
     1
102
RTVSPropertyOp17
 70
     1
102
RTVSPropertyOp18
 70
     1
102
RTVSPropertyOp19
 70
     1
102
RTVSPropertyOp20
 70
     1
102
RTVSPropertyOp21
 70
     1
102
RTVSPropertyOp22
 70
     1
102
RTVSPropertyOp23
 70
     1
102
RTVSPropertyOp24
 70
     1
102
RTVSPropertyOp25
 70
     1
102
RTVSPropertyOp26
 70
     1
102
RTVSPropertyOp27
 70
     1
102
RTVSPropertyOp28
 70
     1
102
RTVSPropertyOp29
 70
     1
102
RTVSPropertyOp30
 70
     1
102
RTVSPropertyOp31
 70
     1
102
RTVSPropertyOp32
 70
     1
  0
XRECORD
  5
3AC
102
{ACAD_REACTORS
330
3AB
102
}
330
3AB
100
AcDbXrecord
280
     1
102
RTVSPropertyOp0
 70
     1
102
RTVSPropertyOp1
 70
     1
102
RTVSPropertyOp2
 70
     1
102
RTVSPropertyOp3
 70
     1
102
RTVSPropertyOp4
 70
     1
102
RTVSPropertyOp5
 70
     1
102
RTVSPropertyOp6
 70
     1
102
RTVSPropertyOp7
 70
     1
102
RTVSPropertyOp8
 70
     1
102
RTVSPropertyOp9
 70
     1
102
RTVSPropertyOp10
 70
     1
102
RTVSPropertyOp11
 70
     1
102
RTVSPropertyOp12
 70
     1
102
RTVSPropertyOp13
 70
     1
102
RTVSPropertyOp14
 70
     1
102
RTVSPropertyOp15
 70
     1
102
RTVSPropertyOp16
 70
     1
102
RTVSPropertyOp17
 70
     1
102
RTVSPropertyOp18
 70
     1
102
RTVSPropertyOp19
 70
     1
102
RTVSPropertyOp20
 70
     1
102
RTVSPropertyOp21
 70
     1
102
RTVSPropertyOp22
 70
     1
102
RTVSPropertyOp23
 70
     1
102
RTVSPropertyOp24
 70
     1
102
RTVSPropertyOp25
 70
     1
102
RTVSPropertyOp26
 70
     1
102
RTVSPropertyOp27
 70
     1
102
RTVSPropertyOp28
 70
     1
102
RTVSPropertyOp29
 70
     1
102
RTVSPropertyOp30
 70
     1
102
RTVSPropertyOp31
 70
     1
102
RTVSPropertyOp32
 70
     1
  0
XRECORD
  5
3AE
102
{ACAD_REACTORS
330
3AD
102
}
330
3AD
100
AcDbXrecord
280
     1
102
RTVSPropertyOp0
 70
     1
102
RTVSPropertyOp1
 70
     1
102
RTVSPropertyOp2
 70
     1
102
RTVSPropertyOp3
 70
     1
102
RTVSPropertyOp4
 70
     1
102
RTVSPropertyOp5
 70
     1
102
RTVSPropertyOp6
 70
     1
102
RTVSPropertyOp7
 70
     1
102
RTVSPropertyOp8
 70
     1
102
RTVSPropertyOp9
 70
     1
102
RTVSPropertyOp10
 70
     1
102
RTVSPropertyOp11
 70
     1
102
RTVSPropertyOp12
 70
     1
102
RTVSPropertyOp13
 70
     1
102
RTVSPropertyOp14
 70
     1
102
RTVSPropertyOp15
 70
     1
102
RTVSPropertyOp16
 70
     1
102
RTVSPropertyOp17
 70
     1
102
RTVSPropertyOp18
 70
     1
102
RTVSPropertyOp19
 70
     1
102
RTVSPropertyOp20
 70
     1
102
RTVSPropertyOp21
 70
     1
102
RTVSPropertyOp22
 70
     1
102
RTVSPropertyOp23
 70
     1
102
RTVSPropertyOp24
 70
     1
102
RTVSPropertyOp25
 70
     1
102
RTVSPropertyOp26
 70
     1
102
RTVSPropertyOp27
 70
     1
102
RTVSPropertyOp28
 70
     1
102
RTVSPropertyOp29
 70
     1
102
RTVSPropertyOp30
 70
     1
102
RTVSPropertyOp31
 70
     1
102
RTVSPropertyOp32
 70
     1
  0
XRECORD
  5
3A4
102
{ACAD_REACTORS
330
3A3
102
}
330
3A3
100
AcDbXrecord
280
     1
102
RTVSPropertyOp0
 70
     1
102
RTVSPropertyOp1
 70
     1
102
RTVSPropertyOp2
 70
     1
102
RTVSPropertyOp3
 70
     1
102
RTVSPropertyOp4
 70
     1
102
RTVSPropertyOp5
 70
     1
102
RTVSPropertyOp6
 70
     1
102
RTVSPropertyOp7
 70
     1
102
RTVSPropertyOp8
 70
     1
102
RTVSPropertyOp9
 70
     1
102
RTVSPropertyOp10
 70
     1
102
RTVSPropertyOp11
 70
     1
102
RTVSPropertyOp12
 70
     1
102
RTVSPropertyOp13
 70
     1
102
RTVSPropertyOp14
 70
     1
102
RTVSPropertyOp15
 70
     1
102
RTVSPropertyOp16
 70
     1
102
RTVSPropertyOp17
 70
     1
102
RTVSPropertyOp18
 70
     1
102
RTVSPropertyOp19
 70
     1
102
RTVSPropertyOp20
 70
     1
102
RTVSPropertyOp21
 70
     1
102
RTVSPropertyOp22
 70
     1
102
RTVSPropertyOp23
 70
     1
102
RTVSPropertyOp24
 70
     1
102
RTVSPropertyOp25
 70
     1
102
RTVSPropertyOp26
 70
     1
102
RTVSPropertyOp27
 70
     1
102
RTVSPropertyOp28
 70
     1
102
RTVSPropertyOp29
 70
     1
102
RTVSPropertyOp30
 70
     1
102
RTVSPropertyOp31
 70
     1
102
RTVSPropertyOp32
 70
     1
  0
XRECORD
  5
38A
102
{ACAD_REACTORS
330
389
102
}
330
389
100
AcDbXrecord
280
     1
102
RTVSPropertyOp0
 70
     1
102
RTVSPropertyOp1
 70
     1
102
RTVSPropertyOp2
 70
     1
102
RTVSPropertyOp3
 70
     1
102
RTVSPropertyOp4
 70
     1
102
RTVSPropertyOp5
 70
     1
102
RTVSPropertyOp6
 70
     1
102
RTVSPropertyOp7
 70
     1
102
RTVSPropertyOp8
 70
     1
102
RTVSPropertyOp9
 70
     1
102
RTVSPropertyOp10
 70
     1
102
RTVSPropertyOp11
 70
     1
102
RTVSPropertyOp12
 70
     1
102
RTVSPropertyOp13
 70
     1
102
RTVSPropertyOp14
 70
     1
102
RTVSPropertyOp15
 70
     1
102
RTVSPropertyOp16
 70
     1
102
RTVSPropertyOp17
 70
     1
102
RTVSPropertyOp18
 70
     1
102
RTVSPropertyOp19
 70
     1
102
RTVSPropertyOp20
 70
     1
102
RTVSPropertyOp21
 70
     1
102
RTVSPropertyOp22
 70
     1
102
RTVSPropertyOp23
 70
     1
102
RTVSPropertyOp24
 70
     1
102
RTVSPropertyOp25
 70
     1
102
RTVSPropertyOp26
 70
     1
102
RTVSPropertyOp27
 70
     1
102
RTVSPropertyOp28
 70
     1
102
RTVSPropertyOp29
 70
     1
102
RTVSPropertyOp30
 70
     1
102
RTVSPropertyOp31
 70
     1
102
RTVSPropertyOp32
 70
     1
  0
XRECORD
  5
3B0
102
{ACAD_REACTORS
330
3AF
102
}
330
3AF
100
AcDbXrecord
280
     1
102
RTVSPropertyOp0
 70
     1
102
RTVSPropertyOp1
 70
     1
102
RTVSPropertyOp2
 70
     1
102
RTVSPropertyOp3
 70
     1
102
RTVSPropertyOp4
 70
     1
102
RTVSPropertyOp5
 70
     1
102
RTVSPropertyOp6
 70
     1
102
RTVSPropertyOp7
 70
     1
102
RTVSPropertyOp8
 70
     1
102
RTVSPropertyOp9
 70
     1
102
RTVSPropertyOp10
 70
     1
102
RTVSPropertyOp11
 70
     1
102
RTVSPropertyOp12
 70
     1
102
RTVSPropertyOp13
 70
     1
102
RTVSPropertyOp14
 70
     1
102
RTVSPropertyOp15
 70
     1
102
RTVSPropertyOp16
 70
     1
102
RTVSPropertyOp17
 70
     1
102
RTVSPropertyOp18
 70
     1
102
RTVSPropertyOp19
 70
     1
102
RTVSPropertyOp20
 70
     1
102
RTVSPropertyOp21
 70
     1
102
RTVSPropertyOp22
 70
     1
102
RTVSPropertyOp23
 70
     1
102
RTVSPropertyOp24
 70
     1
102
RTVSPropertyOp25
 70
     1
102
RTVSPropertyOp26
 70
     1
102
RTVSPropertyOp27
 70
     1
102
RTVSPropertyOp28
 70
     1
102
RTVSPropertyOp29
 70
     1
102
RTVSPropertyOp30
 70
     1
102
RTVSPropertyOp31
 70
     1
102
RTVSPropertyOp32
 70
     1
  0
ENDSEC
  0
EOF
