  0
SECTION
  2
HEADER
  9
$ACADVER
  1
AC1015
  9
$ACADMAINTVER
 70
    18
  9
$DWGCODEPAGE
  3
ANSI_1252
  9
$INSBASE
 10
0.0
 20
0.0
 30
0.0
  9
$EXTMIN
 10
-32.87457002382098
 20
-52.38284112045426
 30
-0.0015258207003583
  9
$EXTMAX
 10
78.34018091873758
 20
34.55830485229171
 30
0.0000000349246037
  9
$LIMMIN
 10
0.0
 20
0.0
  9
$LIMMAX
 10
1189.0
 20
840.9999999999998
  9
$ORTHOMODE
 70
     0
  9
$REGENMODE
 70
     1
  9
$FILLMODE
 70
     1
  9
$QTEXTMODE
 70
     0
  9
$MIRRTEXT
 70
     0
  9
$LTSCALE
 40
1.0
  9
$ATTMODE
 70
     1
  9
$TEXTSIZE
 40
0.2
  9
$TRACEWID
 40
0.05
  9
$TEXTSTYLE
  7
STANDARD
  9
$CLAYER
  8
0
  9
$CELTYPE
  6
ByLayer
  9
$CECOLOR
 62
   256
  9
$CELTSCALE
 40
1.0
  9
$DISPSILH
 70
     0
  9
$DIMSCALE
 40
1.0
  9
$DIMASZ
 40
180.0
  9
$DIMEXO
 40
0.0625
  9
$DIMDLI
 40
0.38
  9
$DIMRND
 40
0.0
  9
$DIMDLE
 40
0.0
  9
$DIMEXE
 40
0.18
  9
$DIMTP
 40
0.0
  9
$DIMTM
 40
0.0
  9
$DIMTXT
 40
34.99999940395355
  9
$DIMCEN
 40
0.09
  9
$DIMTSZ
 40
0.0
  9
$DIMTOL
 70
     0
  9
$DIMLIM
 70
     0
  9
$DIMTIH
 70
     1
  9
$DIMTOH
 70
     1
  9
$DIMSE1
 70
     0
  9
$DIMSE2
 70
     0
  9
$DIMTAD
 70
     0
  9
$DIMZIN
 70
     0
  9
$DIMBLK
  1

  9
$DIMASO
 70
     1
  9
$DIMSHO
 70
     1
  9
$DIMPOST
  1

  9
$DIMAPOST
  1

  9
$DIMALT
 70
     0
  9
$DIMALTD
 70
     2
  9
$DIMALTF
 40
25.4
  9
$DIMLFAC
 40
1.0
  9
$DIMTOFL
 70
     0
  9
$DIMTVP
 40
0.0
  9
$DIMTIX
 70
     0
  9
$DIMSOXD
 70
     0
  9
$DIMSAH
 70
     0
  9
$DIMBLK1
  1

  9
$DIMBLK2
  1

  9
$DIMSTYLE
  2
STANDARD
  9
$DIMCLRD
 70
     0
  9
$DIMCLRE
 70
     0
  9
$DIMCLRT
 70
     0
  9
$DIMTFAC
 40
1.0
  9
$DIMGAP
 40
0.09
  9
$DIMJUST
 70
     0
  9
$DIMSD1
 70
     0
  9
$DIMSD2
 70
     0
  9
$DIMTOLJ
 70
     1
  9
$DIMTZIN
 70
     0
  9
$DIMALTZ
 70
     0
  9
$DIMALTTZ
 70
     0
  9
$DIMUPT
 70
     0
  9
$DIMDEC
 70
     4
  9
$DIMTDEC
 70
     4
  9
$DIMALTU
 70
     2
  9
$DIMALTTD
 70
     2
  9
$DIMTXSTY
  7
STANDARD
  9
$DIMAUNIT
 70
     0
  9
$DIMADEC
 70
     0
  9
$DIMALTRND
 40
0.0
  9
$DIMAZIN
 70
     0
  9
$DIMDSEP
 70
    46
  9
$DIMATFIT
 70
     3
  9
$DIMFRAC
 70
     0
  9
$DIMLDRBLK
  1

  9
$DIMLUNIT
 70
     2
  9
$DIMLWD
 70
    -2
  9
$DIMLWE
 70
    -2
  9
$DIMTMOVE
 70
     0
  9
$LUNITS
 70
     2
  9
$LUPREC
 70
     4
  9
$SKETCHINC
 40
0.1
  9
$FILLETRAD
 40
0.0
  9
$AUNITS
 70
     0
  9
$AUPREC
 70
     0
  9
$MENU
  1
.
  9
$ELEVATION
 40
0.0
  9
$PELEVATION
 40
0.0
  9
$THICKNESS
 40
0.0
  9
$LIMCHECK
 70
     0
  9
$CHAMFERA
 40
0.0
  9
$CHAMFERB
 40
0.0
  9
$CHAMFERC
 40
0.0
  9
$CHAMFERD
 40
0.0
  9
$SKPOLY
 70
     0
  9
$TDCREATE
 40
2454871.539305995
  9
$TDUCREATE
 40
2454871.455972662
  9
$TDUPDATE
 40
2455719.417946273
  9
$TDUUPDATE
 40
2455719.334612940
  9
$TDINDWG
 40
0.0120406713
  9
$TDUSRTIMER
 40
0.0120406713
  9
$USRTIMER
 70
     1
  9
$ANGBASE
 50
0.0
  9
$ANGDIR
 70
     0
  9
$PDMODE
 70
     0
  9
$PDSIZE
 40
0.0
  9
$PLINEWID
 40
0.0
  9
$SPLFRAME
 70
     0
  9
$SPLINETYPE
 70
     6
  9
$SPLINESEGS
 70
     8
  9
$HANDSEED
  5
37F
  9
$SURFTAB1
 70
     6
  9
$SURFTAB2
 70
     6
  9
$SURFTYPE
 70
     6
  9
$SURFU
 70
     6
  9
$SURFV
 70
     6
  9
$UCSBASE
  2

  9
$UCSNAME
  2

  9
$UCSORG
 10
0.0
 20
0.0
 30
0.0
  9
$UCSXDIR
 10
1.0
 20
0.0
 30
0.0
  9
$UCSYDIR
 10
0.0
 20
1.0
 30
0.0
  9
$UCSORTHOREF
  2

  9
$UCSORTHOVIEW
 70
     0
  9
$UCSORGTOP
 10
0.0
 20
0.0
 30
0.0
  9
$UCSORGBOTTOM
 10
0.0
 20
0.0
 30
0.0
  9
$UCSORGLEFT
 10
0.0
 20
0.0
 30
0.0
  9
$UCSORGRIGHT
 10
0.0
 20
0.0
 30
0.0
  9
$UCSORGFRONT
 10
0.0
 20
0.0
 30
0.0
  9
$UCSORGBACK
 10
0.0
 20
0.0
 30
0.0
  9
$PUCSBASE
  2

  9
$PUCSNAME
  2

  9
$PUCSORG
 10
0.0
 20
0.0
 30
0.0
  9
$PUCSXDIR
 10
1.0
 20
0.0
 30
0.0
  9
$PUCSYDIR
 10
0.0
 20
1.0
 30
0.0
  9
$PUCSORTHOREF
  2

  9
$PUCSORTHOVIEW
 70
     0
  9
$PUCSORGTOP
 10
0.0
 20
0.0
 30
0.0
  9
$PUCSORGBOTTOM
 10
0.0
 20
0.0
 30
0.0
  9
$PUCSORGLEFT
 10
0.0
 20
0.0
 30
0.0
  9
$PUCSORGRIGHT
 10
0.0
 20
0.0
 30
0.0
  9
$PUCSORGFRONT
 10
0.0
 20
0.0
 30
0.0
  9
$PUCSORGBACK
 10
0.0
 20
0.0
 30
0.0
  9
$USERI1
 70
     0
  9
$USERI2
 70
     0
  9
$USERI3
 70
     0
  9
$USERI4
 70
     0
  9
$USERI5
 70
     0
  9
$USERR1
 40
0.0
  9
$USERR2
 40
0.0
  9
$USERR3
 40
0.0
  9
$USERR4
 40
0.0
  9
$USERR5
 40
0.0
  9
$WORLDVIEW
 70
     1
  9
$SHADEDGE
 70
     3
  9
$SHADEDIF
 70
    70
  9
$TILEMODE
 70
     1
  9
$MAXACTVP
 70
    64
  9
$PINSBASE
 10
0.0
 20
0.0
 30
0.0
  9
$PLIMCHECK
 70
     0
  9
$PEXTMIN
 10
0.0
 20
0.0
 30
0.0
  9
$PEXTMAX
 10
1189.0
 20
840.9999999999998
 30
0.0
  9
$PLIMMIN
 10
0.0
 20
0.0
  9
$PLIMMAX
 10
1189.0
 20
840.9999999999998
  9
$UNITMODE
 70
     0
  9
$VISRETAIN
 70
     1
  9
$PLINEGEN
 70
     0
  9
$PSLTSCALE
 70
     1
  9
$TREEDEPTH
 70
  3020
  9
$CMLSTYLE
  2
Standard
  9
$CMLJUST
 70
     0
  9
$CMLSCALE
 40
1.0
  9
$PROXYGRAPHICS
 70
     1
  9
$MEASUREMENT
 70
     1
  9
$CELWEIGHT
370
    -1
  9
$ENDCAPS
280
     0
  9
$JOINSTYLE
280
     0
  9
$LWDISPLAY
290
     0
  9
$INSUNITS
 70
     4
  9
$HYPERLINKBASE
  1

  9
$STYLESHEET
  1

  9
$XEDIT
290
     1
  9
$CEPSNTYPE
380
     0
  9
$PSTYLEMODE
290
     1
  9
$FINGERPRINTGUID
  2
{69433AE1-4A79-47BA-8178-DAB62B20A66E}
  9
$VERSIONGUID
  2
{048F4ADF-953F-4EDB-8E78-A76CA38348E4}
  9
$EXTNAMES
290
     1
  9
$PSVPSCALE
 40
0.0
  9
$OLESTARTUP
290
     0
  0
ENDSEC
  0
SECTION
  2
CLASSES
  0
CLASS
  1
ACDBDICTIONARYWDFLT
  2
AcDbDictionaryWithDefault
  3
ObjectDBX Classes
 90
        0
280
     0
281
     0
  0
CLASS
  1
MATERIAL
  2
AcDbMaterial
  3
ObjectDBX Classes
 90
     1153
280
     0
281
     0
  0
CLASS
  1
VISUALSTYLE
  2
AcDbVisualStyle
  3
ObjectDBX Classes
 90
     4095
280
     0
281
     0
  0
CLASS
  1
SCALE
  2
AcDbScale
  3
ObjectDBX Classes
 90
     1153
280
     0
281
     0
  0
CLASS
  1
TABLESTYLE
  2
AcDbTableStyle
  3
ObjectDBX Classes
 90
     4095
280
     0
281
     0
  0
CLASS
  1
MLEADERSTYLE
  2
AcDbMLeaderStyle
  3
ACDB_MLEADERSTYLE_CLASS
 90
     4095
280
     0
281
     0
  0
CLASS
  1
SORTENTSTABLE
  2
AcDbSortentsTable
  3
ObjectDBX Classes
 90
        0
280
     0
281
     0
  0
CLASS
  1
CELLSTYLEMAP
  2
AcDbCellStyleMap
  3
ObjectDBX Classes
 90
     1152
280
     0
281
     0
  0
CLASS
  1
DICTIONARYVAR
  2
AcDbDictionaryVar
  3
ObjectDBX Classes
 90
        0
280
     0
281
     0
  0
CLASS
  1
ACME_DOCUMENT
  2
AcMeDbDoc
  3
AcMeServices
 90
     1024
280
     0
281
     0
  0
CLASS
  1
AMGSETTINGSOBJ
  2
AmgSettingsObj
  3
"AcadM|Product Description: AutoCAD Mechanical|Company: Autodesk, Inc."
 90
     1024
280
     0
281
     0
  0
CLASS
  1
ACMESCOPE
  2
AcMeScope
  3
AcMeServices
 90
     1024
280
     0
281
     0
  0
CLASS
  1
ACMECOMMANDHISTORY
  2
AcMeCommandHistory
  3
AcMeServices
 90
     1024
280
     0
281
     0
  0
CLASS
  1
ACIMSYSVARMAN
  2
AcImSysVarManager
  3
AcMeServices
 90
     1024
280
     0
281
     0
  0
CLASS
  1
ACIMINTSYSVAR
  2
AcImIntSysVar
  3
AcMeServices
 90
     1024
280
     0
281
     0
  0
CLASS
  1
ACMEDRAWINGMAN
  2
AcMeDrawingMan
  3
AcMeServices
 90
    33792
280
     0
281
     0
  0
CLASS
  1
ACMEVIEW
  2
AcMeView
  3
AcMeServices
 90
    33792
280
     0
281
     0
  0
CLASS
  1
ACDBENTITYCACHE
  2
AcMeEntityCache
  3
AcMeServices
 90
     1024
280
     0
281
     0
  0
CLASS
  1
GSMANAGER
  2
AcMeGSManager
  3
AcMeServices
 90
    33792
280
     1
281
     0
  0
CLASS
  1
AMDTINTERNALREACTOR
  2
AmdtInternalReactor
  3
AcMeServices
 90
     1024
280
     0
281
     0
  0
CLASS
  1
ACMESTATEMGR
  2
AcMeStateMgr
  3
AcMeServices
 90
     1024
280
     0
281
     0
  0
CLASS
  1
ACGREFMASTER
  2
AcGrefMaster
  3
AcAttribServices
 90
     1024
280
     0
281
     0
  0
CLASS
  1
AM_DRAWING_MGR
  2
AcDmDwgMgr
  3
AcMechDwgViewMgmt
 90
     1024
280
     0
281
     0
  0
CLASS
  1
AM_DWG_DOCUMENT
  2
AcDmDwgDocument
  3
AcMechDwgViewMgmt
 90
     1024
280
     0
281
     0
  0
CLASS
  1
AM_DWG_SHEET
  2
AcDmSheet
  3
AcMechDwgViewMgmt
 90
     1024
280
     0
281
     0
  0
CLASS
  1
AM_VIEWDIMPARMAP
  2
AcDmViewDimParMap
  3
AcMechDwgViewMgmt
 90
     1024
280
     0
281
     0
  0
CLASS
  1
ACIMREALSYSVAR
  2
AcImRealSysVar
  3
AcMeServices
 90
     1024
280
     0
281
     0
  0
CLASS
  1
AM_DWGMGR_NAME
  2
AcDmDwgMgrName
  3
AcMechDwgViewMgmt
 90
     1024
280
     0
281
     0
  0
CLASS
  1
ACME_DATABASE
  2
AcMeDbDatabase
  3
AcMeServices
 90
     1024
280
     0
281
     0
  0
CLASS
  1
ACRFINSADJUSTERMGR
  2
AcRfInsAdjusterMgr
  3
AcMeServices
 90
     1024
280
     0
281
     0
  0
CLASS
  1
ACGREFACADMASTER
  2
AcGrefacadMaster
  3
AcGrefServices
 90
     1024
280
     0
281
     0
  0
CLASS
  1
AMDTMENUSTATEMGR
  2
AmdtMenuStateMgr
  3
McadcomServices
 90
     1024
280
     0
281
     0
  0
CLASS
  1
AMDTMCOMMENUSTATE
  2
AmdtMcomMenuState
  3
McadcomServices
 90
     1024
280
     0
281
     0
  0
CLASS
  1
AMIMASTER
  2
AmiMaster
  3
AmiServices
 90
     1024
280
     0
281
     0
  0
CLASS
  1
MAPIAMMOUDLE
  2
MApiAmModule
  3
MApiAmServices
 90
     1024
280
     0
281
     0
  0
CLASS
  1
ACIMSTRSYSVAR
  2
AcImStrSysVar
  3
AcMeServices
 90
     1024
280
     0
281
     0
  0
CLASS
  1
AMDTADMENUSTATE
  2
AmdtAdMenuState
  3
DesignerServices
 90
    33792
280
     1
281
     0
  0
CLASS
  1
ADAPPL
  2
AcAdAppl
  3
DesignerAssemblies
 90
    33792
280
     0
281
     0
  0
CLASS
  1
DEPMGR
  2
AcAdDepMgr
  3
DesignerAssemblies
 90
    33792
280
     0
281
     0
  0
CLASS
  1
PARAMMGR
  2
AcAdParamMgr
  3
DesignerAssemblies
 90
    33792
280
     0
281
     0
  0
CLASS
  1
PARAMSCOPE
  2
AcAdParamScope
  3
DesignerAssemblies
 90
    33792
280
     0
281
     0
  0
CLASS
  1
NAMEDAPPL
  2
AcAdNamedAppl
  3
DesignerAssemblies
 90
    33792
280
     0
281
     0
  0
CLASS
  1
AMDTDMMENUSTATE
  2
AmdtDmMenuState
  3
AcMechDwgViewMgmt
 90
     1024
280
     0
281
     0
  0
CLASS
  1
AMDTAMMENUSTATE
  2
AmdtAmMenuState
  3
DesignerAssemblies
 90
     1024
280
     0
281
     0
  0
CLASS
  1
ACAMPROJECT
  2
AcAmProject
  3
DesignerAssemblies
 90
     1024
280
     0
281
     0
  0
CLASS
  1
ACAMGRCOMPDEF
  2
AcAmGrCompDef
  3
DesignerAssemblies
 90
     1024
280
     0
281
     0
  0
CLASS
  1
ACCMCONTEXT
  2
AcCmContext
  3
DesignerAssemblies
 90
    33792
280
     0
281
     0
  0
CLASS
  1
ACAMCOMPDEF
  2
AcAmCompDef
  3
DesignerAssemblies
 90
     1024
280
     0
281
     0
  0
CLASS
  1
ACAMCOMPDEFMGR
  2
AcAmCompDefMgr
  3
DesignerAssemblies
 90
     1024
280
     0
281
     0
  0
CLASS
  1
AMCONTEXTMGR
  2
AcAmContextMgr
  3
DesignerAssemblies
 90
     1024
280
     0
281
     0
  0
CLASS
  1
ACAMCONTEXTMODELER
  2
AcAmContextModeler
  3
DesignerAssemblies
 90
     1024
280
     0
281
     0
  0
CLASS
  1
ACMDATADICTIONARY
  2
AcmDataDictionary
  3
"AcmSymBB|Product Description: AutoCAD Mechanical|Company: Autodesk, Inc."
 90
     1024
280
     0
281
     0
  0
CLASS
  1
CATALOGSTATE
  2
AcAmCatalogState
  3
DesignerAssemblies
 90
    33792
280
     0
281
     0
  0
CLASS
  1
ACAMGRCOMPDEFSET
  2
AcAmGrCompDefSet
  3
DesignerAssemblies
 90
     1024
280
     0
281
     0
  0
CLASS
  1
AMDTBROWSERDBTAB
  2
AmdtBrowserDbTab
  3
McadcomServices
 90
     1024
280
     0
281
     0
  0
CLASS
  1
CBROWSERAPPOBJECT
  2
CBrowserAppObject
  3
McadcomServices
 90
     1024
280
     0
281
     0
  0
CLASS
  1
DM_PLACEHOLDER
  2
AcDmSelsetPlaceholder
  3
AcMechDwgViewMgmt
 90
     1024
280
     0
281
     0
  0
CLASS
  1
EXACXREFPANELOBJECT
  2
ExAcXREFPanelObject
  3
EXAC_ESW
 90
     1025
280
     0
281
     0
  0
CLASS
  1
NPOCOLLECTION
  2
AcDbImpNonPersistentObjectsCollection
  3
ObjectDBX Classes
 90
     1153
280
     0
281
     0
  0
CLASS
  1
ACMSTANDARDANSI
  2
AcmStandardANSI
  3
"Amdt_StdImp|Product Description: AutoCAD Mechanical|Company: Autodesk, Inc."
 90
     1024
280
     0
281
     0
  0
CLASS
  1
ACMSURFSTANDARDANSI
  2
AcmSurfTextStdANSI
  3
"Amdt_StdImp|Product Description: AutoCAD Mechanical|Company: Autodesk, Inc."
 90
     1024
280
     0
281
     0
  0
CLASS
  1
ACMFCFSTANDARDANSI
  2
AcmFCFStdANSI
  3
"Amdt_StdImp|Product Description: AutoCAD Mechanical|Company: Autodesk, Inc."
 90
     1024
280
     0
281
     0
  0
CLASS
  1
ACMWELDSTANDARDANSI
  2
AcmWeldingStdANSI
  3
"Amdt_StdImp|Product Description: AutoCAD Mechanical|Company: Autodesk, Inc."
 90
     1024
280
     0
281
     0
  0
CLASS
  1
ACMIDSTANDARDANSI
  2
AcmIdStdANSI
  3
"Amdt_StdImp|Product Description: AutoCAD Mechanical|Company: Autodesk, Inc."
 90
     1024
280
     0
281
     0
  0
CLASS
  1
ACMDATUMSTANDARDANSI
  2
AcmDatumStdANSI
  3
"Amdt_StdImp|Product Description: AutoCAD Mechanical|Company: Autodesk, Inc."
 90
     1024
280
     0
281
     0
  0
CLASS
  1
ACMBOMSTANDARDANSI
  2
AcmBOMStdANSI
  3
"Amdt_StdImp|Product Description: AutoCAD Mechanical|Company: Autodesk, Inc."
 90
     1024
280
     0
281
     0
  0
CLASS
  1
ACMDETAILSTANDARDANSI
  2
AmdtDetailSymStdANSI
  3
"Amdt_StdImp|Product Description: AutoCAD Mechanical|Company: Autodesk, Inc."
 90
     1024
280
     0
281
     0
  0
CLASS
  1
ACMSECTIONSTANDARDANSI
  2
AmdtSectionSymStdANSI
  3
"Amdt_StdImp|Product Description: AutoCAD Mechanical|Company: Autodesk, Inc."
 90
     1024
280
     0
281
     0
  0
CLASS
  1
ACMCENTERLINESTANDARDANSI
  2
AmdtCenterLineStdANSI
  3
"Amdt_StdImp|Product Description: AutoCAD Mechanical|Company: Autodesk, Inc."
 90
     1024
280
     0
281
     0
  0
CLASS
  1
ACMTHREADLINESTANDARDANSI
  2
AmdtThreadLineStdANSI
  3
"Amdt_StdImp|Product Description: AutoCAD Mechanical|Company: Autodesk, Inc."
 90
     1024
280
     0
281
     0
  0
CLASS
  1
ACMNOTESTANDARDANSI
  2
AmdtNoteStdANSI
  3
"Amdt_StdImp|Product Description: AutoCAD Mechanical|Company: Autodesk, Inc."
 90
     1024
280
     0
281
     0
  0
CLASS
  1
ACMTAPERSTANDARDANSI
  2
AcmTaperStdANSI
  3
"Amdt_StdImp|Product Description: AutoCAD Mechanical|Company: Autodesk, Inc."
 90
     1024
280
     0
281
     0
  0
CLASS
  1
ACMANOOTATIONVIEWSTANDARDANSI
  2
AmdtAnViewStdANSI
  3
"Amdt_StdImp|Product Description: AutoCAD Mechanical|Company: Autodesk, Inc."
 90
     1024
280
     0
281
     0
  0
CLASS
  1
ACAMGLAYSTD
  2
AcAmgLayStd
  3
"AmgLay|Product Description: AutoCAD Mechanical|Company: Autodesk, Inc."
 90
     1024
280
     0
281
     0
  0
CLASS
  1
ACAMGDIMSTD
  2
AcAmgDimStd
  3
"AmgDim|Product Description: AutoCAD Mechanical|Company: Autodesk, Inc."
 90
     1024
280
     0
281
     0
  0
CLASS
  1
AMGOBJPROPCFG
  2
AmgObjPropCfg
  3
"AmgLay|Product Description: AutoCAD Mechanical|Company: Autodesk, Inc."
 90
     1025
280
     0
281
     0
  0
CLASS
  1
ACAMGHOLECHARTSTDANSI
  2
AcAmgHoleChartStdANSI
  3
AmgDim|Product Description: AutoCAD Mechanical|Company: Autodesk, Inc.
 90
     1024
280
     0
281
     0
  0
CLASS
  1
ACAMGTITLESTD
  2
AcAmgTitleStd
  3
"AmgTitle|Product Description: AutoCAD Mechanical|Company: Autodesk, Inc."
 90
     4095
280
     0
281
     0
  0
CLASS
  1
AMDTNOTETEMPLATEDB
  2
AmdtNoteTemplateDB
  3
AcmSymBB|Product Description: AutoCAD Mechanical|Company: Autodesk, Inc.
 90
     1024
280
     0
281
     0
  0
CLASS
  1
ACAMGFILTERDAT
  2
AcAmgFilterDat
  3
"AcadM|Product Description: AutoCAD Mechanical|Company: Autodesk, Inc."
 90
    33792
280
     0
281
     0
  0
CLASS
  1
CAMSSTRUCTBTNSTATE
  2
StructBtnState
  3
DesignerAssemblies
 90
    33792
280
     0
281
     0
  0
CLASS
  1
ACDBPLACEHOLDER
  2
AcDbPlaceHolder
  3
ObjectDBX Classes
 90
        0
280
     0
281
     0
  0
CLASS
  1
LAYOUT
  2
AcDbLayout
  3
ObjectDBX Classes
 90
        0
280
     0
281
     0
  0
ENDSEC
  0
SECTION
  2
TABLES
  0
TABLE
  2
VPORT
  5
28
102
{ACAD_XDICTIONARY
360
2C
102
}
330
0
100
AcDbSymbolTable
 70
     1
  0
VPORT
  5
29
330
28
100
AcDbSymbolTableRecord
100
AcDbViewportTableRecord
  2
*ACTIVE
 70
     0
 10
0.0
 20
0.0
 11
1.0
 21
1.0
 12
22.7328054474583
 22
-8.912268134081273
 13
0.0
 23
0.0
 14
1.0
 24
1.0
 15
0.0
 25
0.0
 16
0.0
 26
0.0
 36
1.0
 17
0.0
 27
0.0
 37
0.0
 40
97.340568762003
 41
2.030651340996168
 42
50.0
 43
0.0
 44
0.0
 50
0.0
 51
0.0
 71
     0
 72
   100
 73
     1
 74
     1
 75
     0
 76
     0
 77
     0
 78
     0
281
     0
 65
     1
110
0.0
120
0.0
130
0.0
111
1.0
121
0.0
131
0.0
112
0.0
122
1.0
132
0.0
 79
     0
146
0.0
  0
ENDTAB
  0
TABLE
  2
LTYPE
  5
23
330
0
100
AcDbSymbolTable
 70
    11
  0
LTYPE
  5
24
330
23
100
AcDbSymbolTableRecord
100
AcDbLinetypeTableRecord
  2
ByBlock
 70
     0
  3

 72
    65
 73
     0
 40
0.0
  0
LTYPE
  5
25
330
23
100
AcDbSymbolTableRecord
100
AcDbLinetypeTableRecord
  2
ByLayer
 70
     0
  3

 72
    65
 73
     0
 40
0.0
  0
LTYPE
  5
13
330
23
100
AcDbSymbolTableRecord
100
AcDbLinetypeTableRecord
  2
CONTINUOUS
 70
     0
  3
Solid line
 72
    65
 73
     0
 40
0.0
  0
LTYPE
  5
289
330
23
100
AcDbSymbolTableRecord
100
AcDbLinetypeTableRecord
  2
HIDDEN
 70
     0
  3
Verdeckt
 72
    65
 73
     2
 40
0.375
 49
0.25
 74
     0
 49
-0.125
 74
     0
  0
LTYPE
  5
28B
330
23
100
AcDbSymbolTableRecord
100
AcDbLinetypeTableRecord
  2
PHANTOM2
 70
     0
  3
Phantom (.5x) ___ _ _ ___ _ _ ___ _ _ ___ _ _
 72
    65
 73
     6
 40
1.25
 49
0.625
 74
     0
 49
-0.125
 74
     0
 49
0.125
 74
     0
 49
-0.125
 74
     0
 49
0.125
 74
     0
 49
-0.125
 74
     0
  0
LTYPE
  5
28A
330
23
100
AcDbSymbolTableRecord
100
AcDbLinetypeTableRecord
  2
CENTER
 70
     0
  3
Mitte ____ _ ____ _ ____ _ ____ _ ____ _ ____
 72
    65
 73
     4
 40
2.0
 49
1.25
 74
     0
 49
-0.25
 74
     0
 49
0.25
 74
     0
 49
-0.25
 74
     0
  0
LTYPE
  5
28C
330
23
100
AcDbSymbolTableRecord
100
AcDbLinetypeTableRecord
  2
Amconstr
 70
     0
  3
_______________________
 72
    65
 73
     2
 40
9999.0
 49
9999.0
 74
     0
 49
0.0
 74
     0
  0
LTYPE
  5
28D
330
23
100
AcDbSymbolTableRecord
100
AcDbLinetypeTableRecord
  2
CENTER2
 70
     0
  3
Center (.5x) ___ _ ___ _ ___ _ ___ _ ___ _ ___
 72
    65
 73
     4
 40
1.125
 49
0.75
 74
     0
 49
-0.125
 74
     0
 49
0.125
 74
     0
 49
-0.125
 74
     0
  0
LTYPE
  5
28E
330
23
100
AcDbSymbolTableRecord
100
AcDbLinetypeTableRecord
  2
HIDDEN2
 70
     0
  3
Hidden (.5x) _ _ _ _ _ _ _ _ _ _ _ _ _ _ _ _ _
 72
    65
 73
     2
 40
0.1875
 49
0.125
 74
     0
 49
-0.0625
 74
     0
  0
LTYPE
  5
28F
330
23
100
AcDbSymbolTableRecord
100
AcDbLinetypeTableRecord
  2
Amzigzag2
 70
     0
  3
/\/-/\/-/\/-/\/-/\/-/\/
 72
    65
 73
     2
 40
0.4401
 49
0.0001
 74
     4
 75
   136
340
290
 46
0.0016
 50
0.0
 44
0.0
 45
0.0
 49
-0.4400000000000001
 74
     0
  0
LTYPE
  5
2A0
330
23
100
AcDbSymbolTableRecord
100
AcDbLinetypeTableRecord
  2
ACANSTGB
 70
     0
  3
__ . . __ . .
 72
    65
 73
     6
 40
0.35433070866
 49
0.15748031496
 74
     0
 49
-0.03937007874
 74
     0
 49
0.03937007874
 74
     0
 49
-0.03937007874
 74
     0
 49
0.03937007874
 74
     0
 49
-0.03937007874
 74
     0
  0
LTYPE
  5
2A1
330
23
100
AcDbSymbolTableRecord
100
AcDbLinetypeTableRecord
  2
ACANSTGL
 70
     0
  3
_ _ _ _ _
 72
    65
 73
     2
 40
0.11811023622
 49
0.07874015748
 74
     0
 49
-0.03937007874
 74
     0
  0
LTYPE
  5
7F
330
23
100
AcDbSymbolTableRecord
100
AcDbLinetypeTableRecord
  2
DASHED
 70
     0
  3
Dashed __ __ __ __ __ __ __ __ __ __ __ __ __ _
 72
    65
 73
     2
 40
0.75
 49
0.5
 74
     0
 49
-0.25
 74
     0
  0
ENDTAB
  0
TABLE
  2
LAYER
  5
1B
102
{ACAD_XDICTIONARY
360
1C
102
}
330
0
100
AcDbSymbolTable
 70
     7
  0
LAYER
  5
6
330
1B
100
AcDbSymbolTableRecord
100
AcDbLayerTableRecord
  2
0
 70
     0
 62
     7
  6
CONTINUOUS
370
    -3
390
7
  0
LAYER
  5
7B
330
1B
100
AcDbSymbolTableRecord
100
AcDbLayerTableRecord
  2
GEB-KONTUR-A
 70
     0
 62
     5
  6
CONTINUOUS
370
    -3
390
7
  0
LAYER
  5
7E
330
1B
100
AcDbSymbolTableRecord
100
AcDbLayerTableRecord
  2
GEB-VERDECKT
 70
     0
 62
     2
  6
DASHED
370
    -3
390
7
1001
AcAecLayerStandard
1000

1000

  0
LAYER
  5
76
330
1B
100
AcDbSymbolTableRecord
100
AcDbLayerTableRecord
  2
Arbeitspunkt(DIN)
 70
     0
 62
     7
  6
CONTINUOUS
370
    25
390
7
  0
LAYER
  5
285
330
1B
100
AcDbSymbolTableRecord
100
AcDbLayerTableRecord
  2
GEB-ART-NR
 70
     0
 62
     1
  6
CONTINUOUS
370
    18
390
7
  0
LAYER
  5
72
330
1B
100
AcDbSymbolTableRecord
100
AcDbLayerTableRecord
  2
GEB-BEZUG
 70
     0
 62
     2
  6
CONTINUOUS
370
    25
390
7
  0
LAYER
  5
282
330
1B
100
AcDbSymbolTableRecord
100
AcDbLayerTableRecord
  2
GEB-TEXT
 70
     0
 62
     5
  6
CONTINUOUS
370
    18
390
7
  0
ENDTAB
  0
TABLE
  2
STYLE
  5
20
330
0
100
AcDbSymbolTable
 70
     3
  0
STYLE
  5
21
330
20
100
AcDbSymbolTableRecord
100
AcDbTextStyleTableRecord
  2
STANDARD
 70
     0
 40
0.0
 41
1.0
 50
0.0
 71
     0
 42
0.2
  3
arial.ttf
  4

1001
ACAD
1000
Arial
1071
       34
  0
STYLE
  5
290
330
20
100
AcDbSymbolTableRecord
100
AcDbTextStyleTableRecord
  2

 70
     1
 40
0.0
 41
1.0
 50
0.0
 71
     0
 42
0.2
  3
genltshp.shx
  4

  0
STYLE
  5
29C
330
20
100
AcDbSymbolTableRecord
100
AcDbTextStyleTableRecord
  2
ACANSGDT
 70
     0
 40
0.0
 41
1.0
 50
0.0
 71
     0
 42
0.2
  3
amgdt.shx
  4

  0
ENDTAB
  0
TABLE
  2
VIEW
  5
26
330
0
100
AcDbSymbolTable
 70
     0
  0
ENDTAB
  0
TABLE
  2
UCS
  5
27
330
0
100
AcDbSymbolTable
 70
     0
  0
ENDTAB
  0
TABLE
  2
APPID
  5
2D
330
0
100
AcDbSymbolTable
 70
    14
  0
APPID
  5
1F
330
2D
100
AcDbSymbolTableRecord
100
AcDbRegAppTableRecord
  2
ACAD
 70
     0
  0
APPID
  5
80
330
2D
100
AcDbSymbolTableRecord
100
AcDbRegAppTableRecord
  2
AcAecLayerStandard
 70
     0
  0
APPID
  5
2DF
330
2D
100
AcDbSymbolTableRecord
100
AcDbRegAppTableRecord
  2
ACATTRIBSERVICES
 70
     0
  0
APPID
  5
30A
330
2D
100
AcDbSymbolTableRecord
100
AcDbRegAppTableRecord
  2
MCAD_NO_VIS
 70
     0
  0
APPID
  5
30B
330
2D
100
AcDbSymbolTableRecord
100
AcDbRegAppTableRecord
  2
ACAD_TEMP_GRAPHIC
 70
     0
  0
APPID
  5
30F
330
2D
100
AcDbSymbolTableRecord
100
AcDbRegAppTableRecord
  2
AD_DRAW
 70
     0
  0
APPID
  5
328
330
2D
100
AcDbSymbolTableRecord
100
AcDbRegAppTableRecord
  2
DESIGNERASSEMBLIES
 70
     0
  0
APPID
  5
32D
330
2D
100
AcDbSymbolTableRecord
100
AcDbRegAppTableRecord
  2
ACADM_DIM_EDIT
 70
     0
  0
APPID
  5
32E
330
2D
100
AcDbSymbolTableRecord
100
AcDbRegAppTableRecord
  2
AMDT_DM_ADJ
 70
     0
  0
APPID
  5
34E
330
2D
100
AcDbSymbolTableRecord
100
AcDbRegAppTableRecord
  2
ACAD_DSTYLE_DIMARC_LENGTH_SYMBOL
 70
     0
  0
APPID
  5
34F
330
2D
100
AcDbSymbolTableRecord
100
AcDbRegAppTableRecord
  2
ACAD_DSTYLE_DIM_LINETYPE
 70
     0
  0
APPID
  5
350
330
2D
100
AcDbSymbolTableRecord
100
AcDbRegAppTableRecord
  2
ACAD_DSTYLE_DIM_EXT1_LINETYPE
 70
     0
  0
APPID
  5
351
330
2D
100
AcDbSymbolTableRecord
100
AcDbRegAppTableRecord
  2
ACAD_DSTYLE_DIM_EXT2_LINETYPE
 70
     0
  0
APPID
  5
37E
330
2D
100
AcDbSymbolTableRecord
100
AcDbRegAppTableRecord
  2
ACAD_MLEADERVER
 70
     0
  0
ENDTAB
  0
TABLE
  2
DIMSTYLE
  5
2E
330
0
100
AcDbSymbolTable
 70
     7
100
AcDbDimStyleTable
 71
     1
340
2F
  0
DIMSTYLE
105
2F
330
2E
100
AcDbSymbolTableRecord
100
AcDbDimStyleTableRecord
  2
STANDARD
 70
     0
279
     2
340
21
  0
DIMSTYLE
105
2B2
102
{ACAD_REACTORS
330
299
102
}
330
2E
100
AcDbSymbolTableRecord
100
AcDbDimStyleTableRecord
  2
AM_ANSI
 70
     0
  4
mm
 41
0.12
 42
0.05
 43
0.5
 44
0.1
 47
0.1
 48
0.1
 78
     7
 79
     2
140
0.12
141
0.0
146
0.71
147
0.06
176
   256
177
   256
178
     2
274
     4
284
     7
340
21
371
    -1
372
    -1
1001
ACAD_DSTYLE_DIMARC_LENGTH_SYMBOL
1070
   379
1070
     1
1001
ACAD_DSTYLE_DIM_LINETYPE
1070
   380
1005
24
1001
ACAD_DSTYLE_DIM_EXT1_LINETYPE
1070
   381
1005
24
1001
ACAD_DSTYLE_DIM_EXT2_LINETYPE
1070
   382
1005
24
  0
DIMSTYLE
105
2B3
330
2E
100
AcDbSymbolTableRecord
100
AcDbDimStyleTableRecord
  2
AM_ANSI$3
 70
     0
  4
mm
 41
0.12
 42
0.05
 43
0.5
 44
0.1
 47
0.1
 48
0.1
 78
     7
 79
     2
140
0.12
141
0.0
146
0.71
147
0.06
176
   256
177
   256
178
     2
274
     4
284
     7
288
     1
289
     0
340
21
371
    -1
372
    -1
1001
ACAD_DSTYLE_DIMARC_LENGTH_SYMBOL
1070
   379
1070
     1
1001
ACAD_DSTYLE_DIM_LINETYPE
1070
   380
1005
24
1001
ACAD_DSTYLE_DIM_EXT1_LINETYPE
1070
   381
1005
24
1001
ACAD_DSTYLE_DIM_EXT2_LINETYPE
1070
   382
1005
24
  0
DIMSTYLE
105
2B4
330
2E
100
AcDbSymbolTableRecord
100
AcDbDimStyleTableRecord
  2
AM_ANSI$4
 70
     0
  4
mm
 41
0.12
 42
0.05
 43
0.5
 44
0.1
 47
0.1
 48
0.1
 78
     7
 79
     2
140
0.12
141
0.0
146
0.71
147
0.06
176
   256
177
   256
178
     2
274
     4
284
     7
288
     1
289
     0
340
21
371
    -1
372
    -1
1001
ACAD_DSTYLE_DIMARC_LENGTH_SYMBOL
1070
   379
1070
     1
1001
ACAD_DSTYLE_DIM_LINETYPE
1070
   380
1005
24
1001
ACAD_DSTYLE_DIM_EXT1_LINETYPE
1070
   381
1005
24
1001
ACAD_DSTYLE_DIM_EXT2_LINETYPE
1070
   382
1005
24
  0
DIMSTYLE
105
2B5
330
2E
100
AcDbSymbolTableRecord
100
AcDbDimStyleTableRecord
  2
AM_ANSI$7
 70
     0
  4
mm
 41
0.12
 42
0.05
 43
0.5
 44
0.1
 47
0.1
 48
0.1
 78
     7
 79
     2
140
0.12
141
0.0
146
0.71
147
0.06
176
   256
177
   256
178
     2
274
     4
284
     7
340
21
371
    -1
372
    -1
1001
ACAD_DSTYLE_DIMARC_LENGTH_SYMBOL
1070
   379
1070
     1
1001
ACAD_DSTYLE_DIM_LINETYPE
1070
   380
1005
24
1001
ACAD_DSTYLE_DIM_EXT1_LINETYPE
1070
   381
1005
24
1001
ACAD_DSTYLE_DIM_EXT2_LINETYPE
1070
   382
1005
24
  0
DIMSTYLE
105
2B6
330
2E
100
AcDbSymbolTableRecord
100
AcDbDimStyleTableRecord
  2
AM_ANSI$SF
 70
     0
  4
mm
 41
0.12
 42
0.05
 43
0.5
 44
0.1
 47
0.1
 48
0.1
 75
     1
 76
     1
 78
     7
 79
     2
140
0.12
141
0.0
146
0.71
147
0.06
176
   256
177
   256
178
     2
274
     4
284
     7
340
21
371
    -1
372
    -1
1001
ACAD_DSTYLE_DIMARC_LENGTH_SYMBOL
1070
   379
1070
     1
1001
ACAD_DSTYLE_DIM_LINETYPE
1070
   380
1005
24
1001
ACAD_DSTYLE_DIM_EXT1_LINETYPE
1070
   381
1005
24
1001
ACAD_DSTYLE_DIM_EXT2_LINETYPE
1070
   382
1005
24
  0
DIMSTYLE
105
2B7
330
2E
100
AcDbSymbolTableRecord
100
AcDbDimStyleTableRecord
  2
AM_ANSI$SH
 70
     0
  4
mm
 41
0.12
 42
0.05
 43
0.5
 44
0.1
 47
0.1
 48
0.1
 75
     1
 76
     1
 78
     7
 79
     2
140
0.12
141
0.0
146
0.71
147
0.06
173
     1
176
   256
177
   256
178
     2
274
     4
284
     7
340
21
343
2B8
371
    -1
372
    -1
1001
ACAD_DSTYLE_DIMARC_LENGTH_SYMBOL
1070
   379
1070
     1
1001
ACAD_DSTYLE_DIM_LINETYPE
1070
   380
1005
24
1001
ACAD_DSTYLE_DIM_EXT1_LINETYPE
1070
   381
1005
24
1001
ACAD_DSTYLE_DIM_EXT2_LINETYPE
1070
   382
1005
24
  0
ENDTAB
  0
TABLE
  2
BLOCK_RECORD
  5
1
330
0
100
AcDbSymbolTable
 70
     3
  0
BLOCK_RECORD
  5
2
102
{ACAD_XDICTIONARY
360
3
102
}
330
1
100
AcDbSymbolTableRecord
100
AcDbBlockTableRecord
  2
*Model_Space
340
15
  0
BLOCK_RECORD
  5
17
330
1
100
AcDbSymbolTableRecord
100
AcDbBlockTableRecord
  2
*Paper_Space
340
1A
  0
BLOCK_RECORD
  5
2B8
330
1
100
AcDbSymbolTableRecord
100
AcDbBlockTableRecord
  2
GENAXEH
340
0
  0
BLOCK_RECORD
  5
6F
330
1
100
AcDbSymbolTableRecord
100
AcDbBlockTableRecord
  2
Einfügepunkt
340
0
102
{BLKREFS
331
6E
102
}
  0
ENDTAB
  0
ENDSEC
  0
SECTION
  2
BLOCKS
  0
BLOCK
  5
5
330
2
100
AcDbEntity
  8
0
100
AcDbBlockBegin
  2
*Model_Space
 70
     0
 10
0.0
 20
0.0
 30
0.0
  3
*Model_Space
  1

  0
ENDBLK
  5
14
330
2
100
AcDbEntity
  8
0
100
AcDbBlockEnd
  0
BLOCK
  5
18
330
17
100
AcDbEntity
 67
     1
  8
0
100
AcDbBlockBegin
  2
*Paper_Space
 70
     0
 10
0.0
 20
0.0
 30
0.0
  3
*Paper_Space
  1

  0
ENDBLK
  5
19
330
17
100
AcDbEntity
 67
     1
  8
0
100
AcDbBlockEnd
  0
BLOCK
  5
2B9
330
2B8
100
AcDbEntity
  8
0
100
AcDbBlockBegin
  2
GENAXEH
 70
     0
 10
0.0
 20
0.0
 30
0.0
  3
GENAXEH
  1

  0
LINE
  5
2BA
330
2B8
100
AcDbEntity
  8
0
100
AcDbLine
 10
-1.0
 20
0.0
 30
0.0
 11
1.0
 21
0.0
 31
0.0
  0
ENDBLK
  5
2BB
330
2B8
100
AcDbEntity
  8
0
100
AcDbBlockEnd
  0
BLOCK
  5
70
330
6F
100
AcDbEntity
  8
0
100
AcDbBlockBegin
  2
Einfügepunkt
 70
     0
 10
0.0
 20
0.0
 30
0.0
  3
Einfügepunkt
  1

  0
LINE
  5
71
330
6F
100
AcDbEntity
  8
GEB-BEZUG
100
AcDbLine
 10
-0.7071067811865817
 20
-0.7071067811865106
 30
0.0
 11
0.7071067811864751
 21
0.7071067811865817
 31
0.0
  0
LINE
  5
73
330
6F
100
AcDbEntity
  8
GEB-BEZUG
100
AcDbLine
 10
-0.7071067811865106
 20
0.7071067811865817
 30
0.0
 11
0.7071067811865462
 21
-0.7071067811865106
 31
0.0
  0
ENDBLK
  5
74
330
6F
100
AcDbEntity
  8
0
100
AcDbBlockEnd
  0
ENDSEC
  0
SECTION
  2
ENTITIES
  0
INSERT
  5
6E
330
2
100
AcDbEntity
  8
0
 48
25.0
100
AcDbBlockReference
  2
Einfügepunkt
 10
0.0
 20
0.0
 30
0.0
  0
LINE
  5
75
330
2
100
AcDbEntity
  8
Arbeitspunkt(DIN)
 48
25.0
100
AcDbLine
 10
-0.0000000000001705
 20
0.0
 30
0.0
 11
-0.0000000000001705
 21
-2.5
 31
0.0
  0
LINE
  5
77
330
2
100
AcDbEntity
  8
Arbeitspunkt(DIN)
 48
25.0
100
AcDbLine
 10
-0.0000000000001705
 20
0.0
 30
0.0
 11
-0.0000000000001705
 21
2.5
 31
0.0
  0
LINE
  5
78
330
2
100
AcDbEntity
  8
Arbeitspunkt(DIN)
 48
25.0
100
AcDbLine
 10
-0.0000000000001705
 20
0.0
 30
0.0
 11
-2.50000000000017
 21
0.0
 31
0.0
  0
LINE
  5
79
330
2
100
AcDbEntity
  8
Arbeitspunkt(DIN)
 48
25.0
100
AcDbLine
 10
-0.0000000000001705
 20
0.0
 30
0.0
 11
2.499999999999829
 21
0.0
 31
0.0
  0
ARC
  5
7A
330
2
100
AcDbEntity
  8
GEB-KONTUR-A
 48
25.0
100
AcDbCircle
 10
22.99999999999983
 20
-21.14999999999989
 30
0.0
 40
1.999999999999995
100
AcDbArc
 50
0.0
 51
90.0
  0
ARC
  5
7C
330
2
100
AcDbEntity
  8
GEB-KONTUR-A
 48
25.0
100
AcDbCircle
 10
22.99999999999983
 20
21.14999999999984
 30
0.0
 40
1.999999999999995
100
AcDbArc
 50
270.0
 51
0.0
  0
LINE
  5
7D
330
2
100
AcDbEntity
  8
GEB-VERDECKT
 48
25.0
100
AcDbLine
 10
32.99999999999983
 20
-15.99999999999991
 30
0.0
 11
34.99999999999977
 21
-17.99999999999988
 31
0.0
  0
LINE
  5
81
330
2
100
AcDbEntity
  8
GEB-VERDECKT
 48
25.0
100
AcDbLine
 10
32.99999999999983
 20
15.99999999999986
 30
0.0
 11
34.99999999999977
 21
17.99999999999983
 31
0.0
  0
LINE
  5
82
330
2
100
AcDbEntity
  8
GEB-VERDECKT
 48
25.0
100
AcDbLine
 10
32.99999999999983
 20
15.99999999999986
 30
0.0
 11
32.99999999999983
 21
-15.99999999999988
 31
0.0
  0
ARC
  5
83
330
2
100
AcDbEntity
  8
GEB-KONTUR-A
 48
25.0
100
AcDbCircle
 10
2.979999999999847
 20
-19.24499999999989
 30
0.0
 40
2.979999999999986
100
AcDbArc
 50
180.0
 51
310.0000000000001
  0
ARC
  5
84
330
2
100
AcDbEntity
  8
GEB-KONTUR-A
 48
25.0
100
AcDbCircle
 10
2.979999999999847
 20
19.24499999999986
 30
0.0
 40
2.979999999999992
100
AcDbArc
 50
49.99999999999991
 51
180.0
  0
LINE
  5
85
330
2
100
AcDbEntity
  8
GEB-KONTUR-A
 48
25.0
100
AcDbLine
 10
7.729273595340259
 20
19.14999999999986
 30
0.0
 11
4.895507076865726
 21
21.52781244049442
 31
0.0
  0
LINE
  5
86
330
2
100
AcDbEntity
  8
GEB-KONTUR-A
 48
25.0
100
AcDbLine
 10
7.729273595340259
 20
-19.14999999999989
 30
0.0
 11
4.895507076865726
 21
-21.52781244049444
 31
0.0
  0
LINE
  5
87
330
2
100
AcDbEntity
  8
GEB-KONTUR-A
 48
25.0
100
AcDbLine
 10
26.99999999999994
 20
26.54999999999978
 30
0.0
 11
24.99999999999983
 21
26.54999999999978
 31
0.0
  0
LINE
  5
88
330
2
100
AcDbEntity
  8
GEB-KONTUR-A
 48
25.0
100
AcDbLine
 10
26.99999999999994
 20
-26.54999999999984
 30
0.0
 11
24.99999999999983
 21
-26.54999999999984
 31
0.0
  0
LINE
  5
89
330
2
100
AcDbEntity
  8
GEB-KONTUR-A
 48
25.0
100
AcDbLine
 10
22.99999999999983
 20
19.14999999999983
 30
0.0
 11
7.729273595340259
 21
19.14999999999983
 31
0.0
  0
LINE
  5
8A
330
2
100
AcDbEntity
  8
GEB-KONTUR-A
 48
25.0
100
AcDbLine
 10
22.99999999999983
 20
-19.14999999999989
 30
0.0
 11
7.729273595340259
 21
-19.14999999999989
 31
0.0
  0
LINE
  5
8B
330
2
100
AcDbEntity
  8
GEB-KONTUR-A
 48
25.0
100
AcDbLine
 10
-0.0000000000001705
 20
19.24499999999986
 30
0.0
 11
-0.0000000000001705
 21
-19.24499999999989
 31
0.0
  0
LINE
  5
8C
330
2
100
AcDbEntity
  8
GEB-KONTUR-A
 48
25.0
100
AcDbLine
 10
7.729273595340259
 20
19.14999999999986
 30
0.0
 11
7.729273595340259
 21
-19.14999999999989
 31
0.0
  0
LINE
  5
8D
330
2
100
AcDbEntity
  8
GEB-KONTUR-A
 48
25.0
100
AcDbLine
 10
24.99999999999983
 20
26.54999999999982
 30
0.0
 11
24.99999999999983
 21
-26.54999999999984
 31
0.0
  0
LINE
  5
8E
330
2
100
AcDbEntity
  8
GEB-VERDECKT
 48
25.0
100
AcDbLine
 10
6.842878372153563
 20
18.00093333532138
 30
0.0
 11
3.963465042820303
 21
20.41704799797191
 31
0.0
  0
LINE
  5
8F
330
2
100
AcDbEntity
  8
GEB-VERDECKT
 48
25.0
100
AcDbLine
 10
6.842878372153563
 20
-18.0009333353214
 30
0.0
 11
3.963465042820303
 21
-20.41704799797193
 31
0.0
  0
ARC
  5
90
330
2
100
AcDbEntity
  8
GEB-VERDECKT
 48
25.0
100
AcDbCircle
 10
2.979999999999847
 20
-19.24499999999989
 30
0.0
 40
1.529999999999993
100
AcDbArc
 50
180.0
 51
310.0000000000001
  0
ARC
  5
91
330
2
100
AcDbEntity
  8
GEB-VERDECKT
 48
25.0
100
AcDbCircle
 10
2.979999999999847
 20
19.24499999999986
 30
0.0
 40
1.529999999999996
100
AcDbArc
 50
49.99999999999991
 51
180.0
  0
LINE
  5
92
330
2
100
AcDbEntity
  8
GEB-VERDECKT
 48
25.0
100
AcDbLine
 10
1.449999999999818
 20
18.14999999999986
 30
0.0
 11
-0.0000000000001705
 21
18.14999999999986
 31
0.0
  0
LINE
  5
93
330
2
100
AcDbEntity
  8
GEB-VERDECKT
 48
25.0
100
AcDbLine
 10
1.449999999999818
 20
-18.14999999999989
 30
0.0
 11
-0.0000000000001705
 21
-18.14999999999989
 31
0.0
  0
LINE
  5
94
330
2
100
AcDbEntity
  8
GEB-VERDECKT
 48
25.0
100
AcDbLine
 10
30.99999999999972
 20
26.54999999999978
 30
0.0
 11
26.99999999999994
 21
26.54999999999978
 31
0.0
  0
LINE
  5
95
330
2
100
AcDbEntity
  8
GEB-VERDECKT
 48
25.0
100
AcDbLine
 10
30.99999999999972
 20
-26.54999999999984
 30
0.0
 11
26.99999999999994
 21
-26.54999999999984
 31
0.0
  0
LINE
  5
96
330
2
100
AcDbEntity
  8
GEB-VERDECKT
 48
25.0
100
AcDbLine
 10
34.99999999999977
 20
28.19999999999976
 30
0.0
 11
30.99999999999977
 21
28.19999999999976
 31
0.0
  0
LINE
  5
97
330
2
100
AcDbEntity
  8
GEB-VERDECKT
 48
25.0
100
AcDbLine
 10
34.99999999999977
 20
-28.19999999999985
 30
0.0
 11
30.99999999999977
 21
-28.19999999999982
 31
0.0
  0
LINE
  5
98
330
2
100
AcDbEntity
  8
GEB-VERDECKT
 48
25.0
100
AcDbLine
 10
25.99999999999977
 20
17.64999999999986
 30
0.0
 11
7.807059786683339
 21
17.64999999999986
 31
0.0
  0
LINE
  5
99
330
2
100
AcDbEntity
  8
GEB-VERDECKT
 48
25.0
100
AcDbLine
 10
25.99999999999977
 20
-17.64999999999992
 30
0.0
 11
7.807059786683339
 21
-17.64999999999986
 31
0.0
  0
ARC
  5
9A
330
2
100
AcDbEntity
  8
GEB-VERDECKT
 48
25.0
100
AcDbCircle
 10
7.807059786683339
 20
-19.14999999999986
 30
0.0
 40
1.499999999999993
100
AcDbArc
 50
90.0
 51
130.0000000000001
  0
ARC
  5
9B
330
2
100
AcDbEntity
  8
GEB-VERDECKT
 48
25.0
100
AcDbCircle
 10
7.807059786683339
 20
19.14999999999983
 30
0.0
 40
1.499999999999996
100
AcDbArc
 50
229.9999999999999
 51
270.0
  0
LINE
  5
9C
330
2
100
AcDbEntity
  8
GEB-VERDECKT
 48
25.0
100
AcDbLine
 10
32.99999999999983
 20
15.99999999999986
 30
0.0
 11
25.99999999999977
 21
15.99999999999986
 31
0.0
  0
LINE
  5
9D
330
2
100
AcDbEntity
  8
GEB-VERDECKT
 48
25.0
100
AcDbLine
 10
32.99999999999983
 20
-15.99999999999991
 30
0.0
 11
26.0999999999998
 21
-15.99999999999991
 31
0.0
  0
LINE
  5
9E
330
2
100
AcDbEntity
  8
GEB-VERDECKT
 48
25.0
100
AcDbLine
 10
1.449999999999818
 20
19.24499999999986
 30
0.0
 11
1.449999999999818
 21
-19.24499999999989
 31
0.0
  0
LINE
  5
9F
330
2
100
AcDbEntity
  8
GEB-VERDECKT
 48
25.0
100
AcDbLine
 10
34.99999999999977
 20
28.19999999999976
 30
0.0
 11
34.99999999999977
 21
-28.19999999999982
 31
0.0
  0
LINE
  5
A0
330
2
100
AcDbEntity
  8
GEB-VERDECKT
 48
25.0
100
AcDbLine
 10
25.99999999999977
 20
17.64999999999986
 30
0.0
 11
25.99999999999977
 21
-17.64999999999986
 31
0.0
  0
LINE
  5
A1
330
2
100
AcDbEntity
  8
GEB-VERDECKT
 48
25.0
100
AcDbLine
 10
25.99999999999977
 20
4.444999999999936
 30
0.0
 11
26.0999999999998
 21
4.444999999999936
 31
0.0
  0
LINE
  5
A2
330
2
100
AcDbEntity
  8
GEB-VERDECKT
 48
25.0
100
AcDbLine
 10
26.0999999999998
 20
-4.303852743472646
 30
0.0
 11
26.0999999999998
 21
4.444999999999964
 31
0.0
  0
LINE
  5
A3
330
2
100
AcDbEntity
  8
GEB-VERDECKT
 48
25.0
100
AcDbLine
 10
26.0999999999998
 20
-15.96136345797211
 30
0.0
 11
26.0999999999998
 21
-15.99999999999991
 31
0.0
  0
LINE
  5
A4
330
2
100
AcDbEntity
  8
GEB-VERDECKT
 48
25.0
100
AcDbLine
 10
25.99999999999977
 20
-4.303852743472674
 30
0.0
 11
26.0999999999998
 21
-4.303852743472674
 31
0.0
  0
LINE
  5
A5
330
2
100
AcDbEntity
  8
GEB-VERDECKT
 48
25.0
100
AcDbLine
 10
26.0999999999998
 20
-4.303852743472674
 30
0.0
 11
26.0999999999998
 21
-15.96136345797208
 31
0.0
  0
LINE
  5
A6
330
2
100
AcDbEntity
  8
GEB-VERDECKT
 48
25.0
100
AcDbLine
 10
26.0999999999998
 20
-15.96136345797208
 30
0.0
 11
25.99999999999977
 21
-15.96136345797208
 31
0.0
  0
LINE
  5
A7
330
2
100
AcDbEntity
  8
GEB-VERDECKT
 48
25.0
100
AcDbLine
 10
30.99999999999994
 20
26.64999999999901
 30
0.0
 11
27.0
 21
26.64999999999901
 31
0.0
  0
LINE
  5
A8
330
2
100
AcDbEntity
  8
GEB-VERDECKT
 48
25.0
100
AcDbLine
 10
31.0
 20
-26.64999999999904
 30
0.0
 11
27.0
 21
-26.64999999999904
 31
0.0
  0
LINE
  5
A9
330
2
100
AcDbEntity
  8
GEB-VERDECKT
 48
25.0
100
AcDbLine
 10
31.0
 20
-28.32799999999912
 30
0.0
 11
45.43829685560445
 21
-28.32799999999912
 31
0.0
  0
LINE
  5
AA
330
2
100
AcDbEntity
  8
GEB-VERDECKT
 48
25.0
100
AcDbLine
 10
30.99999999999994
 20
28.32799999999887
 30
0.0
 11
45.43829685560439
 21
28.32799999999887
 31
0.0
  0
LINE
  5
AB
330
2
100
AcDbEntity
  8
GEB-VERDECKT
 48
25.0
100
AcDbLine
 10
31.0
 20
-28.32799999999912
 30
0.0
 11
31.0
 21
28.32799999999887
 31
0.0
  0
LINE
  5
AC
330
2
100
AcDbEntity
  8
GEB-VERDECKT
 48
25.0
100
AcDbLine
 10
45.4382968556045
 20
-28.32799999999901
 30
0.0
 11
47.99999999999937
 21
-29.80699999999933
 31
0.0
  0
LINE
  5
AD
330
2
100
AcDbEntity
  8
GEB-VERDECKT
 48
25.0
100
AcDbLine
 10
45.43829685560439
 20
28.32799999999895
 30
0.0
 11
47.99999999999989
 21
29.80699999999962
 31
0.0
  0
LINE
  5
AE
330
2
100
AcDbEntity
  8
GEB-VERDECKT
 48
25.0
100
AcDbLine
 10
45.43829685560445
 20
-28.32799999999912
 30
0.0
 11
45.43829685560445
 21
28.32799999999887
 31
0.0
  0
POLYLINE
  5
AF
330
2
100
AcDbEntity
  8
GEB-KONTUR-A
 48
25.0
100
AcDb2dPolyline
 66
     1
 10
0.0
 20
0.0
 30
0.0
 70
   128
  0
VERTEX
  5
B0
330
AF
100
AcDbEntity
  8
GEB-KONTUR-A
 48
25.0
100
AcDbVertex
100
AcDb2dVertex
 10
26.99999999999989
 20
12.43721127510906
 30
0.0
  0
VERTEX
  5
B1
330
AF
100
AcDbEntity
  8
GEB-KONTUR-A
 48
25.0
100
AcDbVertex
100
AcDb2dVertex
 10
27.0020113053323
 20
12.87685751915808
 30
0.0
  0
VERTEX
  5
B2
330
AF
100
AcDbEntity
  8
GEB-KONTUR-A
 48
25.0
100
AcDbVertex
100
AcDb2dVertex
 10
27.00803469039954
 20
13.3159983158194
 30
0.0
  0
VERTEX
  5
B3
330
AF
100
AcDbEntity
  8
GEB-KONTUR-A
 48
25.0
100
AcDbVertex
100
AcDb2dVertex
 10
27.01805633073661
 20
13.75477552414756
 30
0.0
  0
VERTEX
  5
B4
330
AF
100
AcDbEntity
  8
GEB-KONTUR-A
 48
25.0
100
AcDbVertex
100
AcDb2dVertex
 10
27.03206501016382
 20
14.19332861901137
 30
0.0
  0
VERTEX
  5
B5
330
AF
100
AcDbEntity
  8
GEB-KONTUR-A
 48
25.0
100
AcDbVertex
100
AcDb2dVertex
 10
27.0500520877539
 20
14.63179826737252
 30
0.0
  0
VERTEX
  5
B6
330
AF
100
AcDbEntity
  8
GEB-KONTUR-A
 48
25.0
100
AcDbVertex
100
AcDb2dVertex
 10
27.07201147265721
 20
15.07032394409975
 30
0.0
  0
VERTEX
  5
B7
330
AF
100
AcDbEntity
  8
GEB-KONTUR-A
 48
25.0
100
AcDbVertex
100
AcDb2dVertex
 10
27.09793962351966
 20
15.50904393196893
 30
0.0
  0
VERTEX
  5
B8
330
AF
100
AcDbEntity
  8
GEB-KONTUR-A
 48
25.0
100
AcDbVertex
100
AcDb2dVertex
 10
27.12783551588643
 20
15.94809651375596
 30
0.0
  0
VERTEX
  5
B9
330
AF
100
AcDbEntity
  8
GEB-KONTUR-A
 48
25.0
100
AcDbVertex
100
AcDb2dVertex
 10
27.16170062124718
 20
16.38761878014384
 30
0.0
  0
VERTEX
  5
BA
330
AF
100
AcDbEntity
  8
GEB-KONTUR-A
 48
25.0
100
AcDbVertex
100
AcDb2dVertex
 10
27.19953893497575
 20
16.82774901390843
 30
0.0
  0
VERTEX
  5
BB
330
AF
100
AcDbEntity
  8
GEB-KONTUR-A
 48
25.0
100
AcDbVertex
100
AcDb2dVertex
 10
27.24135692045081
 20
17.26862668991848
 30
0.0
  0
VERTEX
  5
BC
330
AF
100
AcDbEntity
  8
GEB-KONTUR-A
 48
25.0
100
AcDbVertex
100
AcDb2dVertex
 10
27.28716359287489
 20
17.71038770676409
 30
0.0
  0
VERTEX
  5
BD
330
AF
100
AcDbEntity
  8
GEB-KONTUR-A
 48
25.0
100
AcDbVertex
100
AcDb2dVertex
 10
27.336970463395
 20
18.15317392349988
 30
0.0
  0
VERTEX
  5
BE
330
AF
100
AcDbEntity
  8
GEB-KONTUR-A
 48
25.0
100
AcDbVertex
100
AcDb2dVertex
 10
27.39079148322332
 20
18.59712243080878
 30
0.0
  0
VERTEX
  5
BF
330
AF
100
AcDbEntity
  8
GEB-KONTUR-A
 48
25.0
100
AcDbVertex
100
AcDb2dVertex
 10
27.44864322990168
 20
19.04237389565244
 30
0.0
  0
VERTEX
  5
C0
330
AF
100
AcDbEntity
  8
GEB-KONTUR-A
 48
25.0
100
AcDbVertex
100
AcDb2dVertex
 10
27.51054477691639
 20
19.48906898499257
 30
0.0
  0
VERTEX
  5
C1
330
AF
100
AcDbEntity
  8
GEB-KONTUR-A
 48
25.0
100
AcDbVertex
100
AcDb2dVertex
 10
27.5765177682041
 20
19.93734955788375
 30
0.0
  0
VERTEX
  5
C2
330
AF
100
AcDbEntity
  8
GEB-KONTUR-A
 48
25.0
100
AcDbVertex
100
AcDb2dVertex
 10
27.64658649265755
 20
20.38735866547341
 30
0.0
  0
VERTEX
  5
C3
330
AF
100
AcDbEntity
  8
GEB-KONTUR-A
 48
25.0
100
AcDbVertex
100
AcDb2dVertex
 10
27.72077773511398
 20
20.8392381668161
 30
0.0
  0
VERTEX
  5
C4
330
AF
100
AcDbEntity
  8
GEB-KONTUR-A
 48
25.0
100
AcDbVertex
100
AcDb2dVertex
 10
27.79912103712547
 20
21.29313945770957
 30
0.0
  0
VERTEX
  5
C5
330
AF
100
AcDbEntity
  8
GEB-KONTUR-A
 48
25.0
100
AcDbVertex
100
AcDb2dVertex
 10
27.881648659706
 20
21.74920320511552
 30
0.0
  0
VERTEX
  5
C6
330
AF
100
AcDbEntity
  8
GEB-KONTUR-A
 48
25.0
100
AcDbVertex
100
AcDb2dVertex
 10
27.96839547157276
 20
22.20758199692455
 30
0.0
  0
VERTEX
  5
C7
330
AF
100
AcDbEntity
  8
GEB-KONTUR-A
 48
25.0
100
AcDbVertex
100
AcDb2dVertex
 10
28.05939924716938
 20
22.66842842102724
 30
0.0
  0
VERTEX
  5
C8
330
AF
100
AcDbEntity
  8
GEB-KONTUR-A
 48
25.0
100
AcDbVertex
100
AcDb2dVertex
 10
28.1547005176543
 20
23.13189029694269
 30
0.0
  0
SEQEND
  5
C9
330
AF
100
AcDbEntity
  8
GEB-KONTUR-A
 48
25.0
  0
POLYLINE
  5
CA
330
2
100
AcDbEntity
  8
GEB-KONTUR-A
 48
25.0
100
AcDb2dPolyline
 66
     1
 10
0.0
 20
0.0
 30
0.0
 70
   128
  0
VERTEX
  5
CB
330
CA
100
AcDbEntity
  8
GEB-KONTUR-A
 48
25.0
100
AcDbVertex
100
AcDb2dVertex
 10
47.9999990463254
 20
12.43721127510906
 30
0.0
  0
VERTEX
  5
CC
330
CA
100
AcDbEntity
  8
GEB-KONTUR-A
 48
25.0
100
AcDbVertex
100
AcDb2dVertex
 10
47.99798917770357
 20
11.99756622315297
 30
0.0
  0
VERTEX
  5
CD
330
CA
100
AcDbEntity
  8
GEB-KONTUR-A
 48
25.0
100
AcDbVertex
100
AcDb2dVertex
 10
47.99196434020967
 20
11.55842542649162
 30
0.0
  0
VERTEX
  5
CE
330
CA
100
AcDbEntity
  8
GEB-KONTUR-A
 48
25.0
100
AcDbVertex
100
AcDb2dVertex
 10
47.98194360733003
 20
11.11964821816346
 30
0.0
  0
VERTEX
  5
CF
330
CA
100
AcDbEntity
  8
GEB-KONTUR-A
 48
25.0
100
AcDbVertex
100
AcDb2dVertex
 10
47.96793413162203
 20
10.68109393120673
 30
0.0
  0
VERTEX
  5
D0
330
CA
100
AcDbEntity
  8
GEB-KONTUR-A
 48
25.0
100
AcDbVertex
100
AcDb2dVertex
 10
47.94994783401461
 20
10.24262428284561
 30
0.0
  0
VERTEX
  5
D1
330
CA
100
AcDbEntity
  8
GEB-KONTUR-A
 48
25.0
100
AcDbVertex
100
AcDb2dVertex
 10
47.92798948287935
 20
9.804098606118373
 30
0.0
  0
VERTEX
  5
D2
330
CA
100
AcDbEntity
  8
GEB-KONTUR-A
 48
25.0
100
AcDbVertex
100
AcDb2dVertex
 10
47.90206146240206
 20
9.365379214295643
 30
0.0
  0
VERTEX
  5
D3
330
CA
100
AcDbEntity
  8
GEB-KONTUR-A
 48
25.0
100
AcDbVertex
100
AcDb2dVertex
 10
47.87216377258272
 20
8.926327228555038
 30
0.0
  0
VERTEX
  5
D4
330
CA
100
AcDbEntity
  8
GEB-KONTUR-A
 48
25.0
100
AcDbVertex
100
AcDb2dVertex
 10
47.83829879760713
 20
8.486804962167184
 30
0.0
  0
VERTEX
  5
D5
330
CA
100
AcDbEntity
  8
GEB-KONTUR-A
 48
25.0
100
AcDbVertex
100
AcDb2dVertex
 10
47.80046176910372
 20
8.046674132356145
 30
0.0
  0
VERTEX
  5
D6
330
CA
100
AcDbEntity
  8
GEB-KONTUR-A
 48
25.0
100
AcDbVertex
100
AcDb2dVertex
 10
47.7586431503293
 20
7.605797052392546
 30
0.0
  0
VERTEX
  5
D7
330
CA
100
AcDbEntity
  8
GEB-KONTUR-A
 48
25.0
100
AcDbVertex
100
AcDb2dVertex
 10
47.71283578872652
 20
7.164034843454004
 30
0.0
  0
VERTEX
  5
D8
330
CA
100
AcDbEntity
  8
GEB-KONTUR-A
 48
25.0
100
AcDbVertex
100
AcDb2dVertex
 10
47.6630301475522
 20
6.721249222764697
 30
0.0
  0
VERTEX
  5
D9
330
CA
100
AcDbEntity
  8
GEB-KONTUR-A
 48
25.0
100
AcDbVertex
100
AcDb2dVertex
 10
47.60920953750582
 20
6.277300715455794
 30
0.0
  0
VERTEX
  5
DA
330
CA
100
AcDbEntity
  8
GEB-KONTUR-A
 48
25.0
100
AcDbVertex
100
AcDb2dVertex
 10
47.55135726928682
 20
5.832049250612129
 30
0.0
  0
VERTEX
  5
DB
330
CA
100
AcDbEntity
  8
GEB-KONTUR-A
 48
25.0
100
AcDbVertex
100
AcDb2dVertex
 10
47.48945426940889
 20
5.385354161271976
 30
0.0
  0
VERTEX
  5
DC
330
CA
100
AcDbEntity
  8
GEB-KONTUR-A
 48
25.0
100
AcDbVertex
100
AcDb2dVertex
 10
47.4234814643857
 20
4.93707388640405
 30
0.0
  0
VERTEX
  5
DD
330
CA
100
AcDbEntity
  8
GEB-KONTUR-A
 48
25.0
100
AcDbVertex
100
AcDb2dVertex
 10
47.35341262817354
 20
4.487065076837609
 30
0.0
  0
VERTEX
  5
DE
330
CA
100
AcDbEntity
  8
GEB-KONTUR-A
 48
25.0
100
AcDbVertex
100
AcDb2dVertex
 10
47.27922153472872
 20
4.035183787355578
 30
0.0
  0
VERTEX
  5
DF
330
CA
100
AcDbEntity
  8
GEB-KONTUR-A
 48
25.0
100
AcDbVertex
100
AcDb2dVertex
 10
47.20087957382173
 20
3.581284284601423
 30
0.0
  0
VERTEX
  5
E0
330
CA
100
AcDbEntity
  8
GEB-KONTUR-A
 48
25.0
100
AcDbVertex
100
AcDb2dVertex
 10
47.11835098266573
 20
3.125219345102607
 30
0.0
  0
VERTEX
  5
E1
330
CA
100
AcDbEntity
  8
GEB-KONTUR-A
 48
25.0
100
AcDbVertex
100
AcDb2dVertex
 10
47.03160476684542
 20
2.666840255270358
 30
0.0
  0
VERTEX
  5
E2
330
CA
100
AcDbEntity
  8
GEB-KONTUR-A
 48
25.0
100
AcDbVertex
100
AcDb2dVertex
 10
46.94060039520235
 20
2.205995619307003
 30
0.0
  0
VERTEX
  5
E3
330
CA
100
AcDbEntity
  8
GEB-KONTUR-A
 48
25.0
100
AcDbVertex
100
AcDb2dVertex
 10
46.84529972076387
 20
1.742532700310249
 30
0.0
  0
SEQEND
  5
E4
330
CA
100
AcDbEntity
  8
GEB-KONTUR-A
 48
25.0
  0
POLYLINE
  5
E5
330
2
100
AcDbEntity
  8
GEB-KONTUR-A
 48
25.0
100
AcDb2dPolyline
 66
     1
 10
0.0
 20
0.0
 30
0.0
 70
   128
  0
VERTEX
  5
E6
330
E5
100
AcDbEntity
  8
GEB-KONTUR-A
 48
25.0
100
AcDbVertex
100
AcDb2dVertex
 10
46.84529972076387
 20
-1.742532700290041
 30
0.0
  0
VERTEX
  5
E7
330
E5
100
AcDbEntity
  8
GEB-KONTUR-A
 48
25.0
100
AcDbVertex
100
AcDb2dVertex
 10
46.94060039520235
 20
-2.205995619286909
 30
0.0
  0
VERTEX
  5
E8
330
E5
100
AcDbEntity
  8
GEB-KONTUR-A
 48
25.0
100
AcDbVertex
100
AcDb2dVertex
 10
47.03160476684542
 20
-2.666840255250406
 30
0.0
  0
VERTEX
  5
E9
330
E5
100
AcDbEntity
  8
GEB-KONTUR-A
 48
25.0
100
AcDbVertex
100
AcDb2dVertex
 10
47.11835098266573
 20
-3.12521934508274
 30
0.0
  0
VERTEX
  5
EA
330
E5
100
AcDbEntity
  8
GEB-KONTUR-A
 48
25.0
100
AcDbVertex
100
AcDb2dVertex
 10
47.20087957382173
 20
-3.58128428458167
 30
0.0
  0
VERTEX
  5
EB
330
E5
100
AcDbEntity
  8
GEB-KONTUR-A
 48
25.0
100
AcDbVertex
100
AcDb2dVertex
 10
47.27922153472872
 20
-4.03518378733591
 30
0.0
  0
VERTEX
  5
EC
330
E5
100
AcDbEntity
  8
GEB-KONTUR-A
 48
25.0
100
AcDbVertex
100
AcDb2dVertex
 10
47.35341262817354
 20
-4.487065076818055
 30
0.0
  0
VERTEX
  5
ED
330
E5
100
AcDbEntity
  8
GEB-KONTUR-A
 48
25.0
100
AcDbVertex
100
AcDb2dVertex
 10
47.4234814643857
 20
-4.937073886384609
 30
0.0
  0
VERTEX
  5
EE
330
E5
100
AcDbEntity
  8
GEB-KONTUR-A
 48
25.0
100
AcDbVertex
100
AcDb2dVertex
 10
47.48945426940889
 20
-5.385354161252649
 30
0.0
  0
VERTEX
  5
EF
330
E5
100
AcDbEntity
  8
GEB-KONTUR-A
 48
25.0
100
AcDbVertex
100
AcDb2dVertex
 10
47.55135726928682
 20
-5.832049250592888
 30
0.0
  0
VERTEX
  5
F0
330
E5
100
AcDbEntity
  8
GEB-KONTUR-A
 48
25.0
100
AcDbVertex
100
AcDb2dVertex
 10
47.60920953750582
 20
-6.277300715436695
 30
0.0
  0
VERTEX
  5
F1
330
E5
100
AcDbEntity
  8
GEB-KONTUR-A
 48
25.0
100
AcDbVertex
100
AcDb2dVertex
 10
47.6630301475522
 20
-6.721249222745683
 30
0.0
  0
VERTEX
  5
F2
330
E5
100
AcDbEntity
  8
GEB-KONTUR-A
 48
25.0
100
AcDbVertex
100
AcDb2dVertex
 10
47.71283578872652
 20
-7.164034843435132
 30
0.0
  0
VERTEX
  5
F3
330
E5
100
AcDbEntity
  8
GEB-KONTUR-A
 48
25.0
100
AcDbVertex
100
AcDb2dVertex
 10
47.7586431503293
 20
-7.605797052373759
 30
0.0
  0
VERTEX
  5
F4
330
E5
100
AcDbEntity
  8
GEB-KONTUR-A
 48
25.0
100
AcDbVertex
100
AcDb2dVertex
 10
47.80046176910372
 20
-8.0466741323375
 30
0.0
  0
VERTEX
  5
F5
330
E5
100
AcDbEntity
  8
GEB-KONTUR-A
 48
25.0
100
AcDbVertex
100
AcDb2dVertex
 10
47.83829879760713
 20
-8.486804962148625
 30
0.0
  0
VERTEX
  5
F6
330
E5
100
AcDbEntity
  8
GEB-KONTUR-A
 48
25.0
100
AcDbVertex
100
AcDb2dVertex
 10
47.87216377258272
 20
-8.926327228536592
 30
0.0
  0
VERTEX
  5
F7
330
E5
100
AcDbEntity
  8
GEB-KONTUR-A
 48
25.0
100
AcDbVertex
100
AcDb2dVertex
 10
47.90206146240206
 20
-9.365379214277311
 30
0.0
  0
VERTEX
  5
F8
330
E5
100
AcDbEntity
  8
GEB-KONTUR-A
 48
25.0
100
AcDbVertex
100
AcDb2dVertex
 10
47.92798948287935
 20
-9.804098606100154
 30
0.0
  0
VERTEX
  5
F9
330
E5
100
AcDbEntity
  8
GEB-KONTUR-A
 48
25.0
100
AcDbVertex
100
AcDb2dVertex
 10
47.94994783401461
 20
-10.24262428282748
 30
0.0
  0
VERTEX
  5
FA
330
E5
100
AcDbEntity
  8
GEB-KONTUR-A
 48
25.0
100
AcDbVertex
100
AcDb2dVertex
 10
47.96793413162203
 20
-10.68109393118871
 30
0.0
  0
VERTEX
  5
FB
330
E5
100
AcDbEntity
  8
GEB-KONTUR-A
 48
25.0
100
AcDbVertex
100
AcDb2dVertex
 10
47.98194360733003
 20
-11.11964821814553
 30
0.0
  0
VERTEX
  5
FC
330
E5
100
AcDbEntity
  8
GEB-KONTUR-A
 48
25.0
100
AcDbVertex
100
AcDb2dVertex
 10
47.99196434020973
 20
-11.55842542647383
 30
0.0
  0
VERTEX
  5
FD
330
E5
100
AcDbEntity
  8
GEB-KONTUR-A
 48
25.0
100
AcDbVertex
100
AcDb2dVertex
 10
47.99798917770362
 20
-11.99756622313524
 30
0.0
  0
VERTEX
  5
FE
330
E5
100
AcDbEntity
  8
GEB-KONTUR-A
 48
25.0
100
AcDbVertex
100
AcDb2dVertex
 10
47.99999904632545
 20
-12.43721127509144
 30
0.0
  0
SEQEND
  5
FF
330
E5
100
AcDbEntity
  8
GEB-KONTUR-A
 48
25.0
  0
POLYLINE
  5
100
330
2
100
AcDbEntity
  8
GEB-KONTUR-A
 48
25.0
100
AcDb2dPolyline
 66
     1
 10
0.0
 20
0.0
 30
0.0
 70
   128
  0
VERTEX
  5
101
330
100
100
AcDbEntity
  8
GEB-KONTUR-A
 48
25.0
100
AcDbVertex
100
AcDb2dVertex
 10
47.99999904632545
 20
-12.43721127509144
 30
0.0
  0
VERTEX
  5
102
330
100
100
AcDbEntity
  8
GEB-KONTUR-A
 48
25.0
100
AcDbVertex
100
AcDb2dVertex
 10
47.99798917770362
 20
-12.87685751914057
 30
0.0
  0
VERTEX
  5
103
330
100
100
AcDbEntity
  8
GEB-KONTUR-A
 48
25.0
100
AcDbVertex
100
AcDb2dVertex
 10
47.99196434020973
 20
-13.31599831580198
 30
0.0
  0
VERTEX
  5
104
330
100
100
AcDbEntity
  8
GEB-KONTUR-A
 48
25.0
100
AcDbVertex
100
AcDb2dVertex
 10
47.98194360733009
 20
-13.75477552413025
 30
0.0
  0
VERTEX
  5
105
330
100
100
AcDbEntity
  8
GEB-KONTUR-A
 48
25.0
100
AcDbVertex
100
AcDb2dVertex
 10
47.96793413162208
 20
-14.1933286189942
 30
0.0
  0
VERTEX
  5
106
330
100
100
AcDbEntity
  8
GEB-KONTUR-A
 48
25.0
100
AcDbVertex
100
AcDb2dVertex
 10
47.94994783401466
 20
-14.63179826735546
 30
0.0
  0
VERTEX
  5
107
330
100
100
AcDbEntity
  8
GEB-KONTUR-A
 48
25.0
100
AcDbVertex
100
AcDb2dVertex
 10
47.9279894828794
 20
-15.07032394408279
 30
0.0
  0
VERTEX
  5
108
330
100
100
AcDbEntity
  8
GEB-KONTUR-A
 48
25.0
100
AcDbVertex
100
AcDb2dVertex
 10
47.90206146240211
 20
-15.50904393195208
 30
0.0
  0
VERTEX
  5
109
330
100
100
AcDbEntity
  8
GEB-KONTUR-A
 48
25.0
100
AcDbVertex
100
AcDb2dVertex
 10
47.87216377258277
 20
-15.94809651373924
 30
0.0
  0
VERTEX
  5
10A
330
100
100
AcDbEntity
  8
GEB-KONTUR-A
 48
25.0
100
AcDbVertex
100
AcDb2dVertex
 10
47.83829879760719
 20
-16.38761878012721
 30
0.0
  0
VERTEX
  5
10B
330
100
100
AcDbEntity
  8
GEB-KONTUR-A
 48
25.0
100
AcDbVertex
100
AcDb2dVertex
 10
47.80046176910377
 20
-16.82774901389189
 30
0.0
  0
VERTEX
  5
10C
330
100
100
AcDbEntity
  8
GEB-KONTUR-A
 48
25.0
100
AcDbVertex
100
AcDb2dVertex
 10
47.75864315032936
 20
-17.26862668990205
 30
0.0
  0
VERTEX
  5
10D
330
100
100
AcDbEntity
  8
GEB-KONTUR-A
 48
25.0
100
AcDbVertex
100
AcDb2dVertex
 10
47.71283578872657
 20
-17.71038770674778
 30
0.0
  0
VERTEX
  5
10E
330
100
100
AcDbEntity
  8
GEB-KONTUR-A
 48
25.0
100
AcDbVertex
100
AcDb2dVertex
 10
47.66303014755226
 20
-18.15317392348368
 30
0.0
  0
VERTEX
  5
10F
330
100
100
AcDbEntity
  8
GEB-KONTUR-A
 48
25.0
100
AcDbVertex
100
AcDb2dVertex
 10
47.60920953750587
 20
-18.59712243079266
 30
0.0
  0
VERTEX
  5
110
330
100
100
AcDbEntity
  8
GEB-KONTUR-A
 48
25.0
100
AcDbVertex
100
AcDb2dVertex
 10
47.55135726928688
 20
-19.04237389563644
 30
0.0
  0
VERTEX
  5
111
330
100
100
AcDbEntity
  8
GEB-KONTUR-A
 48
25.0
100
AcDbVertex
100
AcDb2dVertex
 10
47.48945426940895
 20
-19.48906898497671
 30
0.0
  0
VERTEX
  5
112
330
100
100
AcDbEntity
  8
GEB-KONTUR-A
 48
25.0
100
AcDbVertex
100
AcDb2dVertex
 10
47.42348146438575
 20
-19.93734955786797
 30
0.0
  0
VERTEX
  5
113
330
100
100
AcDbEntity
  8
GEB-KONTUR-A
 48
25.0
100
AcDbVertex
100
AcDb2dVertex
 10
47.35341262817359
 20
-20.38735866545772
 30
0.0
  0
VERTEX
  5
114
330
100
100
AcDbEntity
  8
GEB-KONTUR-A
 48
25.0
100
AcDbVertex
100
AcDb2dVertex
 10
47.27922153472877
 20
-20.83923816680055
 30
0.0
  0
VERTEX
  5
115
330
100
100
AcDbEntity
  8
GEB-KONTUR-A
 48
25.0
100
AcDbVertex
100
AcDb2dVertex
 10
47.20087957382179
 20
-21.29313945769417
 30
0.0
  0
VERTEX
  5
116
330
100
100
AcDbEntity
  8
GEB-KONTUR-A
 48
25.0
100
AcDbVertex
100
AcDb2dVertex
 10
47.11835098266578
 20
-21.7492032051002
 30
0.0
  0
VERTEX
  5
117
330
100
100
AcDbEntity
  8
GEB-KONTUR-A
 48
25.0
100
AcDbVertex
100
AcDb2dVertex
 10
47.03160476684547
 20
-22.20758199690931
 30
0.0
  0
VERTEX
  5
118
330
100
100
AcDbEntity
  8
GEB-KONTUR-A
 48
25.0
100
AcDbVertex
100
AcDb2dVertex
 10
46.9406003952024
 20
-22.66842842101215
 30
0.0
  0
VERTEX
  5
119
330
100
100
AcDbEntity
  8
GEB-KONTUR-A
 48
25.0
100
AcDbVertex
100
AcDb2dVertex
 10
46.84529972076393
 20
-23.13189029692771
 30
0.0
  0
SEQEND
  5
11A
330
100
100
AcDbEntity
  8
GEB-KONTUR-A
 48
25.0
  0
POLYLINE
  5
11B
330
2
100
AcDbEntity
  8
GEB-KONTUR-A
 48
25.0
100
AcDb2dPolyline
 66
     1
 10
0.0
 20
0.0
 30
0.0
 70
   128
  0
VERTEX
  5
11C
330
11B
100
AcDbEntity
  8
GEB-KONTUR-A
 48
25.0
100
AcDbVertex
100
AcDb2dVertex
 10
46.84529972076393
 20
-25.59620380400841
 30
0.0
  0
VERTEX
  5
11D
330
11B
100
AcDbEntity
  8
GEB-KONTUR-A
 48
25.0
100
AcDbVertex
100
AcDb2dVertex
 10
46.9406003952024
 20
-25.78817605971531
 30
0.0
  0
VERTEX
  5
11E
330
11B
100
AcDbEntity
  8
GEB-KONTUR-A
 48
25.0
100
AcDbVertex
100
AcDb2dVertex
 10
47.03160476684547
 20
-25.97906351088733
 30
0.0
  0
VERTEX
  5
11F
330
11B
100
AcDbEntity
  8
GEB-KONTUR-A
 48
25.0
100
AcDbVertex
100
AcDb2dVertex
 10
47.11835098266578
 20
-26.16893053054079
 30
0.0
  0
VERTEX
  5
120
330
11B
100
AcDbEntity
  8
GEB-KONTUR-A
 48
25.0
100
AcDbVertex
100
AcDb2dVertex
 10
47.20087957382179
 20
-26.35783910750624
 30
0.0
  0
VERTEX
  5
121
330
11B
100
AcDbEntity
  8
GEB-KONTUR-A
 48
25.0
100
AcDbVertex
100
AcDb2dVertex
 10
47.27922153472877
 20
-26.54585123061429
 30
0.0
  0
VERTEX
  5
122
330
11B
100
AcDbEntity
  8
GEB-KONTUR-A
 48
25.0
100
AcDbVertex
100
AcDb2dVertex
 10
47.35341262817359
 20
-26.73302650450967
 30
0.0
  0
VERTEX
  5
123
330
11B
100
AcDbEntity
  8
GEB-KONTUR-A
 48
25.0
100
AcDbVertex
100
AcDb2dVertex
 10
47.42348146438575
 20
-26.91942691802296
 30
0.0
  0
VERTEX
  5
124
330
11B
100
AcDbEntity
  8
GEB-KONTUR-A
 48
25.0
100
AcDbVertex
100
AcDb2dVertex
 10
47.48945426940895
 20
-27.10510969161322
 30
0.0
  0
VERTEX
  5
125
330
11B
100
AcDbEntity
  8
GEB-KONTUR-A
 48
25.0
100
AcDbVertex
100
AcDb2dVertex
 10
47.55135726928688
 20
-27.29013681411087
 30
0.0
  0
VERTEX
  5
126
330
11B
100
AcDbEntity
  8
GEB-KONTUR-A
 48
25.0
100
AcDbVertex
100
AcDb2dVertex
 10
47.60920953750587
 20
-27.474565505975
 30
0.0
  0
VERTEX
  5
127
330
11B
100
AcDbEntity
  8
GEB-KONTUR-A
 48
25.0
100
AcDbVertex
100
AcDb2dVertex
 10
47.66303014755226
 20
-27.65845537185038
 30
0.0
  0
VERTEX
  5
128
330
11B
100
AcDbEntity
  8
GEB-KONTUR-A
 48
25.0
100
AcDbVertex
100
AcDb2dVertex
 10
47.71283578872669
 20
-27.84186363219595
 30
0.0
  0
VERTEX
  5
129
330
11B
100
AcDbEntity
  8
GEB-KONTUR-A
 48
25.0
100
AcDbVertex
100
AcDb2dVertex
 10
47.75864315032947
 20
-28.02484750747075
 30
0.0
  0
VERTEX
  5
12A
330
11B
100
AcDbEntity
  8
GEB-KONTUR-A
 48
25.0
100
AcDbVertex
100
AcDb2dVertex
 10
47.80046176910389
 20
-28.20746421813368
 30
0.0
  0
VERTEX
  5
12B
330
11B
100
AcDbEntity
  8
GEB-KONTUR-A
 48
25.0
100
AcDbVertex
100
AcDb2dVertex
 10
47.8382987976073
 20
-28.38977336882965
 30
0.0
  0
VERTEX
  5
12C
330
11B
100
AcDbEntity
  8
GEB-KONTUR-A
 48
25.0
100
AcDbVertex
100
AcDb2dVertex
 10
47.87216377258289
 20
-28.57182979583169
 30
0.0
  0
VERTEX
  5
12D
330
11B
100
AcDbEntity
  8
GEB-KONTUR-A
 48
25.0
100
AcDbVertex
100
AcDb2dVertex
 10
47.90206146240223
 20
-28.75369071959892
 30
0.0
  0
VERTEX
  5
12E
330
11B
100
AcDbEntity
  8
GEB-KONTUR-A
 48
25.0
100
AcDbVertex
100
AcDb2dVertex
 10
47.92798948287952
 20
-28.93541336059025
 30
0.0
  0
VERTEX
  5
12F
330
11B
100
AcDbEntity
  8
GEB-KONTUR-A
 48
25.0
100
AcDbVertex
100
AcDb2dVertex
 10
47.94994783401477
 20
-29.1170573234505
 30
0.0
  0
VERTEX
  5
130
330
11B
100
AcDbEntity
  8
GEB-KONTUR-A
 48
25.0
100
AcDbVertex
100
AcDb2dVertex
 10
47.9679341316222
 20
-29.29867744445281
 30
0.0
  0
VERTEX
  5
131
330
11B
100
AcDbEntity
  8
GEB-KONTUR-A
 48
25.0
100
AcDbVertex
100
AcDb2dVertex
 10
47.9819436073302
 20
-29.48033332824195
 30
0.0
  0
VERTEX
  5
132
330
11B
100
AcDbEntity
  8
GEB-KONTUR-A
 48
25.0
100
AcDbVertex
100
AcDb2dVertex
 10
47.99196434020984
 20
-29.66207981109125
 30
0.0
  0
VERTEX
  5
133
330
11B
100
AcDbEntity
  8
GEB-KONTUR-A
 48
25.0
100
AcDbVertex
100
AcDb2dVertex
 10
47.99798917770374
 20
-29.84397649764529
 30
0.0
  0
VERTEX
  5
134
330
11B
100
AcDbEntity
  8
GEB-KONTUR-A
 48
25.0
100
AcDbVertex
100
AcDb2dVertex
 10
47.99999904632556
 20
-30.02608537673479
 30
0.0
  0
SEQEND
  5
135
330
11B
100
AcDbEntity
  8
GEB-KONTUR-A
 48
25.0
  0
POLYLINE
  5
136
330
2
100
AcDbEntity
  8
GEB-KONTUR-A
 48
25.0
100
AcDb2dPolyline
 66
     1
 10
0.0
 20
0.0
 30
0.0
 70
   128
  0
VERTEX
  5
137
330
136
100
AcDbEntity
  8
GEB-KONTUR-A
 48
25.0
100
AcDbVertex
100
AcDb2dVertex
 10
47.99999904632556
 20
-30.02608537673479
 30
0.0
  0
VERTEX
  5
138
330
136
100
AcDbEntity
  8
GEB-KONTUR-A
 48
25.0
100
AcDbVertex
100
AcDb2dVertex
 10
47.99798917770374
 20
-30.20819187163847
 30
0.0
  0
VERTEX
  5
139
330
136
100
AcDbEntity
  8
GEB-KONTUR-A
 48
25.0
100
AcDbVertex
100
AcDb2dVertex
 10
47.99196434020984
 20
-30.39009094237835
 30
0.0
  0
VERTEX
  5
13A
330
136
100
AcDbEntity
  8
GEB-KONTUR-A
 48
25.0
100
AcDbVertex
100
AcDb2dVertex
 10
47.9819436073302
 20
-30.57183742522759
 30
0.0
  0
VERTEX
  5
13B
330
136
100
AcDbEntity
  8
GEB-KONTUR-A
 48
25.0
100
AcDbVertex
100
AcDb2dVertex
 10
47.9679341316222
 20
-30.75349330901679
 30
0.0
  0
VERTEX
  5
13C
330
136
100
AcDbEntity
  8
GEB-KONTUR-A
 48
25.0
100
AcDbVertex
100
AcDb2dVertex
 10
47.94994783401477
 20
-30.9351134300191
 30
0.0
  0
VERTEX
  5
13D
330
136
100
AcDbEntity
  8
GEB-KONTUR-A
 48
25.0
100
AcDbVertex
100
AcDb2dVertex
 10
47.92798948287952
 20
-31.11675500869353
 30
0.0
  0
VERTEX
  5
13E
330
136
100
AcDbEntity
  8
GEB-KONTUR-A
 48
25.0
100
AcDbVertex
100
AcDb2dVertex
 10
47.90206146240223
 20
-31.29848003387065
 30
0.0
  0
VERTEX
  5
13F
330
136
100
AcDbEntity
  8
GEB-KONTUR-A
 48
25.0
100
AcDbVertex
100
AcDb2dVertex
 10
47.87216377258289
 20
-31.48034095763785
 30
0.0
  0
VERTEX
  5
140
330
136
100
AcDbEntity
  8
GEB-KONTUR-A
 48
25.0
100
AcDbVertex
100
AcDb2dVertex
 10
47.8382987976073
 20
-31.66239738463995
 30
0.0
  0
VERTEX
  5
141
330
136
100
AcDbEntity
  8
GEB-KONTUR-A
 48
25.0
100
AcDbVertex
100
AcDb2dVertex
 10
47.80046176910389
 20
-31.84470415115007
 30
0.0
  0
VERTEX
  5
142
330
136
100
AcDbEntity
  8
GEB-KONTUR-A
 48
25.0
100
AcDbVertex
100
AcDb2dVertex
 10
47.75864315032947
 20
-32.02732324599884
 30
0.0
  0
VERTEX
  5
143
330
136
100
AcDbEntity
  8
GEB-KONTUR-A
 48
25.0
100
AcDbVertex
100
AcDb2dVertex
 10
47.71283578872669
 20
-32.21030712127362
 30
0.0
  0
VERTEX
  5
144
330
136
100
AcDbEntity
  8
GEB-KONTUR-A
 48
25.0
100
AcDbVertex
100
AcDb2dVertex
 10
47.66303014755237
 20
-32.3937129974334
 30
0.0
  0
VERTEX
  5
145
330
136
100
AcDbEntity
  8
GEB-KONTUR-A
 48
25.0
100
AcDbVertex
100
AcDb2dVertex
 10
47.60920953750598
 20
-32.57760286330876
 30
0.0
  0
VERTEX
  5
146
330
136
100
AcDbEntity
  8
GEB-KONTUR-A
 48
25.0
100
AcDbVertex
100
AcDb2dVertex
 10
47.55135726928699
 20
-32.76203155517291
 30
0.0
  0
VERTEX
  5
147
330
136
100
AcDbEntity
  8
GEB-KONTUR-A
 48
25.0
100
AcDbVertex
100
AcDb2dVertex
 10
47.48945426940906
 20
-32.94705867767059
 30
0.0
  0
VERTEX
  5
148
330
136
100
AcDbEntity
  8
GEB-KONTUR-A
 48
25.0
100
AcDbVertex
100
AcDb2dVertex
 10
47.42348146438587
 20
-33.13274383544661
 30
0.0
  0
VERTEX
  5
149
330
136
100
AcDbEntity
  8
GEB-KONTUR-A
 48
25.0
100
AcDbVertex
100
AcDb2dVertex
 10
47.35341262817377
 20
-33.3191442489599
 30
0.0
  0
VERTEX
  5
14A
330
136
100
AcDbEntity
  8
GEB-KONTUR-A
 48
25.0
100
AcDbVertex
100
AcDb2dVertex
 10
47.27922153472895
 20
-33.50631952285531
 30
0.0
  0
VERTEX
  5
14B
330
136
100
AcDbEntity
  8
GEB-KONTUR-A
 48
25.0
100
AcDbVertex
100
AcDb2dVertex
 10
47.20087957382196
 20
-33.69432926177751
 30
0.0
  0
VERTEX
  5
14C
330
136
100
AcDbEntity
  8
GEB-KONTUR-A
 48
25.0
100
AcDbVertex
100
AcDb2dVertex
 10
47.11835098266596
 20
-33.88323783874302
 30
0.0
  0
VERTEX
  5
14D
330
136
100
AcDbEntity
  8
GEB-KONTUR-A
 48
25.0
100
AcDbVertex
100
AcDb2dVertex
 10
47.03160476684565
 20
-34.07310485839645
 30
0.0
  0
VERTEX
  5
14E
330
136
100
AcDbEntity
  8
GEB-KONTUR-A
 48
25.0
100
AcDbVertex
100
AcDb2dVertex
 10
46.94060039520258
 20
-34.26399230956844
 30
0.0
  0
VERTEX
  5
14F
330
136
100
AcDbEntity
  8
GEB-KONTUR-A
 48
25.0
100
AcDbVertex
100
AcDb2dVertex
 10
46.8452997207641
 20
-34.45596694946116
 30
0.0
  0
SEQEND
  5
150
330
136
100
AcDbEntity
  8
GEB-KONTUR-A
 48
25.0
  0
POLYLINE
  5
151
330
2
100
AcDbEntity
  8
GEB-KONTUR-A
 48
25.0
100
AcDb2dPolyline
 66
     1
 10
0.0
 20
0.0
 30
0.0
 70
   128
  0
VERTEX
  5
152
330
151
100
AcDbEntity
  8
GEB-KONTUR-A
 48
25.0
100
AcDbVertex
100
AcDb2dVertex
 10
46.84529972076387
 20
23.13189029694269
 30
0.0
  0
VERTEX
  5
153
330
151
100
AcDbEntity
  8
GEB-KONTUR-A
 48
25.0
100
AcDbVertex
100
AcDb2dVertex
 10
46.94060039520235
 20
22.66842842102724
 30
0.0
  0
VERTEX
  5
154
330
151
100
AcDbEntity
  8
GEB-KONTUR-A
 48
25.0
100
AcDbVertex
100
AcDb2dVertex
 10
47.03160476684542
 20
22.20758199692455
 30
0.0
  0
VERTEX
  5
155
330
151
100
AcDbEntity
  8
GEB-KONTUR-A
 48
25.0
100
AcDbVertex
100
AcDb2dVertex
 10
47.11835098266573
 20
21.74920320511552
 30
0.0
  0
VERTEX
  5
156
330
151
100
AcDbEntity
  8
GEB-KONTUR-A
 48
25.0
100
AcDbVertex
100
AcDb2dVertex
 10
47.20087957382173
 20
21.29313945770957
 30
0.0
  0
VERTEX
  5
157
330
151
100
AcDbEntity
  8
GEB-KONTUR-A
 48
25.0
100
AcDbVertex
100
AcDb2dVertex
 10
47.27922153472872
 20
20.8392381668161
 30
0.0
  0
VERTEX
  5
158
330
151
100
AcDbEntity
  8
GEB-KONTUR-A
 48
25.0
100
AcDbVertex
100
AcDb2dVertex
 10
47.35341262817354
 20
20.38735866547341
 30
0.0
  0
VERTEX
  5
159
330
151
100
AcDbEntity
  8
GEB-KONTUR-A
 48
25.0
100
AcDbVertex
100
AcDb2dVertex
 10
47.4234814643857
 20
19.93734955788375
 30
0.0
  0
VERTEX
  5
15A
330
151
100
AcDbEntity
  8
GEB-KONTUR-A
 48
25.0
100
AcDbVertex
100
AcDb2dVertex
 10
47.48945426940889
 20
19.48906898499257
 30
0.0
  0
VERTEX
  5
15B
330
151
100
AcDbEntity
  8
GEB-KONTUR-A
 48
25.0
100
AcDbVertex
100
AcDb2dVertex
 10
47.55135726928682
 20
19.04237389565244
 30
0.0
  0
VERTEX
  5
15C
330
151
100
AcDbEntity
  8
GEB-KONTUR-A
 48
25.0
100
AcDbVertex
100
AcDb2dVertex
 10
47.60920953750582
 20
18.59712243080878
 30
0.0
  0
VERTEX
  5
15D
330
151
100
AcDbEntity
  8
GEB-KONTUR-A
 48
25.0
100
AcDbVertex
100
AcDb2dVertex
 10
47.6630301475522
 20
18.15317392349988
 30
0.0
  0
VERTEX
  5
15E
330
151
100
AcDbEntity
  8
GEB-KONTUR-A
 48
25.0
100
AcDbVertex
100
AcDb2dVertex
 10
47.71283578872652
 20
17.71038770676409
 30
0.0
  0
VERTEX
  5
15F
330
151
100
AcDbEntity
  8
GEB-KONTUR-A
 48
25.0
100
AcDbVertex
100
AcDb2dVertex
 10
47.7586431503293
 20
17.26862668991848
 30
0.0
  0
VERTEX
  5
160
330
151
100
AcDbEntity
  8
GEB-KONTUR-A
 48
25.0
100
AcDbVertex
100
AcDb2dVertex
 10
47.80046176910372
 20
16.82774901390843
 30
0.0
  0
VERTEX
  5
161
330
151
100
AcDbEntity
  8
GEB-KONTUR-A
 48
25.0
100
AcDbVertex
100
AcDb2dVertex
 10
47.83829879760713
 20
16.38761878014384
 30
0.0
  0
VERTEX
  5
162
330
151
100
AcDbEntity
  8
GEB-KONTUR-A
 48
25.0
100
AcDbVertex
100
AcDb2dVertex
 10
47.87216377258272
 20
15.94809651375596
 30
0.0
  0
VERTEX
  5
163
330
151
100
AcDbEntity
  8
GEB-KONTUR-A
 48
25.0
100
AcDbVertex
100
AcDb2dVertex
 10
47.90206146240206
 20
15.50904393196893
 30
0.0
  0
VERTEX
  5
164
330
151
100
AcDbEntity
  8
GEB-KONTUR-A
 48
25.0
100
AcDbVertex
100
AcDb2dVertex
 10
47.92798948287935
 20
15.07032394409975
 30
0.0
  0
VERTEX
  5
165
330
151
100
AcDbEntity
  8
GEB-KONTUR-A
 48
25.0
100
AcDbVertex
100
AcDb2dVertex
 10
47.94994783401461
 20
14.63179826737252
 30
0.0
  0
VERTEX
  5
166
330
151
100
AcDbEntity
  8
GEB-KONTUR-A
 48
25.0
100
AcDbVertex
100
AcDb2dVertex
 10
47.96793413162203
 20
14.19332861901137
 30
0.0
  0
VERTEX
  5
167
330
151
100
AcDbEntity
  8
GEB-KONTUR-A
 48
25.0
100
AcDbVertex
100
AcDb2dVertex
 10
47.98194360733003
 20
13.75477552414756
 30
0.0
  0
VERTEX
  5
168
330
151
100
AcDbEntity
  8
GEB-KONTUR-A
 48
25.0
100
AcDbVertex
100
AcDb2dVertex
 10
47.99196434020967
 20
13.3159983158194
 30
0.0
  0
VERTEX
  5
169
330
151
100
AcDbEntity
  8
GEB-KONTUR-A
 48
25.0
100
AcDbVertex
100
AcDb2dVertex
 10
47.99798917770357
 20
12.87685751915808
 30
0.0
  0
VERTEX
  5
16A
330
151
100
AcDbEntity
  8
GEB-KONTUR-A
 48
25.0
100
AcDbVertex
100
AcDb2dVertex
 10
47.9999990463254
 20
12.43721127510906
 30
0.0
  0
SEQEND
  5
16B
330
151
100
AcDbEntity
  8
GEB-KONTUR-A
 48
25.0
  0
POLYLINE
  5
16C
330
2
100
AcDbEntity
  8
GEB-KONTUR-A
 48
25.0
100
AcDb2dPolyline
 66
     1
 10
0.0
 20
0.0
 30
0.0
 70
   128
  0
VERTEX
  5
16D
330
16C
100
AcDbEntity
  8
GEB-KONTUR-A
 48
25.0
100
AcDbVertex
100
AcDb2dVertex
 10
46.84529972076404
 20
34.45596694946215
 30
0.0
  0
VERTEX
  5
16E
330
16C
100
AcDbEntity
  8
GEB-KONTUR-A
 48
25.0
100
AcDbVertex
100
AcDb2dVertex
 10
46.94060039520252
 20
34.26399230956974
 30
0.0
  0
VERTEX
  5
16F
330
16C
100
AcDbEntity
  8
GEB-KONTUR-A
 48
25.0
100
AcDbVertex
100
AcDb2dVertex
 10
47.03160476684558
 20
34.07310485839798
 30
0.0
  0
VERTEX
  5
170
330
16C
100
AcDbEntity
  8
GEB-KONTUR-A
 48
25.0
100
AcDbVertex
100
AcDb2dVertex
 10
47.1183509826659
 20
33.88323783874483
 30
0.0
  0
VERTEX
  5
171
330
16C
100
AcDbEntity
  8
GEB-KONTUR-A
 48
25.0
100
AcDbVertex
100
AcDb2dVertex
 10
47.2008795738219
 20
33.69432926177962
 30
0.0
  0
VERTEX
  5
172
330
16C
100
AcDbEntity
  8
GEB-KONTUR-A
 48
25.0
100
AcDbVertex
100
AcDb2dVertex
 10
47.27922153472889
 20
33.50631952285767
 30
0.0
  0
VERTEX
  5
173
330
16C
100
AcDbEntity
  8
GEB-KONTUR-A
 48
25.0
100
AcDbVertex
100
AcDb2dVertex
 10
47.35341262817359
 20
33.31914424896249
 30
0.0
  0
VERTEX
  5
174
330
16C
100
AcDbEntity
  8
GEB-KONTUR-A
 48
25.0
100
AcDbVertex
100
AcDb2dVertex
 10
47.42348146438575
 20
33.13274383544945
 30
0.0
  0
VERTEX
  5
175
330
16C
100
AcDbEntity
  8
GEB-KONTUR-A
 48
25.0
100
AcDbVertex
100
AcDb2dVertex
 10
47.48945426940895
 20
32.94705867767371
 30
0.0
  0
VERTEX
  5
176
330
16C
100
AcDbEntity
  8
GEB-KONTUR-A
 48
25.0
100
AcDbVertex
100
AcDb2dVertex
 10
47.55135726928688
 20
32.7620315551763
 30
0.0
  0
VERTEX
  5
177
330
16C
100
AcDbEntity
  8
GEB-KONTUR-A
 48
25.0
100
AcDbVertex
100
AcDb2dVertex
 10
47.60920953750587
 20
32.57760286331242
 30
0.0
  0
VERTEX
  5
178
330
16C
100
AcDbEntity
  8
GEB-KONTUR-A
 48
25.0
100
AcDbVertex
100
AcDb2dVertex
 10
47.66303014755226
 20
32.39371299743732
 30
0.0
  0
VERTEX
  5
179
330
16C
100
AcDbEntity
  8
GEB-KONTUR-A
 48
25.0
100
AcDbVertex
100
AcDb2dVertex
 10
47.71283578872657
 20
32.2103071212778
 30
0.0
  0
VERTEX
  5
17A
330
16C
100
AcDbEntity
  8
GEB-KONTUR-A
 48
25.0
100
AcDbVertex
100
AcDb2dVertex
 10
47.75864315032936
 20
32.02732324600325
 30
0.0
  0
VERTEX
  5
17B
330
16C
100
AcDbEntity
  8
GEB-KONTUR-A
 48
25.0
100
AcDbVertex
100
AcDb2dVertex
 10
47.80046176910377
 20
31.84470415115476
 30
0.0
  0
VERTEX
  5
17C
330
16C
100
AcDbEntity
  8
GEB-KONTUR-A
 48
25.0
100
AcDbVertex
100
AcDb2dVertex
 10
47.83829879760719
 20
31.66239738464489
 30
0.0
  0
VERTEX
  5
17D
330
16C
100
AcDbEntity
  8
GEB-KONTUR-A
 48
25.0
100
AcDbVertex
100
AcDb2dVertex
 10
47.87216377258277
 20
31.48034095764308
 30
0.0
  0
VERTEX
  5
17E
330
16C
100
AcDbEntity
  8
GEB-KONTUR-A
 48
25.0
100
AcDbVertex
100
AcDb2dVertex
 10
47.90206146240211
 20
31.29848003387613
 30
0.0
  0
VERTEX
  5
17F
330
16C
100
AcDbEntity
  8
GEB-KONTUR-A
 48
25.0
100
AcDbVertex
100
AcDb2dVertex
 10
47.9279894828794
 20
31.11675500869927
 30
0.0
  0
VERTEX
  5
180
330
16C
100
AcDbEntity
  8
GEB-KONTUR-A
 48
25.0
100
AcDbVertex
100
AcDb2dVertex
 10
47.94994783401466
 20
30.93511343002507
 30
0.0
  0
VERTEX
  5
181
330
16C
100
AcDbEntity
  8
GEB-KONTUR-A
 48
25.0
100
AcDbVertex
100
AcDb2dVertex
 10
47.96793413162208
 20
30.75349330902302
 30
0.0
  0
VERTEX
  5
182
330
16C
100
AcDbEntity
  8
GEB-KONTUR-A
 48
25.0
100
AcDbVertex
100
AcDb2dVertex
 10
47.98194360733009
 20
30.5718374252341
 30
0.0
  0
VERTEX
  5
183
330
16C
100
AcDbEntity
  8
GEB-KONTUR-A
 48
25.0
100
AcDbVertex
100
AcDb2dVertex
 10
47.99196434020973
 20
30.39009094238512
 30
0.0
  0
VERTEX
  5
184
330
16C
100
AcDbEntity
  8
GEB-KONTUR-A
 48
25.0
100
AcDbVertex
100
AcDb2dVertex
 10
47.99798917770362
 20
30.20819187164546
 30
0.0
  0
VERTEX
  5
185
330
16C
100
AcDbEntity
  8
GEB-KONTUR-A
 48
25.0
100
AcDbVertex
100
AcDb2dVertex
 10
47.99999904632545
 20
30.02608537674206
 30
0.0
  0
SEQEND
  5
186
330
16C
100
AcDbEntity
  8
GEB-KONTUR-A
 48
25.0
  0
POLYLINE
  5
187
330
2
100
AcDbEntity
  8
GEB-KONTUR-A
 48
25.0
100
AcDb2dPolyline
 66
     1
 10
0.0
 20
0.0
 30
0.0
 70
   128
  0
VERTEX
  5
188
330
187
100
AcDbEntity
  8
GEB-KONTUR-A
 48
25.0
100
AcDbVertex
100
AcDb2dVertex
 10
47.99999904632545
 20
30.02608537674206
 30
0.0
  0
VERTEX
  5
189
330
187
100
AcDbEntity
  8
GEB-KONTUR-A
 48
25.0
100
AcDbVertex
100
AcDb2dVertex
 10
47.99798917770362
 20
29.84397649765282
 30
0.0
  0
VERTEX
  5
18A
330
187
100
AcDbEntity
  8
GEB-KONTUR-A
 48
25.0
100
AcDbVertex
100
AcDb2dVertex
 10
47.99196434020973
 20
29.66207981109903
 30
0.0
  0
VERTEX
  5
18B
330
187
100
AcDbEntity
  8
GEB-KONTUR-A
 48
25.0
100
AcDbVertex
100
AcDb2dVertex
 10
47.98194360733009
 20
29.48033332825003
 30
0.0
  0
VERTEX
  5
18C
330
187
100
AcDbEntity
  8
GEB-KONTUR-A
 48
25.0
100
AcDbVertex
100
AcDb2dVertex
 10
47.96793413162208
 20
29.29867744446113
 30
0.0
  0
VERTEX
  5
18D
330
187
100
AcDbEntity
  8
GEB-KONTUR-A
 48
25.0
100
AcDbVertex
100
AcDb2dVertex
 10
47.94994783401466
 20
29.11705732345902
 30
0.0
  0
VERTEX
  5
18E
330
187
100
AcDbEntity
  8
GEB-KONTUR-A
 48
25.0
100
AcDbVertex
100
AcDb2dVertex
 10
47.9279894828794
 20
28.93541336059906
 30
0.0
  0
VERTEX
  5
18F
330
187
100
AcDbEntity
  8
GEB-KONTUR-A
 48
25.0
100
AcDbVertex
100
AcDb2dVertex
 10
47.90206146240211
 20
28.75369071960799
 30
0.0
  0
VERTEX
  5
190
330
187
100
AcDbEntity
  8
GEB-KONTUR-A
 48
25.0
100
AcDbVertex
100
AcDb2dVertex
 10
47.87216377258277
 20
28.57182979584104
 30
0.0
  0
VERTEX
  5
191
330
187
100
AcDbEntity
  8
GEB-KONTUR-A
 48
25.0
100
AcDbVertex
100
AcDb2dVertex
 10
47.83829879760719
 20
28.38977336883923
 30
0.0
  0
VERTEX
  5
192
330
187
100
AcDbEntity
  8
GEB-KONTUR-A
 48
25.0
100
AcDbVertex
100
AcDb2dVertex
 10
47.80046176910377
 20
28.20746421814357
 30
0.0
  0
VERTEX
  5
193
330
187
100
AcDbEntity
  8
GEB-KONTUR-A
 48
25.0
100
AcDbVertex
100
AcDb2dVertex
 10
47.75864315032936
 20
28.02484750748084
 30
0.0
  0
VERTEX
  5
194
330
187
100
AcDbEntity
  8
GEB-KONTUR-A
 48
25.0
100
AcDbVertex
100
AcDb2dVertex
 10
47.71283578872657
 20
27.84186363220633
 30
0.0
  0
VERTEX
  5
195
330
187
100
AcDbEntity
  8
GEB-KONTUR-A
 48
25.0
100
AcDbVertex
100
AcDb2dVertex
 10
47.66303014755226
 20
27.65845537186101
 30
0.0
  0
VERTEX
  5
196
330
187
100
AcDbEntity
  8
GEB-KONTUR-A
 48
25.0
100
AcDbVertex
100
AcDb2dVertex
 10
47.60920953750587
 20
27.47456550598591
 30
0.0
  0
VERTEX
  5
197
330
187
100
AcDbEntity
  8
GEB-KONTUR-A
 48
25.0
100
AcDbVertex
100
AcDb2dVertex
 10
47.55135726928688
 20
27.29013681412204
 30
0.0
  0
VERTEX
  5
198
330
187
100
AcDbEntity
  8
GEB-KONTUR-A
 48
25.0
100
AcDbVertex
100
AcDb2dVertex
 10
47.48945426940895
 20
27.10510969162462
 30
0.0
  0
VERTEX
  5
199
330
187
100
AcDbEntity
  8
GEB-KONTUR-A
 48
25.0
100
AcDbVertex
100
AcDb2dVertex
 10
47.42348146438575
 20
26.91942691803467
 30
0.0
  0
VERTEX
  5
19A
330
187
100
AcDbEntity
  8
GEB-KONTUR-A
 48
25.0
100
AcDbVertex
100
AcDb2dVertex
 10
47.35341262817359
 20
26.73302650452161
 30
0.0
  0
VERTEX
  5
19B
330
187
100
AcDbEntity
  8
GEB-KONTUR-A
 48
25.0
100
AcDbVertex
100
AcDb2dVertex
 10
47.27922153472877
 20
26.54585123062648
 30
0.0
  0
VERTEX
  5
19C
330
187
100
AcDbEntity
  8
GEB-KONTUR-A
 48
25.0
100
AcDbVertex
100
AcDb2dVertex
 10
47.20087957382179
 20
26.35783910751872
 30
0.0
  0
VERTEX
  5
19D
330
187
100
AcDbEntity
  8
GEB-KONTUR-A
 48
25.0
100
AcDbVertex
100
AcDb2dVertex
 10
47.11835098266578
 20
26.16893053055353
 30
0.0
  0
VERTEX
  5
19E
330
187
100
AcDbEntity
  8
GEB-KONTUR-A
 48
25.0
100
AcDbVertex
100
AcDb2dVertex
 10
47.03160476684547
 20
25.97906351090035
 30
0.0
  0
VERTEX
  5
19F
330
187
100
AcDbEntity
  8
GEB-KONTUR-A
 48
25.0
100
AcDbVertex
100
AcDb2dVertex
 10
46.94060039520235
 20
25.78817605972862
 30
0.0
  0
VERTEX
  5
1A0
330
187
100
AcDbEntity
  8
GEB-KONTUR-A
 48
25.0
100
AcDbVertex
100
AcDb2dVertex
 10
46.84529972076387
 20
25.59620380402197
 30
0.0
  0
SEQEND
  5
1A1
330
187
100
AcDbEntity
  8
GEB-KONTUR-A
 48
25.0
  0
POLYLINE
  5
1A2
330
2
100
AcDbEntity
  8
GEB-KONTUR-A
 48
25.0
100
AcDb2dPolyline
 66
     1
 10
0.0
 20
0.0
 30
0.0
 70
   128
  0
VERTEX
  5
1A3
330
1A2
100
AcDbEntity
  8
GEB-KONTUR-A
 48
25.0
100
AcDbVertex
100
AcDb2dVertex
 10
28.1547005176543
 20
25.59620380402197
 30
0.0
  0
VERTEX
  5
1A4
330
1A2
100
AcDbEntity
  8
GEB-KONTUR-A
 48
25.0
100
AcDbVertex
100
AcDb2dVertex
 10
28.05939924716938
 20
25.78817605972862
 30
0.0
  0
VERTEX
  5
1A5
330
1A2
100
AcDbEntity
  8
GEB-KONTUR-A
 48
25.0
100
AcDbVertex
100
AcDb2dVertex
 10
27.96839547157276
 20
25.97906351090035
 30
0.0
  0
VERTEX
  5
1A6
330
1A2
100
AcDbEntity
  8
GEB-KONTUR-A
 48
25.0
100
AcDbVertex
100
AcDb2dVertex
 10
27.881648659706
 20
26.16893053055353
 30
0.0
  0
VERTEX
  5
1A7
330
1A2
100
AcDbEntity
  8
GEB-KONTUR-A
 48
25.0
100
AcDbVertex
100
AcDb2dVertex
 10
27.79912103712547
 20
26.35783910751872
 30
0.0
  0
VERTEX
  5
1A8
330
1A2
100
AcDbEntity
  8
GEB-KONTUR-A
 48
25.0
100
AcDbVertex
100
AcDb2dVertex
 10
27.72077773511398
 20
26.54585123062648
 30
0.0
  0
VERTEX
  5
1A9
330
1A2
100
AcDbEntity
  8
GEB-KONTUR-A
 48
25.0
100
AcDbVertex
100
AcDb2dVertex
 10
27.64658649265755
 20
26.73302650452161
 30
0.0
  0
VERTEX
  5
1AA
330
1A2
100
AcDbEntity
  8
GEB-KONTUR-A
 48
25.0
100
AcDbVertex
100
AcDb2dVertex
 10
27.5765177682041
 20
26.91942691803467
 30
0.0
  0
VERTEX
  5
1AB
330
1A2
100
AcDbEntity
  8
GEB-KONTUR-A
 48
25.0
100
AcDbVertex
100
AcDb2dVertex
 10
27.51054477691639
 20
27.10510969162462
 30
0.0
  0
VERTEX
  5
1AC
330
1A2
100
AcDbEntity
  8
GEB-KONTUR-A
 48
25.0
100
AcDbVertex
100
AcDb2dVertex
 10
27.44864322990168
 20
27.29013681412204
 30
0.0
  0
VERTEX
  5
1AD
330
1A2
100
AcDbEntity
  8
GEB-KONTUR-A
 48
25.0
100
AcDbVertex
100
AcDb2dVertex
 10
27.39079148322332
 20
27.47456550598591
 30
0.0
  0
VERTEX
  5
1AE
330
1A2
100
AcDbEntity
  8
GEB-KONTUR-A
 48
25.0
100
AcDbVertex
100
AcDb2dVertex
 10
27.336970463395
 20
27.65845537186101
 30
0.0
  0
VERTEX
  5
1AF
330
1A2
100
AcDbEntity
  8
GEB-KONTUR-A
 48
25.0
100
AcDbVertex
100
AcDb2dVertex
 10
27.28716359287489
 20
27.84186363220633
 30
0.0
  0
VERTEX
  5
1B0
330
1A2
100
AcDbEntity
  8
GEB-KONTUR-A
 48
25.0
100
AcDbVertex
100
AcDb2dVertex
 10
27.24135692045081
 20
28.02484750748084
 30
0.0
  0
VERTEX
  5
1B1
330
1A2
100
AcDbEntity
  8
GEB-KONTUR-A
 48
25.0
100
AcDbVertex
100
AcDb2dVertex
 10
27.19953893497575
 20
28.20746421814357
 30
0.0
  0
VERTEX
  5
1B2
330
1A2
100
AcDbEntity
  8
GEB-KONTUR-A
 48
25.0
100
AcDbVertex
100
AcDb2dVertex
 10
27.16170062124718
 20
28.38977336883923
 30
0.0
  0
VERTEX
  5
1B3
330
1A2
100
AcDbEntity
  8
GEB-KONTUR-A
 48
25.0
100
AcDbVertex
100
AcDb2dVertex
 10
27.12783551588649
 20
28.57182979584104
 30
0.0
  0
VERTEX
  5
1B4
330
1A2
100
AcDbEntity
  8
GEB-KONTUR-A
 48
25.0
100
AcDbVertex
100
AcDb2dVertex
 10
27.09793962351972
 20
28.75369071960799
 30
0.0
  0
VERTEX
  5
1B5
330
1A2
100
AcDbEntity
  8
GEB-KONTUR-A
 48
25.0
100
AcDbVertex
100
AcDb2dVertex
 10
27.07201147265727
 20
28.93541336059906
 30
0.0
  0
VERTEX
  5
1B6
330
1A2
100
AcDbEntity
  8
GEB-KONTUR-A
 48
25.0
100
AcDbVertex
100
AcDb2dVertex
 10
27.05005208775395
 20
29.11705732345902
 30
0.0
  0
VERTEX
  5
1B7
330
1A2
100
AcDbEntity
  8
GEB-KONTUR-A
 48
25.0
100
AcDbVertex
100
AcDb2dVertex
 10
27.03206501016388
 20
29.29867744446113
 30
0.0
  0
VERTEX
  5
1B8
330
1A2
100
AcDbEntity
  8
GEB-KONTUR-A
 48
25.0
100
AcDbVertex
100
AcDb2dVertex
 10
27.01805633073667
 20
29.48033332825003
 30
0.0
  0
VERTEX
  5
1B9
330
1A2
100
AcDbEntity
  8
GEB-KONTUR-A
 48
25.0
100
AcDbVertex
100
AcDb2dVertex
 10
27.0080346903996
 20
29.66207981109903
 30
0.0
  0
VERTEX
  5
1BA
330
1A2
100
AcDbEntity
  8
GEB-KONTUR-A
 48
25.0
100
AcDbVertex
100
AcDb2dVertex
 10
27.00201130533236
 20
29.84397649765282
 30
0.0
  0
VERTEX
  5
1BB
330
1A2
100
AcDbEntity
  8
GEB-KONTUR-A
 48
25.0
100
AcDbVertex
100
AcDb2dVertex
 10
26.99999999999994
 20
30.02608537674206
 30
0.0
  0
SEQEND
  5
1BC
330
1A2
100
AcDbEntity
  8
GEB-KONTUR-A
 48
25.0
  0
POLYLINE
  5
1BD
330
2
100
AcDbEntity
  8
GEB-KONTUR-A
 48
25.0
100
AcDb2dPolyline
 66
     1
 10
0.0
 20
0.0
 30
0.0
 70
   128
  0
VERTEX
  5
1BE
330
1BD
100
AcDbEntity
  8
GEB-KONTUR-A
 48
25.0
100
AcDbVertex
100
AcDb2dVertex
 10
26.99999999999994
 20
-12.43721127509144
 30
0.0
  0
VERTEX
  5
1BF
330
1BD
100
AcDbEntity
  8
GEB-KONTUR-A
 48
25.0
100
AcDbVertex
100
AcDb2dVertex
 10
27.0020113053323
 20
-11.99756622313524
 30
0.0
  0
VERTEX
  5
1C0
330
1BD
100
AcDbEntity
  8
GEB-KONTUR-A
 48
25.0
100
AcDbVertex
100
AcDb2dVertex
 10
27.00803469039954
 20
-11.55842542647383
 30
0.0
  0
VERTEX
  5
1C1
330
1BD
100
AcDbEntity
  8
GEB-KONTUR-A
 48
25.0
100
AcDbVertex
100
AcDb2dVertex
 10
27.01805633073661
 20
-11.11964821814553
 30
0.0
  0
VERTEX
  5
1C2
330
1BD
100
AcDbEntity
  8
GEB-KONTUR-A
 48
25.0
100
AcDbVertex
100
AcDb2dVertex
 10
27.03206501016382
 20
-10.68109393118871
 30
0.0
  0
VERTEX
  5
1C3
330
1BD
100
AcDbEntity
  8
GEB-KONTUR-A
 48
25.0
100
AcDbVertex
100
AcDb2dVertex
 10
27.0500520877539
 20
-10.24262428282748
 30
0.0
  0
VERTEX
  5
1C4
330
1BD
100
AcDbEntity
  8
GEB-KONTUR-A
 48
25.0
100
AcDbVertex
100
AcDb2dVertex
 10
27.07201147265721
 20
-9.804098606100154
 30
0.0
  0
VERTEX
  5
1C5
330
1BD
100
AcDbEntity
  8
GEB-KONTUR-A
 48
25.0
100
AcDbVertex
100
AcDb2dVertex
 10
27.09793962351966
 20
-9.365379214277311
 30
0.0
  0
VERTEX
  5
1C6
330
1BD
100
AcDbEntity
  8
GEB-KONTUR-A
 48
25.0
100
AcDbVertex
100
AcDb2dVertex
 10
27.12783551588643
 20
-8.926327228536592
 30
0.0
  0
VERTEX
  5
1C7
330
1BD
100
AcDbEntity
  8
GEB-KONTUR-A
 48
25.0
100
AcDbVertex
100
AcDb2dVertex
 10
27.16170062124718
 20
-8.486804962148625
 30
0.0
  0
VERTEX
  5
1C8
330
1BD
100
AcDbEntity
  8
GEB-KONTUR-A
 48
25.0
100
AcDbVertex
100
AcDb2dVertex
 10
27.19953893497575
 20
-8.0466741323375
 30
0.0
  0
VERTEX
  5
1C9
330
1BD
100
AcDbEntity
  8
GEB-KONTUR-A
 48
25.0
100
AcDbVertex
100
AcDb2dVertex
 10
27.24135692045081
 20
-7.605797052373759
 30
0.0
  0
VERTEX
  5
1CA
330
1BD
100
AcDbEntity
  8
GEB-KONTUR-A
 48
25.0
100
AcDbVertex
100
AcDb2dVertex
 10
27.28716359287489
 20
-7.164034843435132
 30
0.0
  0
VERTEX
  5
1CB
330
1BD
100
AcDbEntity
  8
GEB-KONTUR-A
 48
25.0
100
AcDbVertex
100
AcDb2dVertex
 10
27.336970463395
 20
-6.721249222745683
 30
0.0
  0
VERTEX
  5
1CC
330
1BD
100
AcDbEntity
  8
GEB-KONTUR-A
 48
25.0
100
AcDbVertex
100
AcDb2dVertex
 10
27.39079148322332
 20
-6.277300715436695
 30
0.0
  0
VERTEX
  5
1CD
330
1BD
100
AcDbEntity
  8
GEB-KONTUR-A
 48
25.0
100
AcDbVertex
100
AcDb2dVertex
 10
27.44864322990168
 20
-5.832049250592888
 30
0.0
  0
VERTEX
  5
1CE
330
1BD
100
AcDbEntity
  8
GEB-KONTUR-A
 48
25.0
100
AcDbVertex
100
AcDb2dVertex
 10
27.51054477691639
 20
-5.385354161252649
 30
0.0
  0
VERTEX
  5
1CF
330
1BD
100
AcDbEntity
  8
GEB-KONTUR-A
 48
25.0
100
AcDbVertex
100
AcDb2dVertex
 10
27.5765177682041
 20
-4.937073886384609
 30
0.0
  0
VERTEX
  5
1D0
330
1BD
100
AcDbEntity
  8
GEB-KONTUR-A
 48
25.0
100
AcDbVertex
100
AcDb2dVertex
 10
27.64658649265755
 20
-4.487065076818055
 30
0.0
  0
VERTEX
  5
1D1
330
1BD
100
AcDbEntity
  8
GEB-KONTUR-A
 48
25.0
100
AcDbVertex
100
AcDb2dVertex
 10
27.72077773511398
 20
-4.03518378733591
 30
0.0
  0
VERTEX
  5
1D2
330
1BD
100
AcDbEntity
  8
GEB-KONTUR-A
 48
25.0
100
AcDbVertex
100
AcDb2dVertex
 10
27.79912103712547
 20
-3.58128428458167
 30
0.0
  0
VERTEX
  5
1D3
330
1BD
100
AcDbEntity
  8
GEB-KONTUR-A
 48
25.0
100
AcDbVertex
100
AcDb2dVertex
 10
27.881648659706
 20
-3.12521934508274
 30
0.0
  0
VERTEX
  5
1D4
330
1BD
100
AcDbEntity
  8
GEB-KONTUR-A
 48
25.0
100
AcDbVertex
100
AcDb2dVertex
 10
27.96839547157276
 20
-2.666840255250406
 30
0.0
  0
VERTEX
  5
1D5
330
1BD
100
AcDbEntity
  8
GEB-KONTUR-A
 48
25.0
100
AcDbVertex
100
AcDb2dVertex
 10
28.05939924716938
 20
-2.205995619286909
 30
0.0
  0
VERTEX
  5
1D6
330
1BD
100
AcDbEntity
  8
GEB-KONTUR-A
 48
25.0
100
AcDbVertex
100
AcDb2dVertex
 10
28.1547005176543
 20
-1.742532700290041
 30
0.0
  0
SEQEND
  5
1D7
330
1BD
100
AcDbEntity
  8
GEB-KONTUR-A
 48
25.0
  0
POLYLINE
  5
1D8
330
2
100
AcDbEntity
  8
GEB-KONTUR-A
 48
25.0
100
AcDb2dPolyline
 66
     1
 10
0.0
 20
0.0
 30
0.0
 70
   128
  0
VERTEX
  5
1D9
330
1D8
100
AcDbEntity
  8
GEB-KONTUR-A
 48
25.0
100
AcDbVertex
100
AcDb2dVertex
 10
28.1547005176543
 20
1.742532700310249
 30
0.0
  0
VERTEX
  5
1DA
330
1D8
100
AcDbEntity
  8
GEB-KONTUR-A
 48
25.0
100
AcDbVertex
100
AcDb2dVertex
 10
28.05939924716938
 20
2.205995619307003
 30
0.0
  0
VERTEX
  5
1DB
330
1D8
100
AcDbEntity
  8
GEB-KONTUR-A
 48
25.0
100
AcDbVertex
100
AcDb2dVertex
 10
27.96839547157276
 20
2.666840255270358
 30
0.0
  0
VERTEX
  5
1DC
330
1D8
100
AcDbEntity
  8
GEB-KONTUR-A
 48
25.0
100
AcDbVertex
100
AcDb2dVertex
 10
27.881648659706
 20
3.125219345102607
 30
0.0
  0
VERTEX
  5
1DD
330
1D8
100
AcDbEntity
  8
GEB-KONTUR-A
 48
25.0
100
AcDbVertex
100
AcDb2dVertex
 10
27.79912103712547
 20
3.581284284601423
 30
0.0
  0
VERTEX
  5
1DE
330
1D8
100
AcDbEntity
  8
GEB-KONTUR-A
 48
25.0
100
AcDbVertex
100
AcDb2dVertex
 10
27.72077773511398
 20
4.035183787355578
 30
0.0
  0
VERTEX
  5
1DF
330
1D8
100
AcDbEntity
  8
GEB-KONTUR-A
 48
25.0
100
AcDbVertex
100
AcDb2dVertex
 10
27.64658649265755
 20
4.487065076837609
 30
0.0
  0
VERTEX
  5
1E0
330
1D8
100
AcDbEntity
  8
GEB-KONTUR-A
 48
25.0
100
AcDbVertex
100
AcDb2dVertex
 10
27.5765177682041
 20
4.93707388640405
 30
0.0
  0
VERTEX
  5
1E1
330
1D8
100
AcDbEntity
  8
GEB-KONTUR-A
 48
25.0
100
AcDbVertex
100
AcDb2dVertex
 10
27.51054477691639
 20
5.385354161271976
 30
0.0
  0
VERTEX
  5
1E2
330
1D8
100
AcDbEntity
  8
GEB-KONTUR-A
 48
25.0
100
AcDbVertex
100
AcDb2dVertex
 10
27.44864322990168
 20
5.832049250612129
 30
0.0
  0
VERTEX
  5
1E3
330
1D8
100
AcDbEntity
  8
GEB-KONTUR-A
 48
25.0
100
AcDbVertex
100
AcDb2dVertex
 10
27.39079148322332
 20
6.277300715455794
 30
0.0
  0
VERTEX
  5
1E4
330
1D8
100
AcDbEntity
  8
GEB-KONTUR-A
 48
25.0
100
AcDbVertex
100
AcDb2dVertex
 10
27.336970463395
 20
6.721249222764697
 30
0.0
  0
VERTEX
  5
1E5
330
1D8
100
AcDbEntity
  8
GEB-KONTUR-A
 48
25.0
100
AcDbVertex
100
AcDb2dVertex
 10
27.28716359287489
 20
7.164034843454004
 30
0.0
  0
VERTEX
  5
1E6
330
1D8
100
AcDbEntity
  8
GEB-KONTUR-A
 48
25.0
100
AcDbVertex
100
AcDb2dVertex
 10
27.24135692045081
 20
7.605797052392546
 30
0.0
  0
VERTEX
  5
1E7
330
1D8
100
AcDbEntity
  8
GEB-KONTUR-A
 48
25.0
100
AcDbVertex
100
AcDb2dVertex
 10
27.19953893497575
 20
8.046674132356145
 30
0.0
  0
VERTEX
  5
1E8
330
1D8
100
AcDbEntity
  8
GEB-KONTUR-A
 48
25.0
100
AcDbVertex
100
AcDb2dVertex
 10
27.16170062124718
 20
8.486804962167184
 30
0.0
  0
VERTEX
  5
1E9
330
1D8
100
AcDbEntity
  8
GEB-KONTUR-A
 48
25.0
100
AcDbVertex
100
AcDb2dVertex
 10
27.12783551588643
 20
8.926327228555038
 30
0.0
  0
VERTEX
  5
1EA
330
1D8
100
AcDbEntity
  8
GEB-KONTUR-A
 48
25.0
100
AcDbVertex
100
AcDb2dVertex
 10
27.09793962351966
 20
9.365379214295643
 30
0.0
  0
VERTEX
  5
1EB
330
1D8
100
AcDbEntity
  8
GEB-KONTUR-A
 48
25.0
100
AcDbVertex
100
AcDb2dVertex
 10
27.07201147265721
 20
9.804098606118373
 30
0.0
  0
VERTEX
  5
1EC
330
1D8
100
AcDbEntity
  8
GEB-KONTUR-A
 48
25.0
100
AcDbVertex
100
AcDb2dVertex
 10
27.0500520877539
 20
10.24262428284561
 30
0.0
  0
VERTEX
  5
1ED
330
1D8
100
AcDbEntity
  8
GEB-KONTUR-A
 48
25.0
100
AcDbVertex
100
AcDb2dVertex
 10
27.03206501016382
 20
10.68109393120673
 30
0.0
  0
VERTEX
  5
1EE
330
1D8
100
AcDbEntity
  8
GEB-KONTUR-A
 48
25.0
100
AcDbVertex
100
AcDb2dVertex
 10
27.01805633073661
 20
11.11964821816346
 30
0.0
  0
VERTEX
  5
1EF
330
1D8
100
AcDbEntity
  8
GEB-KONTUR-A
 48
25.0
100
AcDbVertex
100
AcDb2dVertex
 10
27.00803469039954
 20
11.55842542649162
 30
0.0
  0
VERTEX
  5
1F0
330
1D8
100
AcDbEntity
  8
GEB-KONTUR-A
 48
25.0
100
AcDbVertex
100
AcDb2dVertex
 10
27.0020113053323
 20
11.99756622315297
 30
0.0
  0
VERTEX
  5
1F1
330
1D8
100
AcDbEntity
  8
GEB-KONTUR-A
 48
25.0
100
AcDbVertex
100
AcDb2dVertex
 10
26.99999999999989
 20
12.43721127510906
 30
0.0
  0
SEQEND
  5
1F2
330
1D8
100
AcDbEntity
  8
GEB-KONTUR-A
 48
25.0
  0
POLYLINE
  5
1F3
330
2
100
AcDbEntity
  8
GEB-KONTUR-A
 48
25.0
100
AcDb2dPolyline
 66
     1
 10
0.0
 20
0.0
 30
0.0
 70
   128
  0
VERTEX
  5
1F4
330
1F3
100
AcDbEntity
  8
GEB-KONTUR-A
 48
25.0
100
AcDbVertex
100
AcDb2dVertex
 10
27.0
 20
-30.02608537673479
 30
0.0
  0
VERTEX
  5
1F5
330
1F3
100
AcDbEntity
  8
GEB-KONTUR-A
 48
25.0
100
AcDbVertex
100
AcDb2dVertex
 10
27.00201130533242
 20
-29.84397649764529
 30
0.0
  0
VERTEX
  5
1F6
330
1F3
100
AcDbEntity
  8
GEB-KONTUR-A
 48
25.0
100
AcDbVertex
100
AcDb2dVertex
 10
27.00803469039966
 20
-29.66207981109125
 30
0.0
  0
VERTEX
  5
1F7
330
1F3
100
AcDbEntity
  8
GEB-KONTUR-A
 48
25.0
100
AcDbVertex
100
AcDb2dVertex
 10
27.01805633073673
 20
-29.48033332824195
 30
0.0
  0
VERTEX
  5
1F8
330
1F3
100
AcDbEntity
  8
GEB-KONTUR-A
 48
25.0
100
AcDbVertex
100
AcDb2dVertex
 10
27.03206501016393
 20
-29.29867744445281
 30
0.0
  0
VERTEX
  5
1F9
330
1F3
100
AcDbEntity
  8
GEB-KONTUR-A
 48
25.0
100
AcDbVertex
100
AcDb2dVertex
 10
27.05005208775395
 20
-29.1170573234505
 30
0.0
  0
VERTEX
  5
1FA
330
1F3
100
AcDbEntity
  8
GEB-KONTUR-A
 48
25.0
100
AcDbVertex
100
AcDb2dVertex
 10
27.07201147265727
 20
-28.93541336059025
 30
0.0
  0
VERTEX
  5
1FB
330
1F3
100
AcDbEntity
  8
GEB-KONTUR-A
 48
25.0
100
AcDbVertex
100
AcDb2dVertex
 10
27.09793962351972
 20
-28.75369071959892
 30
0.0
  0
VERTEX
  5
1FC
330
1F3
100
AcDbEntity
  8
GEB-KONTUR-A
 48
25.0
100
AcDbVertex
100
AcDb2dVertex
 10
27.12783551588649
 20
-28.57182979583169
 30
0.0
  0
VERTEX
  5
1FD
330
1F3
100
AcDbEntity
  8
GEB-KONTUR-A
 48
25.0
100
AcDbVertex
100
AcDb2dVertex
 10
27.16170062124724
 20
-28.38977336882965
 30
0.0
  0
VERTEX
  5
1FE
330
1F3
100
AcDbEntity
  8
GEB-KONTUR-A
 48
25.0
100
AcDbVertex
100
AcDb2dVertex
 10
27.19953893497581
 20
-28.20746421813368
 30
0.0
  0
VERTEX
  5
1FF
330
1F3
100
AcDbEntity
  8
GEB-KONTUR-A
 48
25.0
100
AcDbVertex
100
AcDb2dVertex
 10
27.24135692045087
 20
-28.02484750747075
 30
0.0
  0
VERTEX
  5
200
330
1F3
100
AcDbEntity
  8
GEB-KONTUR-A
 48
25.0
100
AcDbVertex
100
AcDb2dVertex
 10
27.28716359287495
 20
-27.84186363219595
 30
0.0
  0
VERTEX
  5
201
330
1F3
100
AcDbEntity
  8
GEB-KONTUR-A
 48
25.0
100
AcDbVertex
100
AcDb2dVertex
 10
27.33697046339506
 20
-27.65845537185038
 30
0.0
  0
VERTEX
  5
202
330
1F3
100
AcDbEntity
  8
GEB-KONTUR-A
 48
25.0
100
AcDbVertex
100
AcDb2dVertex
 10
27.39079148322338
 20
-27.474565505975
 30
0.0
  0
VERTEX
  5
203
330
1F3
100
AcDbEntity
  8
GEB-KONTUR-A
 48
25.0
100
AcDbVertex
100
AcDb2dVertex
 10
27.44864322990173
 20
-27.29013681411087
 30
0.0
  0
VERTEX
  5
204
330
1F3
100
AcDbEntity
  8
GEB-KONTUR-A
 48
25.0
100
AcDbVertex
100
AcDb2dVertex
 10
27.51054477691645
 20
-27.10510969161322
 30
0.0
  0
VERTEX
  5
205
330
1F3
100
AcDbEntity
  8
GEB-KONTUR-A
 48
25.0
100
AcDbVertex
100
AcDb2dVertex
 10
27.57651776820416
 20
-26.91942691802296
 30
0.0
  0
VERTEX
  5
206
330
1F3
100
AcDbEntity
  8
GEB-KONTUR-A
 48
25.0
100
AcDbVertex
100
AcDb2dVertex
 10
27.6465864926576
 20
-26.73302650450967
 30
0.0
  0
VERTEX
  5
207
330
1F3
100
AcDbEntity
  8
GEB-KONTUR-A
 48
25.0
100
AcDbVertex
100
AcDb2dVertex
 10
27.72077773511404
 20
-26.54585123061429
 30
0.0
  0
VERTEX
  5
208
330
1F3
100
AcDbEntity
  8
GEB-KONTUR-A
 48
25.0
100
AcDbVertex
100
AcDb2dVertex
 10
27.79912103712553
 20
-26.35783910750624
 30
0.0
  0
VERTEX
  5
209
330
1F3
100
AcDbEntity
  8
GEB-KONTUR-A
 48
25.0
100
AcDbVertex
100
AcDb2dVertex
 10
27.88164865970606
 20
-26.16893053054079
 30
0.0
  0
VERTEX
  5
20A
330
1F3
100
AcDbEntity
  8
GEB-KONTUR-A
 48
25.0
100
AcDbVertex
100
AcDb2dVertex
 10
27.96839547157282
 20
-25.97906351088733
 30
0.0
  0
VERTEX
  5
20B
330
1F3
100
AcDbEntity
  8
GEB-KONTUR-A
 48
25.0
100
AcDbVertex
100
AcDb2dVertex
 10
28.05939924716944
 20
-25.78817605971531
 30
0.0
  0
VERTEX
  5
20C
330
1F3
100
AcDbEntity
  8
GEB-KONTUR-A
 48
25.0
100
AcDbVertex
100
AcDb2dVertex
 10
28.15470051765436
 20
-25.59620380400841
 30
0.0
  0
SEQEND
  5
20D
330
1F3
100
AcDbEntity
  8
GEB-KONTUR-A
 48
25.0
  0
POLYLINE
  5
20E
330
2
100
AcDbEntity
  8
GEB-KONTUR-A
 48
25.0
100
AcDb2dPolyline
 66
     1
 10
0.0
 20
0.0
 30
0.0
 70
   128
  0
VERTEX
  5
20F
330
20E
100
AcDbEntity
  8
GEB-KONTUR-A
 48
25.0
100
AcDbVertex
100
AcDb2dVertex
 10
28.15470051765436
 20
-23.13189029692771
 30
0.0
  0
VERTEX
  5
210
330
20E
100
AcDbEntity
  8
GEB-KONTUR-A
 48
25.0
100
AcDbVertex
100
AcDb2dVertex
 10
28.05939924716944
 20
-22.66842842101215
 30
0.0
  0
VERTEX
  5
211
330
20E
100
AcDbEntity
  8
GEB-KONTUR-A
 48
25.0
100
AcDbVertex
100
AcDb2dVertex
 10
27.96839547157282
 20
-22.20758199690931
 30
0.0
  0
VERTEX
  5
212
330
20E
100
AcDbEntity
  8
GEB-KONTUR-A
 48
25.0
100
AcDbVertex
100
AcDb2dVertex
 10
27.88164865970606
 20
-21.7492032051002
 30
0.0
  0
VERTEX
  5
213
330
20E
100
AcDbEntity
  8
GEB-KONTUR-A
 48
25.0
100
AcDbVertex
100
AcDb2dVertex
 10
27.79912103712553
 20
-21.29313945769417
 30
0.0
  0
VERTEX
  5
214
330
20E
100
AcDbEntity
  8
GEB-KONTUR-A
 48
25.0
100
AcDbVertex
100
AcDb2dVertex
 10
27.72077773511404
 20
-20.83923816680055
 30
0.0
  0
VERTEX
  5
215
330
20E
100
AcDbEntity
  8
GEB-KONTUR-A
 48
25.0
100
AcDbVertex
100
AcDb2dVertex
 10
27.6465864926576
 20
-20.38735866545772
 30
0.0
  0
VERTEX
  5
216
330
20E
100
AcDbEntity
  8
GEB-KONTUR-A
 48
25.0
100
AcDbVertex
100
AcDb2dVertex
 10
27.57651776820416
 20
-19.93734955786797
 30
0.0
  0
VERTEX
  5
217
330
20E
100
AcDbEntity
  8
GEB-KONTUR-A
 48
25.0
100
AcDbVertex
100
AcDb2dVertex
 10
27.51054477691645
 20
-19.48906898497671
 30
0.0
  0
VERTEX
  5
218
330
20E
100
AcDbEntity
  8
GEB-KONTUR-A
 48
25.0
100
AcDbVertex
100
AcDb2dVertex
 10
27.44864322990168
 20
-19.04237389563644
 30
0.0
  0
VERTEX
  5
219
330
20E
100
AcDbEntity
  8
GEB-KONTUR-A
 48
25.0
100
AcDbVertex
100
AcDb2dVertex
 10
27.39079148322332
 20
-18.59712243079266
 30
0.0
  0
VERTEX
  5
21A
330
20E
100
AcDbEntity
  8
GEB-KONTUR-A
 48
25.0
100
AcDbVertex
100
AcDb2dVertex
 10
27.336970463395
 20
-18.15317392348368
 30
0.0
  0
VERTEX
  5
21B
330
20E
100
AcDbEntity
  8
GEB-KONTUR-A
 48
25.0
100
AcDbVertex
100
AcDb2dVertex
 10
27.28716359287489
 20
-17.71038770674778
 30
0.0
  0
VERTEX
  5
21C
330
20E
100
AcDbEntity
  8
GEB-KONTUR-A
 48
25.0
100
AcDbVertex
100
AcDb2dVertex
 10
27.24135692045081
 20
-17.26862668990205
 30
0.0
  0
VERTEX
  5
21D
330
20E
100
AcDbEntity
  8
GEB-KONTUR-A
 48
25.0
100
AcDbVertex
100
AcDb2dVertex
 10
27.19953893497575
 20
-16.82774901389189
 30
0.0
  0
VERTEX
  5
21E
330
20E
100
AcDbEntity
  8
GEB-KONTUR-A
 48
25.0
100
AcDbVertex
100
AcDb2dVertex
 10
27.16170062124718
 20
-16.38761878012721
 30
0.0
  0
VERTEX
  5
21F
330
20E
100
AcDbEntity
  8
GEB-KONTUR-A
 48
25.0
100
AcDbVertex
100
AcDb2dVertex
 10
27.12783551588643
 20
-15.94809651373924
 30
0.0
  0
VERTEX
  5
220
330
20E
100
AcDbEntity
  8
GEB-KONTUR-A
 48
25.0
100
AcDbVertex
100
AcDb2dVertex
 10
27.09793962351966
 20
-15.50904393195208
 30
0.0
  0
VERTEX
  5
221
330
20E
100
AcDbEntity
  8
GEB-KONTUR-A
 48
25.0
100
AcDbVertex
100
AcDb2dVertex
 10
27.07201147265721
 20
-15.07032394408279
 30
0.0
  0
VERTEX
  5
222
330
20E
100
AcDbEntity
  8
GEB-KONTUR-A
 48
25.0
100
AcDbVertex
100
AcDb2dVertex
 10
27.0500520877539
 20
-14.63179826735546
 30
0.0
  0
VERTEX
  5
223
330
20E
100
AcDbEntity
  8
GEB-KONTUR-A
 48
25.0
100
AcDbVertex
100
AcDb2dVertex
 10
27.03206501016382
 20
-14.1933286189942
 30
0.0
  0
VERTEX
  5
224
330
20E
100
AcDbEntity
  8
GEB-KONTUR-A
 48
25.0
100
AcDbVertex
100
AcDb2dVertex
 10
27.01805633073661
 20
-13.75477552413025
 30
0.0
  0
VERTEX
  5
225
330
20E
100
AcDbEntity
  8
GEB-KONTUR-A
 48
25.0
100
AcDbVertex
100
AcDb2dVertex
 10
27.00803469039954
 20
-13.31599831580198
 30
0.0
  0
VERTEX
  5
226
330
20E
100
AcDbEntity
  8
GEB-KONTUR-A
 48
25.0
100
AcDbVertex
100
AcDb2dVertex
 10
27.0020113053323
 20
-12.87685751914057
 30
0.0
  0
VERTEX
  5
227
330
20E
100
AcDbEntity
  8
GEB-KONTUR-A
 48
25.0
100
AcDbVertex
100
AcDb2dVertex
 10
26.99999999999994
 20
-12.43721127509144
 30
0.0
  0
SEQEND
  5
228
330
20E
100
AcDbEntity
  8
GEB-KONTUR-A
 48
25.0
  0
POLYLINE
  5
229
330
2
100
AcDbEntity
  8
GEB-KONTUR-A
 48
25.0
100
AcDb2dPolyline
 66
     1
 10
0.0
 20
0.0
 30
0.0
 70
   128
  0
VERTEX
  5
22A
330
229
100
AcDbEntity
  8
GEB-KONTUR-A
 48
25.0
100
AcDbVertex
100
AcDb2dVertex
 10
28.15470051765442
 20
-34.45596694946116
 30
0.0
  0
VERTEX
  5
22B
330
229
100
AcDbEntity
  8
GEB-KONTUR-A
 48
25.0
100
AcDbVertex
100
AcDb2dVertex
 10
28.0593992471695
 20
-34.26399230956844
 30
0.0
  0
VERTEX
  5
22C
330
229
100
AcDbEntity
  8
GEB-KONTUR-A
 48
25.0
100
AcDbVertex
100
AcDb2dVertex
 10
27.96839547157288
 20
-34.07310485839645
 30
0.0
  0
VERTEX
  5
22D
330
229
100
AcDbEntity
  8
GEB-KONTUR-A
 48
25.0
100
AcDbVertex
100
AcDb2dVertex
 10
27.88164865970612
 20
-33.88323783874302
 30
0.0
  0
VERTEX
  5
22E
330
229
100
AcDbEntity
  8
GEB-KONTUR-A
 48
25.0
100
AcDbVertex
100
AcDb2dVertex
 10
27.79912103712559
 20
-33.69432926177751
 30
0.0
  0
VERTEX
  5
22F
330
229
100
AcDbEntity
  8
GEB-KONTUR-A
 48
25.0
100
AcDbVertex
100
AcDb2dVertex
 10
27.7207777351141
 20
-33.50631952285531
 30
0.0
  0
VERTEX
  5
230
330
229
100
AcDbEntity
  8
GEB-KONTUR-A
 48
25.0
100
AcDbVertex
100
AcDb2dVertex
 10
27.64658649265766
 20
-33.3191442489599
 30
0.0
  0
VERTEX
  5
231
330
229
100
AcDbEntity
  8
GEB-KONTUR-A
 48
25.0
100
AcDbVertex
100
AcDb2dVertex
 10
27.57651776820421
 20
-33.13274383544661
 30
0.0
  0
VERTEX
  5
232
330
229
100
AcDbEntity
  8
GEB-KONTUR-A
 48
25.0
100
AcDbVertex
100
AcDb2dVertex
 10
27.51054477691651
 20
-32.94705867767059
 30
0.0
  0
VERTEX
  5
233
330
229
100
AcDbEntity
  8
GEB-KONTUR-A
 48
25.0
100
AcDbVertex
100
AcDb2dVertex
 10
27.44864322990179
 20
-32.76203155517291
 30
0.0
  0
VERTEX
  5
234
330
229
100
AcDbEntity
  8
GEB-KONTUR-A
 48
25.0
100
AcDbVertex
100
AcDb2dVertex
 10
27.39079148322344
 20
-32.57760286330876
 30
0.0
  0
VERTEX
  5
235
330
229
100
AcDbEntity
  8
GEB-KONTUR-A
 48
25.0
100
AcDbVertex
100
AcDb2dVertex
 10
27.33697046339512
 20
-32.3937129974334
 30
0.0
  0
VERTEX
  5
236
330
229
100
AcDbEntity
  8
GEB-KONTUR-A
 48
25.0
100
AcDbVertex
100
AcDb2dVertex
 10
27.28716359287501
 20
-32.21030712127362
 30
0.0
  0
VERTEX
  5
237
330
229
100
AcDbEntity
  8
GEB-KONTUR-A
 48
25.0
100
AcDbVertex
100
AcDb2dVertex
 10
27.24135692045093
 20
-32.02732324599884
 30
0.0
  0
VERTEX
  5
238
330
229
100
AcDbEntity
  8
GEB-KONTUR-A
 48
25.0
100
AcDbVertex
100
AcDb2dVertex
 10
27.19953893497586
 20
-31.84470415115007
 30
0.0
  0
VERTEX
  5
239
330
229
100
AcDbEntity
  8
GEB-KONTUR-A
 48
25.0
100
AcDbVertex
100
AcDb2dVertex
 10
27.16170062124729
 20
-31.66239738463995
 30
0.0
  0
VERTEX
  5
23A
330
229
100
AcDbEntity
  8
GEB-KONTUR-A
 48
25.0
100
AcDbVertex
100
AcDb2dVertex
 10
27.12783551588655
 20
-31.48034095763785
 30
0.0
  0
VERTEX
  5
23B
330
229
100
AcDbEntity
  8
GEB-KONTUR-A
 48
25.0
100
AcDbVertex
100
AcDb2dVertex
 10
27.09793962351978
 20
-31.29848003387065
 30
0.0
  0
VERTEX
  5
23C
330
229
100
AcDbEntity
  8
GEB-KONTUR-A
 48
25.0
100
AcDbVertex
100
AcDb2dVertex
 10
27.07201147265732
 20
-31.11675500869353
 30
0.0
  0
VERTEX
  5
23D
330
229
100
AcDbEntity
  8
GEB-KONTUR-A
 48
25.0
100
AcDbVertex
100
AcDb2dVertex
 10
27.05005208775401
 20
-30.9351134300191
 30
0.0
  0
VERTEX
  5
23E
330
229
100
AcDbEntity
  8
GEB-KONTUR-A
 48
25.0
100
AcDbVertex
100
AcDb2dVertex
 10
27.03206501016393
 20
-30.75349330901679
 30
0.0
  0
VERTEX
  5
23F
330
229
100
AcDbEntity
  8
GEB-KONTUR-A
 48
25.0
100
AcDbVertex
100
AcDb2dVertex
 10
27.01805633073673
 20
-30.57183742522759
 30
0.0
  0
VERTEX
  5
240
330
229
100
AcDbEntity
  8
GEB-KONTUR-A
 48
25.0
100
AcDbVertex
100
AcDb2dVertex
 10
27.00803469039966
 20
-30.39009094237835
 30
0.0
  0
VERTEX
  5
241
330
229
100
AcDbEntity
  8
GEB-KONTUR-A
 48
25.0
100
AcDbVertex
100
AcDb2dVertex
 10
27.00201130533242
 20
-30.20819187163847
 30
0.0
  0
VERTEX
  5
242
330
229
100
AcDbEntity
  8
GEB-KONTUR-A
 48
25.0
100
AcDbVertex
100
AcDb2dVertex
 10
27.0
 20
-30.02608537673479
 30
0.0
  0
SEQEND
  5
243
330
229
100
AcDbEntity
  8
GEB-KONTUR-A
 48
25.0
  0
POLYLINE
  5
244
330
2
100
AcDbEntity
  8
GEB-KONTUR-A
 48
25.0
100
AcDb2dPolyline
 66
     1
 10
0.0
 20
0.0
 30
0.0
 70
   128
  0
VERTEX
  5
245
330
244
100
AcDbEntity
  8
GEB-KONTUR-A
 48
25.0
100
AcDbVertex
100
AcDb2dVertex
 10
26.99999999999994
 20
30.02608537674206
 30
0.0
  0
VERTEX
  5
246
330
244
100
AcDbEntity
  8
GEB-KONTUR-A
 48
25.0
100
AcDbVertex
100
AcDb2dVertex
 10
27.00201130533236
 20
30.20819187164546
 30
0.0
  0
VERTEX
  5
247
330
244
100
AcDbEntity
  8
GEB-KONTUR-A
 48
25.0
100
AcDbVertex
100
AcDb2dVertex
 10
27.0080346903996
 20
30.39009094238512
 30
0.0
  0
VERTEX
  5
248
330
244
100
AcDbEntity
  8
GEB-KONTUR-A
 48
25.0
100
AcDbVertex
100
AcDb2dVertex
 10
27.01805633073667
 20
30.5718374252341
 30
0.0
  0
VERTEX
  5
249
330
244
100
AcDbEntity
  8
GEB-KONTUR-A
 48
25.0
100
AcDbVertex
100
AcDb2dVertex
 10
27.03206501016388
 20
30.75349330902302
 30
0.0
  0
VERTEX
  5
24A
330
244
100
AcDbEntity
  8
GEB-KONTUR-A
 48
25.0
100
AcDbVertex
100
AcDb2dVertex
 10
27.05005208775395
 20
30.93511343002507
 30
0.0
  0
VERTEX
  5
24B
330
244
100
AcDbEntity
  8
GEB-KONTUR-A
 48
25.0
100
AcDbVertex
100
AcDb2dVertex
 10
27.07201147265727
 20
31.11675500869927
 30
0.0
  0
VERTEX
  5
24C
330
244
100
AcDbEntity
  8
GEB-KONTUR-A
 48
25.0
100
AcDbVertex
100
AcDb2dVertex
 10
27.09793962351972
 20
31.29848003387613
 30
0.0
  0
VERTEX
  5
24D
330
244
100
AcDbEntity
  8
GEB-KONTUR-A
 48
25.0
100
AcDbVertex
100
AcDb2dVertex
 10
27.12783551588649
 20
31.48034095764308
 30
0.0
  0
VERTEX
  5
24E
330
244
100
AcDbEntity
  8
GEB-KONTUR-A
 48
25.0
100
AcDbVertex
100
AcDb2dVertex
 10
27.16170062124724
 20
31.66239738464489
 30
0.0
  0
VERTEX
  5
24F
330
244
100
AcDbEntity
  8
GEB-KONTUR-A
 48
25.0
100
AcDbVertex
100
AcDb2dVertex
 10
27.19953893497581
 20
31.84470415115476
 30
0.0
  0
VERTEX
  5
250
330
244
100
AcDbEntity
  8
GEB-KONTUR-A
 48
25.0
100
AcDbVertex
100
AcDb2dVertex
 10
27.24135692045087
 20
32.02732324600325
 30
0.0
  0
VERTEX
  5
251
330
244
100
AcDbEntity
  8
GEB-KONTUR-A
 48
25.0
100
AcDbVertex
100
AcDb2dVertex
 10
27.28716359287495
 20
32.2103071212778
 30
0.0
  0
VERTEX
  5
252
330
244
100
AcDbEntity
  8
GEB-KONTUR-A
 48
25.0
100
AcDbVertex
100
AcDb2dVertex
 10
27.33697046339506
 20
32.39371299743732
 30
0.0
  0
VERTEX
  5
253
330
244
100
AcDbEntity
  8
GEB-KONTUR-A
 48
25.0
100
AcDbVertex
100
AcDb2dVertex
 10
27.39079148322338
 20
32.57760286331242
 30
0.0
  0
VERTEX
  5
254
330
244
100
AcDbEntity
  8
GEB-KONTUR-A
 48
25.0
100
AcDbVertex
100
AcDb2dVertex
 10
27.44864322990173
 20
32.7620315551763
 30
0.0
  0
VERTEX
  5
255
330
244
100
AcDbEntity
  8
GEB-KONTUR-A
 48
25.0
100
AcDbVertex
100
AcDb2dVertex
 10
27.51054477691645
 20
32.94705867767371
 30
0.0
  0
VERTEX
  5
256
330
244
100
AcDbEntity
  8
GEB-KONTUR-A
 48
25.0
100
AcDbVertex
100
AcDb2dVertex
 10
27.57651776820416
 20
33.13274383544945
 30
0.0
  0
VERTEX
  5
257
330
244
100
AcDbEntity
  8
GEB-KONTUR-A
 48
25.0
100
AcDbVertex
100
AcDb2dVertex
 10
27.6465864926576
 20
33.31914424896249
 30
0.0
  0
VERTEX
  5
258
330
244
100
AcDbEntity
  8
GEB-KONTUR-A
 48
25.0
100
AcDbVertex
100
AcDb2dVertex
 10
27.72077773511404
 20
33.50631952285767
 30
0.0
  0
VERTEX
  5
259
330
244
100
AcDbEntity
  8
GEB-KONTUR-A
 48
25.0
100
AcDbVertex
100
AcDb2dVertex
 10
27.79912103712553
 20
33.69432926177962
 30
0.0
  0
VERTEX
  5
25A
330
244
100
AcDbEntity
  8
GEB-KONTUR-A
 48
25.0
100
AcDbVertex
100
AcDb2dVertex
 10
27.88164865970606
 20
33.88323783874483
 30
0.0
  0
VERTEX
  5
25B
330
244
100
AcDbEntity
  8
GEB-KONTUR-A
 48
25.0
100
AcDbVertex
100
AcDb2dVertex
 10
27.96839547157282
 20
34.07310485839798
 30
0.0
  0
VERTEX
  5
25C
330
244
100
AcDbEntity
  8
GEB-KONTUR-A
 48
25.0
100
AcDbVertex
100
AcDb2dVertex
 10
28.05939924716944
 20
34.26399230956974
 30
0.0
  0
VERTEX
  5
25D
330
244
100
AcDbEntity
  8
GEB-KONTUR-A
 48
25.0
100
AcDbVertex
100
AcDb2dVertex
 10
28.15470051765436
 20
34.45596694946215
 30
0.0
  0
SEQEND
  5
25E
330
244
100
AcDbEntity
  8
GEB-KONTUR-A
 48
25.0
  0
LINE
  5
25F
330
2
100
AcDbEntity
  8
GEB-KONTUR-A
 48
25.0
100
AcDbLine
 10
47.99999999999994
 20
-32.49999999999884
 30
0.0
 11
46.84529946162069
 21
-34.49999999999875
 31
0.0
  0
LINE
  5
260
330
2
100
AcDbEntity
  8
GEB-KONTUR-A
 48
25.0
100
AcDbLine
 10
47.99999999999989
 20
32.49999999999881
 30
0.0
 11
46.84529946162064
 21
34.49999999999875
 31
0.0
  0
LINE
  5
261
330
2
100
AcDbEntity
  8
GEB-KONTUR-A
 48
25.0
100
AcDbLine
 10
27.00000000000012
 20
-32.49999999999884
 30
0.0
 11
28.1547005383793
 21
-34.49999999999875
 31
0.0
  0
LINE
  5
262
330
2
100
AcDbEntity
  8
GEB-KONTUR-A
 48
25.0
100
AcDbLine
 10
27.0
 20
32.49999999999881
 30
0.0
 11
28.15470053837919
 21
34.49999999999875
 31
0.0
  0
LINE
  5
263
330
2
100
AcDbEntity
  8
GEB-KONTUR-A
 48
25.0
100
AcDbLine
 10
26.99999999999989
 20
12.43721155187379
 30
0.0
 11
26.99999999999994
 21
30.02608480661939
 31
0.0
  0
LINE
  5
264
330
2
100
AcDbEntity
  8
GEB-KONTUR-A
 48
25.0
100
AcDbLine
 10
47.99999999999994
 20
-32.49999999999884
 30
0.0
 11
47.99999999999989
 21
-30.02608480661212
 31
0.0
  0
LINE
  5
265
330
2
100
AcDbEntity
  8
GEB-KONTUR-A
 48
25.0
100
AcDbLine
 10
47.99999999999989
 20
-30.02608480661212
 30
0.0
 11
47.99999999999982
 21
-12.43721155185616
 31
0.0
  0
LINE
  5
266
330
2
100
AcDbEntity
  8
GEB-KONTUR-A
 48
25.0
100
AcDbLine
 10
47.99999999999977
 20
-12.43721155185616
 30
0.0
 11
47.99999999999977
 21
12.43721155187379
 31
0.0
  0
LINE
  5
267
330
2
100
AcDbEntity
  8
GEB-KONTUR-A
 48
25.0
100
AcDbLine
 10
47.99999999999982
 20
30.02608480661937
 30
0.0
 11
47.99999999999989
 21
32.49999999999881
 31
0.0
  0
LINE
  5
268
330
2
100
AcDbEntity
  8
GEB-KONTUR-A
 48
25.0
100
AcDbLine
 10
47.99999999999977
 20
12.43721155187379
 30
0.0
 11
47.99999999999982
 21
30.02608480661939
 31
0.0
  0
LINE
  5
269
330
2
100
AcDbEntity
  8
GEB-KONTUR-A
 48
25.0
100
AcDbLine
 10
26.99999999999994
 20
-12.43721155185619
 30
0.0
 11
26.99999999999989
 21
12.43721155187379
 31
0.0
  0
LINE
  5
26A
330
2
100
AcDbEntity
  8
GEB-KONTUR-A
 48
25.0
100
AcDbLine
 10
27.0
 20
-30.02608480661212
 30
0.0
 11
26.99999999999989
 21
-12.43721155185616
 31
0.0
  0
LINE
  5
26B
330
2
100
AcDbEntity
  8
GEB-KONTUR-A
 48
25.0
100
AcDbLine
 10
27.00000000000012
 20
-32.49999999999884
 30
0.0
 11
27.0
 21
-30.02608480661212
 31
0.0
  0
LINE
  5
26C
330
2
100
AcDbEntity
  8
GEB-KONTUR-A
 48
25.0
100
AcDbLine
 10
26.99999999999994
 20
30.02608480661939
 30
0.0
 11
26.99999999999994
 21
32.49999999999886
 31
0.0
  0
LINE
  5
26D
330
2
100
AcDbEntity
  8
GEB-KONTUR-A
 48
25.0
100
AcDbLine
 10
28.15470053837925
 20
34.49999999999875
 30
0.0
 11
46.84529946162064
 21
34.49999999999875
 31
0.0
  0
LINE
  5
26E
330
2
100
AcDbEntity
  8
GEB-KONTUR-A
 48
25.0
100
AcDbLine
 10
28.1547005383793
 20
-34.49999999999875
 30
0.0
 11
46.84529946162069
 21
-34.49999999999875
 31
0.0
  0
LINE
  5
26F
330
2
100
AcDbEntity
  8
GEB-KONTUR-A
 48
25.0
100
AcDbLine
 10
46.84529946162058
 20
34.45596580507433
 30
0.0
 11
46.84529946162058
 21
34.49999999999875
 31
0.0
  0
LINE
  5
270
330
2
100
AcDbEntity
  8
GEB-KONTUR-A
 48
25.0
100
AcDbLine
 10
46.84529946162064
 20
34.45596580507433
 30
0.0
 11
28.15470053837919
 21
34.45596580507433
 31
0.0
  0
LINE
  5
271
330
2
100
AcDbEntity
  8
GEB-KONTUR-A
 48
25.0
100
AcDbLine
 10
28.15470053837919
 20
34.49999999999875
 30
0.0
 11
28.15470053837919
 21
34.4559658050743
 31
0.0
  0
LINE
  5
272
330
2
100
AcDbEntity
  8
GEB-KONTUR-A
 48
25.0
100
AcDbLine
 10
46.84529946162069
 20
-34.49999999999875
 30
0.0
 11
46.84529946162064
 21
-34.45596580507333
 31
0.0
  0
LINE
  5
273
330
2
100
AcDbEntity
  8
GEB-KONTUR-A
 48
25.0
100
AcDbLine
 10
28.1547005383793
 20
-34.45596580507333
 30
0.0
 11
28.1547005383793
 21
-34.49999999999875
 31
0.0
  0
LINE
  5
274
330
2
100
AcDbEntity
  8
GEB-KONTUR-A
 48
25.0
100
AcDbLine
 10
28.1547005383793
 20
-34.45596580507333
 30
0.0
 11
46.84529946162064
 21
-34.45596580507333
 31
0.0
  0
LINE
  5
275
330
2
100
AcDbEntity
  8
GEB-KONTUR-A
 48
25.0
100
AcDbLine
 10
46.84529946162058
 20
-25.59620380815088
 30
0.0
 11
46.84529946162046
 21
-23.13189033803377
 31
0.0
  0
LINE
  5
276
330
2
100
AcDbEntity
  8
GEB-KONTUR-A
 48
25.0
100
AcDbLine
 10
46.84529946162058
 20
-25.5962038081509
 30
0.0
 11
28.15470053837919
 21
-25.5962038081509
 31
0.0
  0
LINE
  5
277
330
2
100
AcDbEntity
  8
GEB-KONTUR-A
 48
25.0
100
AcDbLine
 10
28.15470053837919
 20
-23.13189033803383
 30
0.0
 11
28.15470053837919
 21
-25.5962038081509
 31
0.0
  0
LINE
  5
278
330
2
100
AcDbEntity
  8
GEB-KONTUR-A
 48
25.0
100
AcDbLine
 10
28.15470053837919
 20
-23.1318903380338
 30
0.0
 11
46.84529946162058
 21
-23.13189033803377
 31
0.0
  0
LINE
  5
279
330
2
100
AcDbEntity
  8
GEB-KONTUR-A
 48
25.0
100
AcDbLine
 10
46.84529946162046
 20
-1.742532765678561
 30
0.0
 11
46.84529946162046
 21
1.742532765698769
 31
0.0
  0
LINE
  5
27A
330
2
100
AcDbEntity
  8
GEB-KONTUR-A
 48
25.0
100
AcDbLine
 10
46.84529946162046
 20
-1.742532765678561
 30
0.0
 11
28.15470053837913
 21
-1.742532765678561
 31
0.0
  0
LINE
  5
27B
330
2
100
AcDbEntity
  8
GEB-KONTUR-A
 48
25.0
100
AcDbLine
 10
28.15470053837913
 20
1.74253276569874
 30
0.0
 11
28.15470053837913
 21
-1.742532765678589
 31
0.0
  0
LINE
  5
27C
330
2
100
AcDbEntity
  8
GEB-KONTUR-A
 48
25.0
100
AcDbLine
 10
28.15470053837913
 20
1.742532765698769
 30
0.0
 11
46.84529946162046
 21
1.742532765698769
 31
0.0
  0
LINE
  5
27D
330
2
100
AcDbEntity
  8
GEB-KONTUR-A
 48
25.0
100
AcDbLine
 10
28.15470053837913
 20
25.59620380816443
 30
0.0
 11
28.15470053837913
 21
23.13189033804881
 31
0.0
  0
LINE
  5
27E
330
2
100
AcDbEntity
  8
GEB-KONTUR-A
 48
25.0
100
AcDbLine
 10
28.15470053837913
 20
25.59620380816446
 30
0.0
 11
46.84529946162046
 21
25.59620380816446
 31
0.0
  0
LINE
  5
27F
330
2
100
AcDbEntity
  8
GEB-KONTUR-A
 48
25.0
100
AcDbLine
 10
46.84529946162046
 20
23.13189033804881
 30
0.0
 11
46.84529946162046
 21
25.59620380816446
 31
0.0
  0
LINE
  5
280
330
2
100
AcDbEntity
  8
GEB-KONTUR-A
 48
25.0
100
AcDbLine
 10
46.84529946162046
 20
23.13189033804881
 30
0.0
 11
28.15470053837913
 21
23.13189033804881
 31
0.0
  0
TEXT
  5
281
330
2
100
AcDbEntity
  8
GEB-TEXT
100
AcDbText
 10
-32.80593451568906
 20
-44.99999999999874
 30
0.0
 40
3.5
  1
ÜBERGANG M/ ÜBERWM CST/MS D35-G2 VERZ
 72
     1
 11
22.74999999999989
 21
-44.99999999999874
 31
0.0
100
AcDbText
  0
TEXT
  5
283
330
2
100
AcDbEntity
  8
GEB-TEXT
100
AcDbText
 10
4.679399727148592
 20
-39.49999999999875
 30
0.0
 40
3.5
  1
Geberit Mapress
 72
     1
 11
22.74999999999989
 21
-39.49999999999875
 31
0.0
100
AcDbText
  0
TEXT
  5
284
330
2
100
AcDbEntity
  8
GEB-ART-NR
100
AcDbText
 10
-0.112829841803098
 20
-51.34278125427897
 30
0.0
 40
3.5
  1
GEB-ART-NR 25051
 72
     1
 11
22.57629021276716
 21
-51.34278125427897
 31
0.0
100
AcDbText
  0
ENDSEC
  0
SECTION
  2
OBJECTS
  0
DICTIONARY
  5
9
330
0
100
AcDbDictionary
281
     1
  3
ACAD_2007HEADERVARS_RT
350
33B
  3
ACAD_COLOR
350
44
  3
ACAD_GROUP
350
31
  3
ACAD_LAYOUT
350
16
  3
ACAD_MATERIAL
350
B
  3
ACAD_MLEADERSTYLE
350
47
  3
ACAD_MLINESTYLE
350
32
  3
ACAD_PLOTSETTINGS
350
33
  3
ACAD_PLOTSTYLENAME
350
8
  3
ACAD_SCALELIST
350
45
  3
ACAD_TABLESTYLE
350
46
  3
ACAD_VISUALSTYLE
350
2B
  3
ACDB_RECOMPOSE_DATA
350
33A
  3
AcDbVariableDictionary
350
2E4
  3
AcmDictionary
350
297
  3
AcmSystemVariableManager
350
352
  3
AMG
350
288
  0
DICTIONARY
  5
2C
330
28
100
AcDbDictionary
280
     1
281
     1
  0
DICTIONARY
  5
1C
330
1B
100
AcDbDictionary
280
     1
281
     1
  3
ACAD_LAYERFILTERS
360
1D
  3
ACLYDICTIONARY
360
1E
  0
DICTIONARY
  5
3
330
2
100
AcDbDictionary
280
     1
281
     1
  3
ACAD_SORTENTS
360
286
  0
DICTIONARY
  5
33B
102
{ACAD_REACTORS
330
9
102
}
330
9
100
AcDbDictionary
281
     1
  3
DIMARCSYM
350
33C
  3
DIMLTEX1
350
33E
  3
DIMLTEX2
350
33F
  3
DIMLTYPE
350
33D
  0
DICTIONARY
  5
44
102
{ACAD_REACTORS
330
9
102
}
330
9
100
AcDbDictionary
281
     1
  0
DICTIONARY
  5
31
102
{ACAD_REACTORS
330
9
102
}
330
9
100
AcDbDictionary
281
     1
  0
DICTIONARY
  5
16
102
{ACAD_REACTORS
330
9
102
}
330
9
100
AcDbDictionary
281
     1
  3
Layout1
350
1A
  3
Model
350
15
  0
DICTIONARY
  5
B
102
{ACAD_REACTORS
330
9
102
}
330
9
100
AcDbDictionary
281
     1
  3
ByBlock
350
3C
  3
ByLayer
350
34
  3
Global
350
A
  0
DICTIONARY
  5
47
102
{ACAD_REACTORS
330
9
102
}
330
9
100
AcDbDictionary
281
     1
  3
Standard
350
302
  0
DICTIONARY
  5
32
102
{ACAD_REACTORS
330
9
102
}
330
9
100
AcDbDictionary
281
     1
  3
Standard
350
48
  0
DICTIONARY
  5
33
102
{ACAD_REACTORS
330
9
102
}
330
9
100
AcDbDictionary
281
     1
  0
ACDBDICTIONARYWDFLT
  5
8
102
{ACAD_REACTORS
330
9
102
}
330
9
100
AcDbDictionary
281
     1
  3
Normal
350
7
100
AcDbDictionaryWithDefault
340
7
  0
DICTIONARY
  5
45
102
{ACAD_REACTORS
330
9
102
}
330
9
100
AcDbDictionary
281
     1
  3
A0
350
4D
  3
A1
350
4E
  3
A2
350
4F
  3
A3
350
50
  3
A4
350
51
  3
A5
350
52
  3
A6
350
53
  3
A7
350
54
  3
A8
350
55
  3
A9
350
56
  3
B0
350
57
  3
B1
350
58
  3
B2
350
59
  3
B3
350
5A
  3
B4
350
5B
  3
B5
350
5C
  3
B6
350
5D
  3
B7
350
5E
  3
B8
350
5F
  3
B9
350
60
  3
C0
350
61
  3
C1
350
62
  3
C2
350
63
  3
C3
350
64
  3
C4
350
65
  3
C5
350
66
  3
C6
350
67
  3
C7
350
68
  3
C8
350
69
  3
C9
350
6A
  3
D0
350
6B
  3
D1
350
6C
  3
D2
350
6D
  0
DICTIONARY
  5
46
102
{ACAD_REACTORS
330
9
102
}
330
9
100
AcDbDictionary
281
     1
  3
Standard
350
49
  0
DICTIONARY
  5
2B
102
{ACAD_REACTORS
330
9
102
}
330
9
100
AcDbDictionary
281
     1
  3
2dWireframe
350
2A
  3
Basic
350
2F1
  3
Brighten
350
2F5
  3
ColorChange
350
2F9
  3
Conceptual
350
2F3
  3
Dim
350
2F4
  3
EdgeColorOff
350
301
  3
Facepattern
350
2F8
  3
Flat
350
2ED
  3
FlatWithEdges
350
2EE
  3
Gouraud
350
2EF
  3
GouraudWithEdges
350
2F0
  3
Hidden
350
2F2
  3
JitterOff
350
2FF
  3
Linepattern
350
2F7
  3
OverhangOff
350
300
  3
Realistic
350
4B
  3
Shaded
350
2FE
  3
Shaded with edges
350
2FD
  3
Shades of Gray
350
2FA
  3
Sketchy
350
2FB
  3
Thicken
350
2F6
  3
Wireframe
350
4C
  3
X-Ray
350
2FC
  0
XRECORD
  5
33A
102
{ACAD_REACTORS
330
9
102
}
330
9
100
AcDbXrecord
280
     1
 90
        1
330
49
  0
DICTIONARY
  5
2E4
102
{ACAD_REACTORS
330
9
102
}
330
9
100
AcDbDictionary
281
     1
  3
CANNOSCALE
350
2E8
  3
CMLEADERSTYLE
350
2E6
  3
CTABLESTYLE
350
2E5
  3
DIMASSOC
350
337
  3
HIDETEXT
350
336
  3
INDEXCTL
350
335
  3
LAYEREVAL
350
2EA
  3
LAYERNOTIFY
350
2EB
  3
LIGHTINGUNITS
350
2E9
  3
MSLTSCALE
350
2E7
  3
SORTENTS
350
334
  3
XCLIPFRAME
350
338
  0
DICTIONARY
  5
297
102
{ACAD_REACTORS
330
9
102
}
330
9
100
AcDbDictionary
281
     1
  3
AcmStdDictionary
350
298
  0
DICTIONARY
  5
288
102
{ACAD_REACTORS
330
9
102
}
330
9
100
AcDbDictionary
281
     1
  3
AcMgSettings
350
292
  0
DICTIONARY
  5
1D
102
{ACAD_REACTORS
330
1C
102
}
330
1C
100
AcDbDictionary
281
     1
  0
DICTIONARY
  5
1E
102
{ACAD_REACTORS
330
1C
102
}
330
1C
100
AcDbDictionary
281
     1
1001
ACAD
1000
<All
  0
SORTENTSTABLE
  5
286
102
{ACAD_REACTORS
330
3
102
}
330
3
100
AcDbSortentsTable
330
2
331
9C
  5
229
331
273
  5
86
331
9D
  5
20E
331
6E
  5
280
331
274
  5
85
331
9E
  5
1F3
331
1A2
  5
A1
331
275
  5
84
331
9F
  5
1D8
331
88
  5
271
331
25F
  5
9A
331
276
  5
83
331
CA
  5
A9
331
A0
  5
1BD
331
89
  5
270
331
260
  5
99
331
277
  5
82
331
244
  5
9B
331
8A
  5
26F
331
A1
  5
1A2
331
261
  5
98
331
8B
  5
26E
331
A2
  5
187
331
100
  5
A7
331
262
  5
97
331
8C
  5
26D
331
A3
  5
16C
331
263
  5
96
331
E5
  5
A8
331
8D
  5
26C
331
A4
  5
151
331
264
  5
95
331
278
  5
81
331
8E
  5
26B
331
A5
  5
136
331
265
  5
94
331
1BD
  5
A0
331
279
  5
7D
331
8F
  5
26A
331
A6
  5
11B
331
11B
  5
A6
331
78
  5
27D
331
266
  5
93
331
27A
  5
7C
331
79
  5
27C
331
90
  5
269
331
267
  5
92
331
A7
  5
100
331
27B
  5
7A
331
75
  5
27F
331
1F3
  5
9E
331
7A
  5
27B
331
91
  5
268
331
27C
  5
79
331
92
  5
267
331
27D
  5
78
331
77
  5
27E
331
7C
  5
27A
331
93
  5
266
331
27E
  5
77
331
7D
  5
279
331
94
  5
265
331
27F
  5
75
331
268
  5
91
331
A8
  5
E5
331
20E
  5
9D
331
95
  5
264
331
280
  5
6E
331
269
  5
90
331
A9
  5
CA
331
1D8
  5
9F
331
16C
  5
A3
331
96
  5
263
331
26A
  5
8F
331
281
  5
284
331
136
  5
A5
331
AA
  5
AF
331
97
  5
262
331
26B
  5
8E
331
AB
  5
AE
331
81
  5
278
331
26C
  5
8D
331
AC
  5
AD
331
82
  5
277
331
26D
  5
8C
331
284
  5
281
331
AD
  5
AC
331
187
  5
A2
331
83
  5
276
331
26E
  5
8B
331
AE
  5
AB
331
84
  5
275
331
26F
  5
8A
331
AF
  5
AA
331
98
  5
261
331
85
  5
274
331
270
  5
89
331
99
  5
260
331
229
  5
9C
331
86
  5
273
331
271
  5
88
331
9A
  5
25F
331
87
  5
272
331
151
  5
A4
331
9B
  5
244
331
272
  5
87
  0
XRECORD
  5
33C
102
{ACAD_REACTORS
330
33B
102
}
330
33B
100
AcDbXrecord
280
     1
 70
     1
  0
XRECORD
  5
33E
102
{ACAD_REACTORS
330
33B
102
}
330
33B
100
AcDbXrecord
280
     1
340
24
  0
XRECORD
  5
33F
102
{ACAD_REACTORS
330
33B
102
}
330
33B
100
AcDbXrecord
280
     1
340
24
  0
XRECORD
  5
33D
102
{ACAD_REACTORS
330
33B
102
}
330
33B
100
AcDbXrecord
280
     1
340
24
  0
LAYOUT
  5
1A
102
{ACAD_XDICTIONARY
360
343
102
}
102
{ACAD_REACTORS
330
16
102
}
330
16
100
AcDbPlotSettings
  1

  2
\\le-server\HP LaserJet 2100
  4

  6

 40
0.0
 41
0.0
 42
0.0
 43
0.0
 44
0.0
 45
0.0
 46
0.0
 47
0.0
 48
0.0
 49
0.0
140
0.0
141
0.0
142
1.0
143
1.0
 70
   688
 72
     0
 73
     0
 74
     5
  7

 75
    16
147
1.0
148
0.0
149
0.0
100
AcDbLayout
  1
Layout1
 70
     1
 71
     1
 10
0.0
 20
0.0
 11
1189.0
 21
840.9999999999998
 12
0.0
 22
0.0
 32
0.0
 14
0.0
 24
0.0
 34
0.0
 15
1189.0
 25
840.9999999999998
 35
0.0
146
0.0
 13
0.0
 23
0.0
 33
0.0
 16
1.0
 26
0.0
 36
0.0
 17
0.0
 27
1.0
 37
0.0
 76
     0
330
17
  0
LAYOUT
  5
15
102
{ACAD_XDICTIONARY
360
341
102
}
102
{ACAD_REACTORS
330
16
102
}
330
16
100
AcDbPlotSettings
  1

  2
\\le-server\HP LaserJet 2100
  4

  6

 40
0.0
 41
0.0
 42
0.0
 43
0.0
 44
0.0
 45
0.0
 46
0.0
 47
0.0
 48
0.0
 49
0.0
140
0.0
141
0.0
142
1.0
143
1.0
 70
  1712
 72
     0
 73
     0
 74
     0
  7

 75
     0
147
1.0
148
0.0
149
0.0
100
AcDbLayout
  1
Model
 70
     1
 71
     0
 10
0.0
 20
0.0
 11
12.0
 21
9.0
 12
0.0
 22
0.0
 32
0.0
 14
0.0
 24
0.0
 34
0.0
 15
0.0
 25
0.0
 35
0.0
146
0.0
 13
0.0
 23
0.0
 33
0.0
 16
1.0
 26
0.0
 36
0.0
 17
0.0
 27
1.0
 37
0.0
 76
     0
330
2
331
29
  0
MATERIAL
  5
3C
102
{ACAD_XDICTIONARY
360
3D
102
}
102
{ACAD_REACTORS
330
B
102
}
330
B
100
AcDbMaterial
  1
ByBlock
 72
     0
 43
0.0208333333333333
 43
0.0
 43
0.0
 43
0.0
 43
0.0
 43
0.0208333333333333
 43
0.0
 43
0.0
 43
0.0
 43
0.0
 43
1.0
 43
0.0
 43
0.0
 43
0.0
 43
0.0
 43
1.0
 77
     0
 47
0.0208333333333333
 47
0.0
 47
0.0
 47
0.0
 47
0.0
 47
0.0208333333333333
 47
0.0
 47
0.0
 47
0.0
 47
0.0
 47
1.0
 47
0.0
 47
0.0
 47
0.0
 47
0.0
 47
1.0
171
     0
 49
0.0208333333333333
 49
0.0
 49
0.0
 49
0.0
 49
0.0
 49
0.0208333333333333
 49
0.0
 49
0.0
 49
0.0
 49
0.0
 49
1.0
 49
0.0
 49
0.0
 49
0.0
 49
0.0
 49
1.0
175
     0
142
0.0208333333333333
142
0.0
142
0.0
142
0.0
142
0.0
142
0.0208333333333333
142
0.0
142
0.0
142
0.0
142
0.0
142
1.0
142
0.0
142
0.0
142
0.0
142
0.0
142
1.0
179
     0
144
0.0208333333333333
144
0.0
144
0.0
144
0.0
144
0.0
144
0.0208333333333333
144
0.0
144
0.0
144
0.0
144
0.0
144
1.0
144
0.0
144
0.0
144
0.0
144
0.0
144
1.0
147
0.0208333333333333
147
0.0
147
0.0
147
0.0
147
0.0
147
0.0208333333333333
147
0.0
147
0.0
147
0.0
147
0.0
147
1.0
147
0.0
147
0.0
147
0.0
147
0.0
147
1.0
  0
MATERIAL
  5
34
102
{ACAD_XDICTIONARY
360
35
102
}
102
{ACAD_REACTORS
330
B
102
}
330
B
100
AcDbMaterial
  1
ByLayer
 72
     0
 43
0.0208333333333333
 43
0.0
 43
0.0
 43
0.0
 43
0.0
 43
0.0208333333333333
 43
0.0
 43
0.0
 43
0.0
 43
0.0
 43
1.0
 43
0.0
 43
0.0
 43
0.0
 43
0.0
 43
1.0
 77
     0
 47
0.0208333333333333
 47
0.0
 47
0.0
 47
0.0
 47
0.0
 47
0.0208333333333333
 47
0.0
 47
0.0
 47
0.0
 47
0.0
 47
1.0
 47
0.0
 47
0.0
 47
0.0
 47
0.0
 47
1.0
171
     0
 49
0.0208333333333333
 49
0.0
 49
0.0
 49
0.0
 49
0.0
 49
0.0208333333333333
 49
0.0
 49
0.0
 49
0.0
 49
0.0
 49
1.0
 49
0.0
 49
0.0
 49
0.0
 49
0.0
 49
1.0
175
     0
142
0.0208333333333333
142
0.0
142
0.0
142
0.0
142
0.0
142
0.0208333333333333
142
0.0
142
0.0
142
0.0
142
0.0
142
1.0
142
0.0
142
0.0
142
0.0
142
0.0
142
1.0
179
     0
144
0.0208333333333333
144
0.0
144
0.0
144
0.0
144
0.0
144
0.0208333333333333
144
0.0
144
0.0
144
0.0
144
0.0
144
1.0
144
0.0
144
0.0
144
0.0
144
0.0
144
1.0
147
0.0208333333333333
147
0.0
147
0.0
147
0.0
147
0.0
147
0.0208333333333333
147
0.0
147
0.0
147
0.0
147
0.0
147
1.0
147
0.0
147
0.0
147
0.0
147
0.0
147
1.0
  0
MATERIAL
  5
A
102
{ACAD_XDICTIONARY
360
C
102
}
102
{ACAD_REACTORS
330
B
102
}
330
B
100
AcDbMaterial
  1
Global
 72
     0
 43
0.0208333333333333
 43
0.0
 43
0.0
 43
0.0
 43
0.0
 43
0.0208333333333333
 43
0.0
 43
0.0
 43
0.0
 43
0.0
 43
1.0
 43
0.0
 43
0.0
 43
0.0
 43
0.0
 43
1.0
 77
     0
 47
0.0208333333333333
 47
0.0
 47
0.0
 47
0.0
 47
0.0
 47
0.0208333333333333
 47
0.0
 47
0.0
 47
0.0
 47
0.0
 47
1.0
 47
0.0
 47
0.0
 47
0.0
 47
0.0
 47
1.0
171
     0
 49
0.0208333333333333
 49
0.0
 49
0.0
 49
0.0
 49
0.0
 49
0.0208333333333333
 49
0.0
 49
0.0
 49
0.0
 49
0.0
 49
1.0
 49
0.0
 49
0.0
 49
0.0
 49
0.0
 49
1.0
175
     0
142
0.0208333333333333
142
0.0
142
0.0
142
0.0
142
0.0
142
0.0208333333333333
142
0.0
142
0.0
142
0.0
142
0.0
142
1.0
142
0.0
142
0.0
142
0.0
142
0.0
142
1.0
179
     0
144
0.0208333333333333
144
0.0
144
0.0
144
0.0
144
0.0
144
0.0208333333333333
144
0.0
144
0.0
144
0.0
144
0.0
144
1.0
144
0.0
144
0.0
144
0.0
144
0.0
144
1.0
147
0.0208333333333333
147
0.0
147
0.0
147
0.0
147
0.0
147
0.0208333333333333
147
0.0
147
0.0
147
0.0
147
0.0
147
1.0
147
0.0
147
0.0
147
0.0
147
0.0
147
1.0
  0
MLEADERSTYLE
  5
302
102
{ACAD_REACTORS
330
47
102
}
330
47
100
AcDbMLeaderStyle
170
     2
171
     1
172
     0
 90
        2
 40
0.0
 41
0.0
173
     1
 91
-1056964608
340
24
 92
       -2
290
     1
 42
2.0
291
     1
 43
0.36
  3
Standard
 44
4.0
300

342
21
174
     1
178
     6
175
     1
176
     0
 93
-1056964608
 45
4.0
292
     0
297
     0
 46
4.0
 94
-1056964608
 47
1.0
 49
1.0
140
1.0
293
     1
141
0.0
294
     1
177
     0
142
1.0
295
     0
296
     0
143
0.125
1001
ACAD_MLEADERVER
1070
     2
  0
MLINESTYLE
  5
48
102
{ACAD_REACTORS
330
32
102
}
330
32
100
AcDbMlineStyle
  2
STANDARD
 70
     0
  3

 62
   256
 51
90.0
 52
90.0
 71
     2
 49
0.5
 62
   256
  6
BYLAYER
 49
-0.5
 62
   256
  6
BYLAYER
  0
ACDBPLACEHOLDER
  5
7
102
{ACAD_REACTORS
330
8
102
}
330
8
  0
SCALE
  5
4D
102
{ACAD_REACTORS
330
45
102
}
330
45
100
AcDbScale
 70
     0
300
1:1
140
1.0
141
1.0
290
     1
  0
SCALE
  5
4E
102
{ACAD_REACTORS
330
45
102
}
330
45
100
AcDbScale
 70
     0
300
1:2
140
1.0
141
2.0
290
     0
  0
SCALE
  5
4F
102
{ACAD_REACTORS
330
45
102
}
330
45
100
AcDbScale
 70
     0
300
1:4
140
1.0
141
4.0
290
     0
  0
SCALE
  5
50
102
{ACAD_REACTORS
330
45
102
}
330
45
100
AcDbScale
 70
     0
300
1:5
140
1.0
141
5.0
290
     0
  0
SCALE
  5
51
102
{ACAD_REACTORS
330
45
102
}
330
45
100
AcDbScale
 70
     0
300
1:8
140
1.0
141
8.0
290
     0
  0
SCALE
  5
52
102
{ACAD_REACTORS
330
45
102
}
330
45
100
AcDbScale
 70
     0
300
1:10
140
1.0
141
10.0
290
     0
  0
SCALE
  5
53
102
{ACAD_REACTORS
330
45
102
}
330
45
100
AcDbScale
 70
     0
300
1:16
140
1.0
141
16.0
290
     0
  0
SCALE
  5
54
102
{ACAD_REACTORS
330
45
102
}
330
45
100
AcDbScale
 70
     0
300
1:20
140
1.0
141
20.0
290
     0
  0
SCALE
  5
55
102
{ACAD_REACTORS
330
45
102
}
330
45
100
AcDbScale
 70
     0
300
1:30
140
1.0
141
30.0
290
     0
  0
SCALE
  5
56
102
{ACAD_REACTORS
330
45
102
}
330
45
100
AcDbScale
 70
     0
300
1:40
140
1.0
141
40.0
290
     0
  0
SCALE
  5
57
102
{ACAD_REACTORS
330
45
102
}
330
45
100
AcDbScale
 70
     0
300
1:50
140
1.0
141
50.0
290
     0
  0
SCALE
  5
58
102
{ACAD_REACTORS
330
45
102
}
330
45
100
AcDbScale
 70
     0
300
1:100
140
1.0
141
100.0
290
     0
  0
SCALE
  5
59
102
{ACAD_REACTORS
330
45
102
}
330
45
100
AcDbScale
 70
     0
300
2:1
140
2.0
141
1.0
290
     0
  0
SCALE
  5
5A
102
{ACAD_REACTORS
330
45
102
}
330
45
100
AcDbScale
 70
     0
300
4:1
140
4.0
141
1.0
290
     0
  0
SCALE
  5
5B
102
{ACAD_REACTORS
330
45
102
}
330
45
100
AcDbScale
 70
     0
300
8:1
140
8.0
141
1.0
290
     0
  0
SCALE
  5
5C
102
{ACAD_REACTORS
330
45
102
}
330
45
100
AcDbScale
 70
     0
300
10:1
140
10.0
141
1.0
290
     0
  0
SCALE
  5
5D
102
{ACAD_REACTORS
330
45
102
}
330
45
100
AcDbScale
 70
     0
300
100:1
140
100.0
141
1.0
290
     0
  0
SCALE
  5
5E
102
{ACAD_REACTORS
330
45
102
}
330
45
100
AcDbScale
 70
     0
300
1/128" = 1'-0"
140
0.0078125
141
12.0
290
     0
  0
SCALE
  5
5F
102
{ACAD_REACTORS
330
45
102
}
330
45
100
AcDbScale
 70
     0
300
1/64" = 1'-0"
140
0.015625
141
12.0
290
     0
  0
SCALE
  5
60
102
{ACAD_REACTORS
330
45
102
}
330
45
100
AcDbScale
 70
     0
300
1/32" = 1'-0"
140
0.03125
141
12.0
290
     0
  0
SCALE
  5
61
102
{ACAD_REACTORS
330
45
102
}
330
45
100
AcDbScale
 70
     0
300
1/16" = 1'-0"
140
0.0625
141
12.0
290
     0
  0
SCALE
  5
62
102
{ACAD_REACTORS
330
45
102
}
330
45
100
AcDbScale
 70
     0
300
3/32" = 1'-0"
140
0.09375
141
12.0
290
     0
  0
SCALE
  5
63
102
{ACAD_REACTORS
330
45
102
}
330
45
100
AcDbScale
 70
     0
300
1/8" = 1'-0"
140
0.125
141
12.0
290
     0
  0
SCALE
  5
64
102
{ACAD_REACTORS
330
45
102
}
330
45
100
AcDbScale
 70
     0
300
3/16" = 1'-0"
140
0.1875
141
12.0
290
     0
  0
SCALE
  5
65
102
{ACAD_REACTORS
330
45
102
}
330
45
100
AcDbScale
 70
     0
300
1/4" = 1'-0"
140
0.25
141
12.0
290
     0
  0
SCALE
  5
66
102
{ACAD_REACTORS
330
45
102
}
330
45
100
AcDbScale
 70
     0
300
3/8" = 1'-0"
140
0.375
141
12.0
290
     0
  0
SCALE
  5
67
102
{ACAD_REACTORS
330
45
102
}
330
45
100
AcDbScale
 70
     0
300
1/2" = 1'-0"
140
0.5
141
12.0
290
     0
  0
SCALE
  5
68
102
{ACAD_REACTORS
330
45
102
}
330
45
100
AcDbScale
 70
     0
300
3/4" = 1'-0"
140
0.75
141
12.0
290
     0
  0
SCALE
  5
69
102
{ACAD_REACTORS
330
45
102
}
330
45
100
AcDbScale
 70
     0
300
1" = 1'-0"
140
1.0
141
12.0
290
     0
  0
SCALE
  5
6A
102
{ACAD_REACTORS
330
45
102
}
330
45
100
AcDbScale
 70
     0
300
1-1/2" = 1'-0"
140
1.5
141
12.0
290
     0
  0
SCALE
  5
6B
102
{ACAD_REACTORS
330
45
102
}
330
45
100
AcDbScale
 70
     0
300
3" = 1'-0"
140
3.0
141
12.0
290
     0
  0
SCALE
  5
6C
102
{ACAD_REACTORS
330
45
102
}
330
45
100
AcDbScale
 70
     0
300
6" = 1'-0"
140
6.0
141
12.0
290
     0
  0
SCALE
  5
6D
102
{ACAD_REACTORS
330
45
102
}
330
45
100
AcDbScale
 70
     0
300
1'-0" = 1'-0"
140
12.0
141
12.0
290
     0
  0
TABLESTYLE
  5
49
102
{ACAD_XDICTIONARY
360
4A
102
}
102
{ACAD_REACTORS
330
46
102
}
330
46
100
AcDbTableStyle
  3
Standard
 70
     0
 71
     0
 40
0.06
 41
0.06
280
     0
281
     0
  7
STANDARD
140
0.18
170
     2
 62
     0
 63
     7
283
     0
274
    -2
284
     1
 64
     0
275
    -2
285
     1
 65
     0
276
    -2
286
     1
 66
     0
277
    -2
287
     1
 67
     0
278
    -2
288
     1
 68
     0
279
    -2
289
     1
 69
     0
  7
STANDARD
140
0.25
170
     5
 62
     0
 63
     7
283
     0
274
    -2
284
     1
 64
     0
275
    -2
285
     1
 65
     0
276
    -2
286
     1
 66
     0
277
    -2
287
     1
 67
     0
278
    -2
288
     1
 68
     0
279
    -2
289
     1
 69
     0
  7
STANDARD
140
0.18
170
     5
 62
     0
 63
     7
283
     0
274
    -2
284
     1
 64
     0
275
    -2
285
     1
 65
     0
276
    -2
286
     1
 66
     0
277
    -2
287
     1
 67
     0
278
    -2
288
     1
 68
     0
279
    -2
289
     1
 69
     0
  0
VISUALSTYLE
  5
2A
102
{ACAD_XDICTIONARY
360
345
102
}
102
{ACAD_REACTORS
330
2B
102
}
330
2B
100
AcDbVisualStyle
  2
2dWireframe
 70
     4
 71
     0
 72
     2
 73
     0
 90
        0
 40
-0.6
 41
-30.0
 62
     5
 63
     7
 74
     1
 91
        4
 64
     7
 65
   257
 75
     1
175
     1
 42
1.0
 92
        0
 66
   257
 43
1.0
 76
     1
 77
     6
 78
     2
 67
     7
 79
     5
170
     0
171
     0
290
     0
174
     0
 93
        1
 44
0.0
173
     0
291
     0
 45
0.0
1001
ACAD
1000
AcDbSavedByObjectVersion
1070
     0
  0
VISUALSTYLE
  5
2F1
102
{ACAD_XDICTIONARY
360
35C
102
}
102
{ACAD_REACTORS
330
2B
102
}
330
2B
100
AcDbVisualStyle
  2
Basic
 70
     7
 71
     1
 72
     0
 73
     1
 90
        0
 40
-0.6
 41
-30.0
 62
     5
 63
     7
 74
     0
 91
        4
 64
     7
 65
   257
 75
     1
175
     1
 42
1.0
 92
        8
 66
     7
 43
1.0
 76
     1
 77
     6
 78
     2
 67
     7
 79
     5
170
     0
171
     0
290
     0
174
     0
 93
        1
 44
0.0
173
     0
291
     1
 45
0.0
1001
ACAD
1000
AcDbSavedByObjectVersion
1070
     0
  0
VISUALSTYLE
  5
2F5
102
{ACAD_XDICTIONARY
360
364
102
}
102
{ACAD_REACTORS
330
2B
102
}
330
2B
100
AcDbVisualStyle
  2
Brighten
 70
    12
 71
     2
 72
     2
 73
     0
 90
        0
 40
-0.6
 41
-30.0
 62
     5
 63
     7
 74
     1
 91
        4
 64
     7
 65
   257
 75
     1
175
     1
 42
1.0
 92
        8
 66
     7
 43
1.0
 76
     1
 77
     6
 78
     2
 67
     7
 79
     5
170
     0
171
     0
290
     0
174
     0
 93
        1
 44
50.0
173
     0
291
     1
 45
0.0
1001
ACAD
1000
AcDbSavedByObjectVersion
1070
     0
  0
VISUALSTYLE
  5
2F9
102
{ACAD_XDICTIONARY
360
36C
102
}
102
{ACAD_REACTORS
330
2B
102
}
330
2B
100
AcDbVisualStyle
  2
ColorChange
 70
    16
 71
     2
 72
     2
 73
     3
 90
        0
 40
-0.6
 41
-30.0
 62
     5
 63
     8
 74
     1
 91
        4
 64
     7
 65
   257
 75
     1
175
     1
 42
1.0
 92
        8
 66
     8
 43
1.0
 76
     1
 77
     6
 78
     2
 67
     7
 79
     5
170
     0
171
     0
290
     0
174
     0
 93
        1
 44
0.0
173
     0
291
     1
 45
0.0
1001
ACAD
1000
AcDbSavedByObjectVersion
1070
     0
  0
VISUALSTYLE
  5
2F3
102
{ACAD_XDICTIONARY
360
360
102
}
102
{ACAD_REACTORS
330
2B
102
}
330
2B
100
AcDbVisualStyle
  2
Conceptual
 70
     9
 71
     3
 72
     2
 73
     0
 90
        0
 40
-0.6
 41
-30.0
 62
     5
 63
     7
 74
     2
 91
        2
 64
     7
 65
   257
 75
     1
175
     1
 42
179.0
 92
        8
 66
     7
 43
1.0
 76
     1
 77
     6
 78
     2
 67
     7
 79
     3
170
     0
171
     0
290
     0
174
     0
 93
        1
 44
0.0
173
     0
291
     0
 45
0.0
1001
ACAD
1000
AcDbSavedByObjectVersion
1070
     0
  0
VISUALSTYLE
  5
2F4
102
{ACAD_XDICTIONARY
360
362
102
}
102
{ACAD_REACTORS
330
2B
102
}
330
2B
100
AcDbVisualStyle
  2
Dim
 70
    11
 71
     2
 72
     2
 73
     0
 90
        0
 40
-0.6
 41
-30.0
 62
     5
 63
     7
 74
     1
 91
        4
 64
     7
 65
   257
 75
     1
175
     1
 42
1.0
 92
        8
 66
     7
 43
1.0
 76
     1
 77
     6
 78
     2
 67
     7
 79
     5
170
     0
171
     0
290
     0
174
     0
 93
        1
 44
-50.0
173
     0
291
     1
 45
0.0
1001
ACAD
1000
AcDbSavedByObjectVersion
1070
     0
  0
VISUALSTYLE
  5
301
102
{ACAD_XDICTIONARY
360
37C
102
}
102
{ACAD_REACTORS
330
2B
102
}
330
2B
100
AcDbVisualStyle
  2
EdgeColorOff
 70
    22
 71
     2
 72
     2
 73
     0
 90
        0
 40
-0.6
 41
-30.0
 62
     5
 63
     7
 74
     1
 91
        4
 64
     7
 65
   257
 75
     1
175
     1
 42
1.0
 92
        8
 66
     7
 43
1.0
 76
     1
 77
     6
 78
     2
 67
     7
 79
     5
170
     0
171
     0
290
     0
174
     0
 93
        1
 44
0.0
173
     0
291
     1
 45
0.0
1001
ACAD
1000
AcDbSavedByObjectVersion
1070
     0
  0
VISUALSTYLE
  5
2F8
102
{ACAD_XDICTIONARY
360
36A
102
}
102
{ACAD_REACTORS
330
2B
102
}
330
2B
100
AcDbVisualStyle
  2
Facepattern
 70
    15
 71
     2
 72
     2
 73
     0
 90
        0
 40
-0.6
 41
-30.0
 62
     5
 63
     7
 74
     1
 91
        4
 64
     7
 65
   257
 75
     1
175
     1
 42
1.0
 92
        8
 66
     7
 43
1.0
 76
     1
 77
     6
 78
     2
 67
     7
 79
     5
170
     0
171
     0
290
     0
174
     0
 93
        1
 44
0.0
173
     0
291
     1
 45
0.0
1001
ACAD
1000
AcDbSavedByObjectVersion
1070
     0
  0
VISUALSTYLE
  5
2ED
102
{ACAD_XDICTIONARY
360
354
102
}
102
{ACAD_REACTORS
330
2B
102
}
330
2B
100
AcDbVisualStyle
  2
Flat
 70
     0
 71
     2
 72
     1
 73
     1
 90
        2
 40
-0.6
 41
30.0
 62
     5
 63
     7
 74
     0
 91
        0
 64
     7
 65
   257
 75
     1
175
     1
 42
1.0
 92
        8
 66
     7
 43
1.0
 76
     1
 77
     6
 78
     2
 67
     7
 79
     5
170
     0
171
     0
290
     0
174
     0
 93
       13
 44
0.0
173
     0
291
     1
 45
0.0
1001
ACAD
1000
AcDbSavedByObjectVersion
1070
     0
  0
VISUALSTYLE
  5
2EE
102
{ACAD_XDICTIONARY
360
356
102
}
102
{ACAD_REACTORS
330
2B
102
}
330
2B
100
AcDbVisualStyle
  2
FlatWithEdges
 70
     1
 71
     2
 72
     1
 73
     1
 90
        2
 40
-0.6
 41
30.0
 62
     5
 63
     7
 74
     1
 91
        0
 64
     7
 65
   257
 75
     1
175
     1
 42
1.0
 92
        0
 66
   257
 43
1.0
 76
     1
 77
     6
 78
     2
 67
     7
 79
     5
170
     0
171
     0
290
     0
174
     0
 93
       13
 44
0.0
173
     0
291
     1
 45
0.0
1001
ACAD
1000
AcDbSavedByObjectVersion
1070
     0
  0
VISUALSTYLE
  5
2EF
102
{ACAD_XDICTIONARY
360
358
102
}
102
{ACAD_REACTORS
330
2B
102
}
330
2B
100
AcDbVisualStyle
  2
Gouraud
 70
     2
 71
     2
 72
     2
 73
     1
 90
        2
 40
-0.6
 41
30.0
 62
     5
 63
     7
 74
     0
 91
        0
 64
     7
 65
   257
 75
     1
175
     1
 42
1.0
 92
        0
 66
     7
 43
1.0
 76
     1
 77
     6
 78
     2
 67
     7
 79
     5
170
     0
171
     0
290
     0
174
     0
 93
       13
 44
0.0
173
     0
291
     1
 45
0.0
1001
ACAD
1000
AcDbSavedByObjectVersion
1070
     0
  0
VISUALSTYLE
  5
2F0
102
{ACAD_XDICTIONARY
360
35A
102
}
102
{ACAD_REACTORS
330
2B
102
}
330
2B
100
AcDbVisualStyle
  2
GouraudWithEdges
 70
     3
 71
     2
 72
     2
 73
     1
 90
        2
 40
-0.6
 41
30.0
 62
     5
 63
     7
 74
     1
 91
        0
 64
     7
 65
   257
 75
     1
175
     1
 42
1.0
 92
        0
 66
   257
 43
1.0
 76
     1
 77
     6
 78
     2
 67
     7
 79
     5
170
     0
171
     0
290
     0
174
     0
 93
       13
 44
0.0
173
     0
291
     1
 45
0.0
1001
ACAD
1000
AcDbSavedByObjectVersion
1070
     0
  0
VISUALSTYLE
  5
2F2
102
{ACAD_XDICTIONARY
360
35E
102
}
102
{ACAD_REACTORS
330
2B
102
}
330
2B
100
AcDbVisualStyle
  2
Hidden
 70
     6
 71
     1
 72
     2
 73
     2
 90
        0
 40
-0.6
 41
-30.0
 62
     5
 63
     7
 74
     2
 91
        2
 64
     7
 65
   257
 75
     2
175
     1
 42
40.0
 92
        0
 66
   257
 43
1.0
 76
     1
 77
     6
 78
     2
 67
     7
 79
     3
170
     0
171
     0
290
     0
174
     0
 93
        1
 44
0.0
173
     0
291
     0
 45
0.0
1001
ACAD
1000
AcDbSavedByObjectVersion
1070
     0
  0
VISUALSTYLE
  5
2FF
102
{ACAD_XDICTIONARY
360
378
102
}
102
{ACAD_REACTORS
330
2B
102
}
330
2B
100
AcDbVisualStyle
  2
JitterOff
 70
    20
 71
     2
 72
     2
 73
     0
 90
        0
 40
-0.6
 41
-30.0
 62
     5
 63
     7
 74
     1
 91
        4
 64
     7
 65
   257
 75
     1
175
     1
 42
1.0
 92
       10
 66
     7
 43
1.0
 76
     1
 77
     6
 78
     2
 67
     7
 79
     5
170
     0
171
     0
290
     0
174
     0
 93
        1
 44
0.0
173
     0
291
     1
 45
0.0
1001
ACAD
1000
AcDbSavedByObjectVersion
1070
     0
  0
VISUALSTYLE
  5
2F7
102
{ACAD_XDICTIONARY
360
368
102
}
102
{ACAD_REACTORS
330
2B
102
}
330
2B
100
AcDbVisualStyle
  2
Linepattern
 70
    14
 71
     2
 72
     2
 73
     0
 90
        0
 40
-0.6
 41
-30.0
 62
     5
 63
     7
 74
     1
 91
        4
 64
     7
 65
   257
 75
     7
175
     7
 42
1.0
 92
        8
 66
     7
 43
1.0
 76
     1
 77
     6
 78
     2
 67
     7
 79
     5
170
     0
171
     0
290
     0
174
     0
 93
        1
 44
0.0
173
     0
291
     1
 45
0.0
1001
ACAD
1000
AcDbSavedByObjectVersion
1070
     0
  0
VISUALSTYLE
  5
300
102
{ACAD_XDICTIONARY
360
37A
102
}
102
{ACAD_REACTORS
330
2B
102
}
330
2B
100
AcDbVisualStyle
  2
OverhangOff
 70
    21
 71
     2
 72
     2
 73
     0
 90
        0
 40
-0.6
 41
-30.0
 62
     5
 63
     7
 74
     1
 91
        4
 64
     7
 65
   257
 75
     1
175
     1
 42
1.0
 92
        9
 66
     7
 43
1.0
 76
     1
 77
     6
 78
     2
 67
     7
 79
     5
170
     0
171
     0
290
     0
174
     0
 93
        1
 44
0.0
173
     0
291
     1
 45
0.0
1001
ACAD
1000
AcDbSavedByObjectVersion
1070
     0
  0
VISUALSTYLE
  5
4B
102
{ACAD_XDICTIONARY
360
34A
102
}
102
{ACAD_REACTORS
330
2B
102
}
330
2B
100
AcDbVisualStyle
  2
Realistic
 70
     8
 71
     2
 72
     2
 73
     0
 90
        0
 40
-0.6
 41
-30.0
 62
     5
 63
     7
 74
     1
 91
        0
 64
     7
 65
   257
 75
     1
175
     1
 42
1.0
 92
        8
 66
     8
 43
1.0
 76
     1
 77
     6
 78
     2
 67
     7
 79
     5
170
     0
171
     0
290
     0
174
     0
 93
       13
 44
0.0
173
     0
291
     0
 45
0.0
1001
ACAD
1000
AcDbSavedByObjectVersion
1070
     0
  0
VISUALSTYLE
  5
2FE
102
{ACAD_XDICTIONARY
360
376
102
}
102
{ACAD_REACTORS
330
2B
102
}
330
2B
100
AcDbVisualStyle
  2
Shaded
 70
    27
 71
     2
 72
     2
 73
     1
 90
        2
 40
-0.6
 41
30.0
 62
     5
 63
     7
 74
     0
 91
        4
 64
     7
 65
   257
 75
     1
175
     1
 42
1.0
 92
        8
 66
   257
 43
1.0
 76
     1
 77
     6
 78
     2
 67
     8
 79
     3
170
     0
171
     0
290
     0
174
     0
 93
        5
 44
0.0
173
     0
291
     0
 45
0.0
1001
ACAD
1000
AcDbSavedByObjectVersion
1070
     0
  0
VISUALSTYLE
  5
2FD
102
{ACAD_XDICTIONARY
360
374
102
}
102
{ACAD_REACTORS
330
2B
102
}
330
2B
100
AcDbVisualStyle
  2
Shaded with edges
 70
    26
 71
     2
 72
     2
 73
     1
 90
        2
 40
-0.6
 41
30.0
 62
     5
 63
     7
 74
     1
 91
       10
 64
     7
 65
   257
 75
     2
175
     1
 42
1.0
 92
        8
 66
   257
 43
1.0
 76
     1
 77
     6
 78
     2
 67
     7
 79
     3
170
     0
171
     0
290
     0
174
     0
 93
        5
 44
0.0
173
     0
291
     0
 45
0.0
1001
ACAD
1000
AcDbSavedByObjectVersion
1070
     0
  0
VISUALSTYLE
  5
2FA
102
{ACAD_XDICTIONARY
360
36E
102
}
102
{ACAD_REACTORS
330
2B
102
}
330
2B
100
AcDbVisualStyle
  2
Shades of Gray
 70
    23
 71
     2
 72
     2
 73
     3
 90
        0
 40
-0.6
 41
-30.0
 62
     5
 63
     7
 74
     2
 91
        2
 64
     7
 65
     7
 75
     1
175
     1
 42
40.0
 92
        8
 66
     7
 43
1.0
 76
     1
 77
     6
 78
     2
 67
     7
 79
     3
170
     0
171
     0
290
     0
174
     0
 93
        1
 44
0.0
173
     0
291
     0
 45
0.0
1001
ACAD
1000
AcDbSavedByObjectVersion
1070
     0
  0
VISUALSTYLE
  5
2FB
102
{ACAD_XDICTIONARY
360
370
102
}
102
{ACAD_REACTORS
330
2B
102
}
330
2B
100
AcDbVisualStyle
  2
Sketchy
 70
    24
 71
     1
 72
     2
 73
     2
 90
        0
 40
-0.6
 41
-30.0
 62
     5
 63
     7
 74
     2
 91
        2
 64
     7
 65
     7
 75
     1
175
     1
 42
40.0
 92
       11
 66
     7
 43
1.0
 76
     1
 77
     6
 78
     2
 67
     7
 79
     6
170
     0
171
     0
290
     0
174
     0
 93
        1
 44
0.0
173
     0
291
     0
 45
0.0
1001
ACAD
1000
AcDbSavedByObjectVersion
1070
     0
  0
VISUALSTYLE
  5
2F6
102
{ACAD_XDICTIONARY
360
366
102
}
102
{ACAD_REACTORS
330
2B
102
}
330
2B
100
AcDbVisualStyle
  2
Thicken
 70
    13
 71
     2
 72
     2
 73
     0
 90
        0
 40
-0.6
 41
-30.0
 62
     5
 63
     7
 74
     1
 91
        4
 64
     7
 65
   257
 75
     1
175
     1
 42
1.0
 92
       12
 66
     7
 43
1.0
 76
     1
 77
     6
 78
     2
 67
     7
 79
     5
170
     0
171
     0
290
     0
174
     0
 93
        1
 44
0.0
173
     0
291
     1
 45
0.0
1001
ACAD
1000
AcDbSavedByObjectVersion
1070
     0
  0
VISUALSTYLE
  5
4C
102
{ACAD_XDICTIONARY
360
34C
102
}
102
{ACAD_REACTORS
330
2B
102
}
330
2B
100
AcDbVisualStyle
  2
Wireframe
 70
     5
 71
     0
 72
     2
 73
     0
 90
        0
 40
-0.6
 41
-30.0
 62
     5
 63
     7
 74
     1
 91
        4
 64
     7
 65
   257
 75
     1
175
     1
 42
1.0
 92
        0
 66
   257
 43
1.0
 76
     1
 77
     6
 78
     2
 67
     7
 79
     3
170
     0
171
     0
290
     0
174
     0
 93
        1
 44
0.0
173
     0
291
     0
 45
0.0
1001
ACAD
1000
AcDbSavedByObjectVersion
1070
     0
  0
VISUALSTYLE
  5
2FC
102
{ACAD_XDICTIONARY
360
372
102
}
102
{ACAD_REACTORS
330
2B
102
}
330
2B
100
AcDbVisualStyle
  2
X-Ray
 70
    25
 71
     2
 72
     2
 73
     1
 90
        1
 40
0.5
 41
-30.0
 62
     5
 63
     7
 74
     1
 91
        0
 64
     7
 65
   257
 75
     1
175
     1
 42
1.0
 92
        8
 66
     7
 43
1.0
 76
     1
 77
     6
 78
     2
 67
     7
 79
     3
170
     0
171
     0
290
     0
174
     0
 93
       13
 44
0.0
173
     0
291
     0
 45
0.0
1001
ACAD
1000
AcDbSavedByObjectVersion
1070
     0
  0
DICTIONARYVAR
  5
2E8
102
{ACAD_REACTORS
330
2E4
102
}
330
2E4
100
DictionaryVariables
280
     0
  1
1:1
  0
DICTIONARYVAR
  5
2E6
102
{ACAD_REACTORS
330
2E4
102
}
330
2E4
100
DictionaryVariables
280
     0
  1
STANDARD
  0
DICTIONARYVAR
  5
2E5
102
{ACAD_REACTORS
330
2E4
102
}
330
2E4
100
DictionaryVariables
280
     0
  1
STANDARD
  0
DICTIONARYVAR
  5
337
102
{ACAD_REACTORS
330
2E4
102
}
330
2E4
100
DictionaryVariables
280
     0
  1
1
  0
DICTIONARYVAR
  5
336
102
{ACAD_REACTORS
330
2E4
102
}
330
2E4
100
DictionaryVariables
280
     0
  1
1
  0
DICTIONARYVAR
  5
335
102
{ACAD_REACTORS
330
2E4
102
}
330
2E4
100
DictionaryVariables
280
     0
  1
0
  0
DICTIONARYVAR
  5
2EA
102
{ACAD_REACTORS
330
2E4
102
}
330
2E4
100
DictionaryVariables
280
     0
  1
1
  0
DICTIONARYVAR
  5
2EB
102
{ACAD_REACTORS
330
2E4
102
}
330
2E4
100
DictionaryVariables
280
     0
  1
15
  0
DICTIONARYVAR
  5
2E9
102
{ACAD_REACTORS
330
2E4
102
}
330
2E4
100
DictionaryVariables
280
     0
  1
0
  0
DICTIONARYVAR
  5
2E7
102
{ACAD_REACTORS
330
2E4
102
}
330
2E4
100
DictionaryVariables
280
     0
  1
0
  0
DICTIONARYVAR
  5
334
102
{ACAD_REACTORS
330
2E4
102
}
330
2E4
100
DictionaryVariables
280
     0
  1
127
  0
DICTIONARYVAR
  5
338
102
{ACAD_REACTORS
330
2E4
102
}
330
2E4
100
DictionaryVariables
280
     0
  1
2
  0
DICTIONARY
  5
298
102
{ACAD_REACTORS
330
297
102
}
330
297
100
AcDbDictionary
281
     1
  0
DICTIONARY
  5
292
102
{ACAD_REACTORS
330
288
102
}
330
288
100
AcDbDictionary
281
     1
  3
DWGSETTINGS
350
291
  3
TRANSSETTINGS
350
293
  0
DICTIONARY
  5
343
330
1A
100
AcDbDictionary
280
     1
281
     1
  3
ACAD_XREC_ROUNDTRIP
360
344
  0
DICTIONARY
  5
341
330
15
100
AcDbDictionary
280
     1
281
     1
  3
ACAD_XREC_ROUNDTRIP
360
342
  0
DICTIONARY
  5
3D
330
3C
100
AcDbDictionary
280
     1
281
     1
  3
ACAD_XREC_ROUNDTRIP
360
348
  3
BUMPTILE
360
3E
  3
DIFFUSETILE
360
3F
  3
OPACITYTILE
360
40
  3
REFLECTIONTILE
360
41
  3
REFRACTIONTILE
360
42
  3
SPECULARTILE
360
43
  0
DICTIONARY
  5
35
330
34
100
AcDbDictionary
280
     1
281
     1
  3
ACAD_XREC_ROUNDTRIP
360
347
  3
BUMPTILE
360
36
  3
DIFFUSETILE
360
37
  3
OPACITYTILE
360
38
  3
REFLECTIONTILE
360
39
  3
REFRACTIONTILE
360
3A
  3
SPECULARTILE
360
3B
  0
DICTIONARY
  5
C
330
A
100
AcDbDictionary
280
     1
281
     1
  3
ACAD_XREC_ROUNDTRIP
360
340
  3
BUMPTILE
360
D
  3
DIFFUSETILE
360
E
  3
OPACITYTILE
360
F
  3
REFLECTIONTILE
360
10
  3
REFRACTIONTILE
360
11
  3
SPECULARTILE
360
12
  0
DICTIONARY
  5
4A
330
49
100
AcDbDictionary
280
     1
281
     1
  3
ACAD_ROUNDTRIP_2008_TABLESTYLE_CELLSTYLEMAP
360
339
  3
ACAD_XREC_ROUNDTRIP
360
349
  0
DICTIONARY
  5
345
330
2A
100
AcDbDictionary
280
     1
281
     1
  3
ACAD_XREC_ROUNDTRIP
360
346
  0
DICTIONARY
  5
35C
330
2F1
100
AcDbDictionary
280
     1
281
     1
  3
ACAD_XREC_ROUNDTRIP
360
35D
  0
DICTIONARY
  5
364
330
2F5
100
AcDbDictionary
280
     1
281
     1
  3
ACAD_XREC_ROUNDTRIP
360
365
  0
DICTIONARY
  5
36C
330
2F9
100
AcDbDictionary
280
     1
281
     1
  3
ACAD_XREC_ROUNDTRIP
360
36D
  0
DICTIONARY
  5
360
330
2F3
100
AcDbDictionary
280
     1
281
     1
  3
ACAD_XREC_ROUNDTRIP
360
361
  0
DICTIONARY
  5
362
330
2F4
100
AcDbDictionary
280
     1
281
     1
  3
ACAD_XREC_ROUNDTRIP
360
363
  0
DICTIONARY
  5
37C
330
301
100
AcDbDictionary
280
     1
281
     1
  3
ACAD_XREC_ROUNDTRIP
360
37D
  0
DICTIONARY
  5
36A
330
2F8
100
AcDbDictionary
280
     1
281
     1
  3
ACAD_XREC_ROUNDTRIP
360
36B
  0
DICTIONARY
  5
354
330
2ED
100
AcDbDictionary
280
     1
281
     1
  3
ACAD_XREC_ROUNDTRIP
360
355
  0
DICTIONARY
  5
356
330
2EE
100
AcDbDictionary
280
     1
281
     1
  3
ACAD_XREC_ROUNDTRIP
360
357
  0
DICTIONARY
  5
358
330
2EF
100
AcDbDictionary
280
     1
281
     1
  3
ACAD_XREC_ROUNDTRIP
360
359
  0
DICTIONARY
  5
35A
330
2F0
100
AcDbDictionary
280
     1
281
     1
  3
ACAD_XREC_ROUNDTRIP
360
35B
  0
DICTIONARY
  5
35E
330
2F2
100
AcDbDictionary
280
     1
281
     1
  3
ACAD_XREC_ROUNDTRIP
360
35F
  0
DICTIONARY
  5
378
330
2FF
100
AcDbDictionary
280
     1
281
     1
  3
ACAD_XREC_ROUNDTRIP
360
379
  0
DICTIONARY
  5
368
330
2F7
100
AcDbDictionary
280
     1
281
     1
  3
ACAD_XREC_ROUNDTRIP
360
369
  0
DICTIONARY
  5
37A
330
300
100
AcDbDictionary
280
     1
281
     1
  3
ACAD_XREC_ROUNDTRIP
360
37B
  0
DICTIONARY
  5
34A
330
4B
100
AcDbDictionary
280
     1
281
     1
  3
ACAD_XREC_ROUNDTRIP
360
34B
  0
DICTIONARY
  5
376
330
2FE
100
AcDbDictionary
280
     1
281
     1
  3
ACAD_XREC_ROUNDTRIP
360
377
  0
DICTIONARY
  5
374
330
2FD
100
AcDbDictionary
280
     1
281
     1
  3
ACAD_XREC_ROUNDTRIP
360
375
  0
DICTIONARY
  5
36E
330
2FA
100
AcDbDictionary
280
     1
281
     1
  3
ACAD_XREC_ROUNDTRIP
360
36F
  0
DICTIONARY
  5
370
330
2FB
100
AcDbDictionary
280
     1
281
     1
  3
ACAD_XREC_ROUNDTRIP
360
371
  0
DICTIONARY
  5
366
330
2F6
100
AcDbDictionary
280
     1
281
     1
  3
ACAD_XREC_ROUNDTRIP
360
367
  0
DICTIONARY
  5
34C
330
4C
100
AcDbDictionary
280
     1
281
     1
  3
ACAD_XREC_ROUNDTRIP
360
34D
  0
DICTIONARY
  5
372
330
2FC
100
AcDbDictionary
280
     1
281
     1
  3
ACAD_XREC_ROUNDTRIP
360
373
  0
XRECORD
  5
344
102
{ACAD_REACTORS
330
343
102
}
330
343
100
AcDbXrecord
280
     1
102
SHADEPLOT
 70
     0
102
SHADEPLOTRESLEVEL
 70
     2
102
SHADEPLOTCUSTOMDPI
 70
   300
  0
XRECORD
  5
342
102
{ACAD_REACTORS
330
341
102
}
330
341
100
AcDbXrecord
280
     1
102
SHADEPLOT
 70
     0
102
SHADEPLOTRESLEVEL
 70
     2
102
SHADEPLOTCUSTOMDPI
 70
   300
  0
XRECORD
  5
348
102
{ACAD_REACTORS
330
3D
102
}
330
3D
100
AcDbXrecord
280
     1
102
MATERIAL
148
0.0
149
0.0
149
0.0
 93
        0
 94
      127
282
     0
 72
     0
 77
     0
171
     0
175
     0
179
     0
273
     0
  0
XRECORD
  5
3E
102
{ACAD_REACTORS
330
3D
102
}
330
3D
100
AcDbXrecord
280
     1
270
     1
271
     1
  0
XRECORD
  5
3F
102
{ACAD_REACTORS
330
3D
102
}
330
3D
100
AcDbXrecord
280
     1
270
     1
271
     1
  0
XRECORD
  5
40
102
{ACAD_REACTORS
330
3D
102
}
330
3D
100
AcDbXrecord
280
     1
270
     1
271
     1
  0
XRECORD
  5
41
102
{ACAD_REACTORS
330
3D
102
}
330
3D
100
AcDbXrecord
280
     1
270
     1
271
     1
  0
XRECORD
  5
42
102
{ACAD_REACTORS
330
3D
102
}
330
3D
100
AcDbXrecord
280
     1
270
     1
271
     1
  0
XRECORD
  5
43
102
{ACAD_REACTORS
330
3D
102
}
330
3D
100
AcDbXrecord
280
     1
270
     1
271
     1
  0
XRECORD
  5
347
102
{ACAD_REACTORS
330
35
102
}
330
35
100
AcDbXrecord
280
     1
102
MATERIAL
148
0.0
149
0.0
149
0.0
 93
        0
 94
      127
282
     0
 72
     0
 77
     0
171
     0
175
     0
179
     0
273
     0
  0
XRECORD
  5
36
102
{ACAD_REACTORS
330
35
102
}
330
35
100
AcDbXrecord
280
     1
270
     1
271
     1
  0
XRECORD
  5
37
102
{ACAD_REACTORS
330
35
102
}
330
35
100
AcDbXrecord
280
     1
270
     1
271
     1
  0
XRECORD
  5
38
102
{ACAD_REACTORS
330
35
102
}
330
35
100
AcDbXrecord
280
     1
270
     1
271
     1
  0
XRECORD
  5
39
102
{ACAD_REACTORS
330
35
102
}
330
35
100
AcDbXrecord
280
     1
270
     1
271
     1
  0
XRECORD
  5
3A
102
{ACAD_REACTORS
330
35
102
}
330
35
100
AcDbXrecord
280
     1
270
     1
271
     1
  0
XRECORD
  5
3B
102
{ACAD_REACTORS
330
35
102
}
330
35
100
AcDbXrecord
280
     1
270
     1
271
     1
  0
XRECORD
  5
340
102
{ACAD_REACTORS
330
C
102
}
330
C
100
AcDbXrecord
280
     1
102
MATERIAL
148
0.0
149
0.0
149
0.0
 93
        0
 94
      127
282
     0
 72
     0
 77
     0
171
     0
175
     0
179
     0
273
     0
  0
XRECORD
  5
D
102
{ACAD_REACTORS
330
C
102
}
330
C
100
AcDbXrecord
280
     1
270
     1
271
     1
  0
XRECORD
  5
E
102
{ACAD_REACTORS
330
C
102
}
330
C
100
AcDbXrecord
280
     1
270
     1
271
     1
  0
XRECORD
  5
F
102
{ACAD_REACTORS
330
C
102
}
330
C
100
AcDbXrecord
280
     1
270
     1
271
     1
  0
XRECORD
  5
10
102
{ACAD_REACTORS
330
C
102
}
330
C
100
AcDbXrecord
280
     1
270
     1
271
     1
  0
XRECORD
  5
11
102
{ACAD_REACTORS
330
C
102
}
330
C
100
AcDbXrecord
280
     1
270
     1
271
     1
  0
XRECORD
  5
12
102
{ACAD_REACTORS
330
C
102
}
330
C
100
AcDbXrecord
280
     1
270
     1
271
     1
  0
CELLSTYLEMAP
  5
339
102
{ACAD_REACTORS
330
4A
102
}
330
4A
100
AcDbCellStyleMap
 90
        3
300
CELLSTYLE
  1
TABLEFORMAT_BEGIN
 90
        5
170
     1
 91
        0
 92
    32768
 62
   257
 93
        1
300
CONTENTFORMAT
  1
CONTENTFORMAT_BEGIN
 90
        0
 91
        0
 92
      512
 93
        0
300

 40
0.0
140
1.0
 94
        5
 62
     0
340
21
144
0.25
309
CONTENTFORMAT_END
171
     0
 94
        0
309
TABLEFORMAT_END
  1
CELLSTYLE_BEGIN
 90
        1
 91
        1
300
_TITLE
309
CELLSTYLE_END
300
CELLSTYLE
  1
TABLEFORMAT_BEGIN
 90
        5
170
     1
 91
        0
 92
        0
 62
   257
 93
        1
300
CONTENTFORMAT
  1
CONTENTFORMAT_BEGIN
 90
        0
 91
        0
 92
      512
 93
        0
300

 40
0.0
140
1.0
 94
        5
 62
     0
340
21
144
0.18
309
CONTENTFORMAT_END
171
     0
 94
        0
309
TABLEFORMAT_END
  1
CELLSTYLE_BEGIN
 90
        2
 91
        1
300
_HEADER
309
CELLSTYLE_END
300
CELLSTYLE
  1
TABLEFORMAT_BEGIN
 90
        5
170
     1
 91
        0
 92
        0
 62
   257
 93
        1
300
CONTENTFORMAT
  1
CONTENTFORMAT_BEGIN
 90
        0
 91
        0
 92
      512
 93
        0
300

 40
0.0
140
1.0
 94
        2
 62
     0
340
21
144
0.18
309
CONTENTFORMAT_END
171
     0
 94
        0
309
TABLEFORMAT_END
  1
CELLSTYLE_BEGIN
 90
        3
 91
        2
300
_DATA
309
CELLSTYLE_END
  0
XRECORD
  5
349
102
{ACAD_REACTORS
330
4A
102
}
330
4A
100
AcDbXrecord
280
     1
102
ACAD_ROUNDTRIP_PRE2007_TABLESTYLE
 90
      512
 91
        0
  1

 92
      512
 93
        0
  2

 94
      512
 95
        0
  3

  0
XRECORD
  5
346
102
{ACAD_REACTORS
330
345
102
}
330
345
100
AcDbXrecord
280
     1
102
RTVSPropertyOp0
 70
     1
102
RTVSPropertyOp1
 70
     1
102
RTVSPropertyOp2
 70
     1
102
RTVSPropertyOp3
 70
     1
102
RTVSPropertyOp4
 70
     1
102
RTVSPropertyOp5
 70
     1
102
RTVSPropertyOp6
 70
     1
102
RTVSPropertyOp7
 70
     1
102
RTVSPropertyOp8
 70
     1
102
RTVSPropertyOp9
 70
     1
102
RTVSPropertyOp10
 70
     1
102
RTVSPropertyOp11
 70
     1
102
RTVSPropertyOp12
 70
     1
102
RTVSPropertyOp13
 70
     1
102
RTVSPropertyOp14
 70
     1
102
RTVSPropertyOp15
 70
     1
102
RTVSPropertyOp16
 70
     1
102
RTVSPropertyOp17
 70
     1
102
RTVSPropertyOp18
 70
     1
102
RTVSPropertyOp19
 70
     1
102
RTVSPropertyOp20
 70
     1
102
RTVSPropertyOp21
 70
     1
102
RTVSPropertyOp22
 70
     1
102
RTVSPropertyOp23
 70
     1
102
RTVSPropertyOp24
 70
     1
102
RTVSPropertyOp25
 70
     1
102
RTVSPropertyOp26
 70
     1
102
RTVSPropertyOp27
 70
     1
102
RTVSPropertyOp28
 70
     1
102
RTVSPropertyOp29
 70
     1
102
RTVSPropertyOp30
 70
     1
102
RTVSPropertyOp31
 70
     1
102
RTVSPropertyOp32
 70
     1
  0
XRECORD
  5
35D
102
{ACAD_REACTORS
330
35C
102
}
330
35C
100
AcDbXrecord
280
     1
102
RTVSPropertyOp0
 70
     1
102
RTVSPropertyOp1
 70
     1
102
RTVSPropertyOp2
 70
     1
102
RTVSPropertyOp3
 70
     1
102
RTVSPropertyOp4
 70
     1
102
RTVSPropertyOp5
 70
     1
102
RTVSPropertyOp6
 70
     1
102
RTVSPropertyOp7
 70
     1
102
RTVSPropertyOp8
 70
     1
102
RTVSPropertyOp9
 70
     1
102
RTVSPropertyOp10
 70
     1
102
RTVSPropertyOp11
 70
     1
102
RTVSPropertyOp12
 70
     1
102
RTVSPropertyOp13
 70
     1
102
RTVSPropertyOp14
 70
     1
102
RTVSPropertyOp15
 70
     1
102
RTVSPropertyOp16
 70
     1
102
RTVSPropertyOp17
 70
     1
102
RTVSPropertyOp18
 70
     1
102
RTVSPropertyOp19
 70
     1
102
RTVSPropertyOp20
 70
     1
102
RTVSPropertyOp21
 70
     1
102
RTVSPropertyOp22
 70
     1
102
RTVSPropertyOp23
 70
     1
102
RTVSPropertyOp24
 70
     1
102
RTVSPropertyOp25
 70
     1
102
RTVSPropertyOp26
 70
     1
102
RTVSPropertyOp27
 70
     1
102
RTVSPropertyOp28
 70
     1
102
RTVSPropertyOp29
 70
     1
102
RTVSPropertyOp30
 70
     1
102
RTVSPropertyOp31
 70
     1
102
RTVSPropertyOp32
 70
     1
  0
XRECORD
  5
365
102
{ACAD_REACTORS
330
364
102
}
330
364
100
AcDbXrecord
280
     1
102
RTVSPropertyOp0
 70
     1
102
RTVSPropertyOp1
 70
     1
102
RTVSPropertyOp2
 70
     1
102
RTVSPropertyOp3
 70
     1
102
RTVSPropertyOp4
 70
     1
102
RTVSPropertyOp5
 70
     1
102
RTVSPropertyOp6
 70
     1
102
RTVSPropertyOp7
 70
     1
102
RTVSPropertyOp8
 70
     1
102
RTVSPropertyOp9
 70
     1
102
RTVSPropertyOp10
 70
     1
102
RTVSPropertyOp11
 70
     1
102
RTVSPropertyOp12
 70
     1
102
RTVSPropertyOp13
 70
     1
102
RTVSPropertyOp14
 70
     1
102
RTVSPropertyOp15
 70
     1
102
RTVSPropertyOp16
 70
     1
102
RTVSPropertyOp17
 70
     1
102
RTVSPropertyOp18
 70
     1
102
RTVSPropertyOp19
 70
     1
102
RTVSPropertyOp20
 70
     1
102
RTVSPropertyOp21
 70
     1
102
RTVSPropertyOp22
 70
     1
102
RTVSPropertyOp23
 70
     1
102
RTVSPropertyOp24
 70
     1
102
RTVSPropertyOp25
 70
     1
102
RTVSPropertyOp26
 70
     1
102
RTVSPropertyOp27
 70
     1
102
RTVSPropertyOp28
 70
     1
102
RTVSPropertyOp29
 70
     1
102
RTVSPropertyOp30
 70
     1
102
RTVSPropertyOp31
 70
     1
102
RTVSPropertyOp32
 70
     1
  0
XRECORD
  5
36D
102
{ACAD_REACTORS
330
36C
102
}
330
36C
100
AcDbXrecord
280
     1
102
RTVSPropertyOp0
 70
     1
102
RTVSPropertyOp1
 70
     1
102
RTVSPropertyOp2
 70
     1
102
RTVSPropertyOp3
 70
     1
102
RTVSPropertyOp4
 70
     1
102
RTVSPropertyOp5
 70
     1
102
RTVSPropertyOp6
 70
     1
102
RTVSPropertyOp7
 70
     1
102
RTVSPropertyOp8
 70
     1
102
RTVSPropertyOp9
 70
     1
102
RTVSPropertyOp10
 70
     1
102
RTVSPropertyOp11
 70
     1
102
RTVSPropertyOp12
 70
     1
102
RTVSPropertyOp13
 70
     1
102
RTVSPropertyOp14
 70
     1
102
RTVSPropertyOp15
 70
     1
102
RTVSPropertyOp16
 70
     1
102
RTVSPropertyOp17
 70
     1
102
RTVSPropertyOp18
 70
     1
102
RTVSPropertyOp19
 70
     1
102
RTVSPropertyOp20
 70
     1
102
RTVSPropertyOp21
 70
     1
102
RTVSPropertyOp22
 70
     1
102
RTVSPropertyOp23
 70
     1
102
RTVSPropertyOp24
 70
     1
102
RTVSPropertyOp25
 70
     1
102
RTVSPropertyOp26
 70
     1
102
RTVSPropertyOp27
 70
     1
102
RTVSPropertyOp28
 70
     1
102
RTVSPropertyOp29
 70
     1
102
RTVSPropertyOp30
 70
     1
102
RTVSPropertyOp31
 70
     1
102
RTVSPropertyOp32
 70
     1
  0
XRECORD
  5
361
102
{ACAD_REACTORS
330
360
102
}
330
360
100
AcDbXrecord
280
     1
102
RTVSPropertyOp0
 70
     1
102
RTVSPropertyOp1
 70
     1
102
RTVSPropertyOp2
 70
     1
102
RTVSPropertyOp3
 70
     1
102
RTVSPropertyOp4
 70
     1
102
RTVSPropertyOp5
 70
     1
102
RTVSPropertyOp6
 70
     1
102
RTVSPropertyOp7
 70
     1
102
RTVSPropertyOp8
 70
     1
102
RTVSPropertyOp9
 70
     1
102
RTVSPropertyOp10
 70
     1
102
RTVSPropertyOp11
 70
     1
102
RTVSPropertyOp12
 70
     1
102
RTVSPropertyOp13
 70
     1
102
RTVSPropertyOp14
 70
     1
102
RTVSPropertyOp15
 70
     1
102
RTVSPropertyOp16
 70
     1
102
RTVSPropertyOp17
 70
     1
102
RTVSPropertyOp18
 70
     1
102
RTVSPropertyOp19
 70
     1
102
RTVSPropertyOp20
 70
     1
102
RTVSPropertyOp21
 70
     1
102
RTVSPropertyOp22
 70
     1
102
RTVSPropertyOp23
 70
     1
102
RTVSPropertyOp24
 70
     1
102
RTVSPropertyOp25
 70
     1
102
RTVSPropertyOp26
 70
     1
102
RTVSPropertyOp27
 70
     1
102
RTVSPropertyOp28
 70
     1
102
RTVSPropertyOp29
 70
     1
102
RTVSPropertyOp30
 70
     1
102
RTVSPropertyOp31
 70
     1
102
RTVSPropertyOp32
 70
     1
  0
XRECORD
  5
363
102
{ACAD_REACTORS
330
362
102
}
330
362
100
AcDbXrecord
280
     1
102
RTVSPropertyOp0
 70
     1
102
RTVSPropertyOp1
 70
     1
102
RTVSPropertyOp2
 70
     1
102
RTVSPropertyOp3
 70
     1
102
RTVSPropertyOp4
 70
     1
102
RTVSPropertyOp5
 70
     1
102
RTVSPropertyOp6
 70
     1
102
RTVSPropertyOp7
 70
     1
102
RTVSPropertyOp8
 70
     1
102
RTVSPropertyOp9
 70
     1
102
RTVSPropertyOp10
 70
     1
102
RTVSPropertyOp11
 70
     1
102
RTVSPropertyOp12
 70
     1
102
RTVSPropertyOp13
 70
     1
102
RTVSPropertyOp14
 70
     1
102
RTVSPropertyOp15
 70
     1
102
RTVSPropertyOp16
 70
     1
102
RTVSPropertyOp17
 70
     1
102
RTVSPropertyOp18
 70
     1
102
RTVSPropertyOp19
 70
     1
102
RTVSPropertyOp20
 70
     1
102
RTVSPropertyOp21
 70
     1
102
RTVSPropertyOp22
 70
     1
102
RTVSPropertyOp23
 70
     1
102
RTVSPropertyOp24
 70
     1
102
RTVSPropertyOp25
 70
     1
102
RTVSPropertyOp26
 70
     1
102
RTVSPropertyOp27
 70
     1
102
RTVSPropertyOp28
 70
     1
102
RTVSPropertyOp29
 70
     1
102
RTVSPropertyOp30
 70
     1
102
RTVSPropertyOp31
 70
     1
102
RTVSPropertyOp32
 70
     1
  0
XRECORD
  5
37D
102
{ACAD_REACTORS
330
37C
102
}
330
37C
100
AcDbXrecord
280
     1
102
RTVSPropertyOp0
 70
     0
102
RTVSPropertyOp1
 70
     0
102
RTVSPropertyOp2
 70
     0
102
RTVSPropertyOp3
 70
     0
102
RTVSPropertyOp4
 70
     0
102
RTVSPropertyOp5
 70
     0
102
RTVSPropertyOp6
 70
     0
102
RTVSPropertyOp7
 70
     0
102
RTVSPropertyOp8
 70
     0
102
RTVSPropertyOp9
 70
     0
102
RTVSPropertyOp10
 70
     0
102
RTVSPropertyOp11
 70
     0
102
RTVSPropertyOp12
 70
     0
102
RTVSPropertyOp13
 70
     0
102
RTVSPropertyOp14
 70
     2
102
RTVSPropertyOp15
 70
     0
102
RTVSPropertyOp16
 70
     0
102
RTVSPropertyOp17
 70
     0
102
RTVSPropertyOp18
 70
     0
102
RTVSPropertyOp19
 70
     0
102
RTVSPropertyOp20
 70
     0
102
RTVSPropertyOp21
 70
     0
102
RTVSPropertyOp22
 70
     0
102
RTVSPropertyOp23
 70
     0
102
RTVSPropertyOp24
 70
     0
102
RTVSPropertyOp25
 70
     0
102
RTVSPropertyOp26
 70
     0
102
RTVSPropertyOp27
 70
     0
102
RTVSPropertyOp28
 70
     0
102
RTVSPropertyOp29
 70
     0
102
RTVSPropertyOp30
 70
     0
102
RTVSPropertyOp31
 70
     0
102
RTVSPropertyOp32
 70
     0
  0
XRECORD
  5
36B
102
{ACAD_REACTORS
330
36A
102
}
330
36A
100
AcDbXrecord
280
     1
102
RTVSPropertyOp0
 70
     1
102
RTVSPropertyOp1
 70
     1
102
RTVSPropertyOp2
 70
     1
102
RTVSPropertyOp3
 70
     1
102
RTVSPropertyOp4
 70
     1
102
RTVSPropertyOp5
 70
     1
102
RTVSPropertyOp6
 70
     1
102
RTVSPropertyOp7
 70
     1
102
RTVSPropertyOp8
 70
     1
102
RTVSPropertyOp9
 70
     1
102
RTVSPropertyOp10
 70
     1
102
RTVSPropertyOp11
 70
     1
102
RTVSPropertyOp12
 70
     1
102
RTVSPropertyOp13
 70
     1
102
RTVSPropertyOp14
 70
     1
102
RTVSPropertyOp15
 70
     1
102
RTVSPropertyOp16
 70
     1
102
RTVSPropertyOp17
 70
     1
102
RTVSPropertyOp18
 70
     1
102
RTVSPropertyOp19
 70
     1
102
RTVSPropertyOp20
 70
     1
102
RTVSPropertyOp21
 70
     1
102
RTVSPropertyOp22
 70
     1
102
RTVSPropertyOp23
 70
     1
102
RTVSPropertyOp24
 70
     1
102
RTVSPropertyOp25
 70
     1
102
RTVSPropertyOp26
 70
     1
102
RTVSPropertyOp27
 70
     1
102
RTVSPropertyOp28
 70
     1
102
RTVSPropertyOp29
 70
     1
102
RTVSPropertyOp30
 70
     1
102
RTVSPropertyOp31
 70
     1
102
RTVSPropertyOp32
 70
     1
  0
XRECORD
  5
355
102
{ACAD_REACTORS
330
354
102
}
330
354
100
AcDbXrecord
280
     1
102
RTVSPropertyOp0
 70
     1
102
RTVSPropertyOp1
 70
     1
102
RTVSPropertyOp2
 70
     1
102
RTVSPropertyOp3
 70
     1
102
RTVSPropertyOp4
 70
     1
102
RTVSPropertyOp5
 70
     1
102
RTVSPropertyOp6
 70
     1
102
RTVSPropertyOp7
 70
     1
102
RTVSPropertyOp8
 70
     1
102
RTVSPropertyOp9
 70
     1
102
RTVSPropertyOp10
 70
     1
102
RTVSPropertyOp11
 70
     1
102
RTVSPropertyOp12
 70
     1
102
RTVSPropertyOp13
 70
     1
102
RTVSPropertyOp14
 70
     1
102
RTVSPropertyOp15
 70
     1
102
RTVSPropertyOp16
 70
     1
102
RTVSPropertyOp17
 70
     1
102
RTVSPropertyOp18
 70
     1
102
RTVSPropertyOp19
 70
     1
102
RTVSPropertyOp20
 70
     1
102
RTVSPropertyOp21
 70
     1
102
RTVSPropertyOp22
 70
     1
102
RTVSPropertyOp23
 70
     1
102
RTVSPropertyOp24
 70
     1
102
RTVSPropertyOp25
 70
     1
102
RTVSPropertyOp26
 70
     1
102
RTVSPropertyOp27
 70
     1
102
RTVSPropertyOp28
 70
     1
102
RTVSPropertyOp29
 70
     1
102
RTVSPropertyOp30
 70
     1
102
RTVSPropertyOp31
 70
     1
102
RTVSPropertyOp32
 70
     1
  0
XRECORD
  5
357
102
{ACAD_REACTORS
330
356
102
}
330
356
100
AcDbXrecord
280
     1
102
RTVSPropertyOp0
 70
     1
102
RTVSPropertyOp1
 70
     1
102
RTVSPropertyOp2
 70
     1
102
RTVSPropertyOp3
 70
     1
102
RTVSPropertyOp4
 70
     1
102
RTVSPropertyOp5
 70
     1
102
RTVSPropertyOp6
 70
     1
102
RTVSPropertyOp7
 70
     1
102
RTVSPropertyOp8
 70
     1
102
RTVSPropertyOp9
 70
     1
102
RTVSPropertyOp10
 70
     1
102
RTVSPropertyOp11
 70
     1
102
RTVSPropertyOp12
 70
     1
102
RTVSPropertyOp13
 70
     1
102
RTVSPropertyOp14
 70
     1
102
RTVSPropertyOp15
 70
     1
102
RTVSPropertyOp16
 70
     1
102
RTVSPropertyOp17
 70
     1
102
RTVSPropertyOp18
 70
     1
102
RTVSPropertyOp19
 70
     1
102
RTVSPropertyOp20
 70
     1
102
RTVSPropertyOp21
 70
     1
102
RTVSPropertyOp22
 70
     1
102
RTVSPropertyOp23
 70
     1
102
RTVSPropertyOp24
 70
     1
102
RTVSPropertyOp25
 70
     1
102
RTVSPropertyOp26
 70
     1
102
RTVSPropertyOp27
 70
     1
102
RTVSPropertyOp28
 70
     1
102
RTVSPropertyOp29
 70
     1
102
RTVSPropertyOp30
 70
     1
102
RTVSPropertyOp31
 70
     1
102
RTVSPropertyOp32
 70
     1
  0
XRECORD
  5
359
102
{ACAD_REACTORS
330
358
102
}
330
358
100
AcDbXrecord
280
     1
102
RTVSPropertyOp0
 70
     1
102
RTVSPropertyOp1
 70
     1
102
RTVSPropertyOp2
 70
     1
102
RTVSPropertyOp3
 70
     1
102
RTVSPropertyOp4
 70
     1
102
RTVSPropertyOp5
 70
     1
102
RTVSPropertyOp6
 70
     1
102
RTVSPropertyOp7
 70
     1
102
RTVSPropertyOp8
 70
     1
102
RTVSPropertyOp9
 70
     1
102
RTVSPropertyOp10
 70
     1
102
RTVSPropertyOp11
 70
     1
102
RTVSPropertyOp12
 70
     1
102
RTVSPropertyOp13
 70
     1
102
RTVSPropertyOp14
 70
     1
102
RTVSPropertyOp15
 70
     1
102
RTVSPropertyOp16
 70
     1
102
RTVSPropertyOp17
 70
     1
102
RTVSPropertyOp18
 70
     1
102
RTVSPropertyOp19
 70
     1
102
RTVSPropertyOp20
 70
     1
102
RTVSPropertyOp21
 70
     1
102
RTVSPropertyOp22
 70
     1
102
RTVSPropertyOp23
 70
     1
102
RTVSPropertyOp24
 70
     1
102
RTVSPropertyOp25
 70
     1
102
RTVSPropertyOp26
 70
     1
102
RTVSPropertyOp27
 70
     1
102
RTVSPropertyOp28
 70
     1
102
RTVSPropertyOp29
 70
     1
102
RTVSPropertyOp30
 70
     1
102
RTVSPropertyOp31
 70
     1
102
RTVSPropertyOp32
 70
     1
  0
XRECORD
  5
35B
102
{ACAD_REACTORS
330
35A
102
}
330
35A
100
AcDbXrecord
280
     1
102
RTVSPropertyOp0
 70
     1
102
RTVSPropertyOp1
 70
     1
102
RTVSPropertyOp2
 70
     1
102
RTVSPropertyOp3
 70
     1
102
RTVSPropertyOp4
 70
     1
102
RTVSPropertyOp5
 70
     1
102
RTVSPropertyOp6
 70
     1
102
RTVSPropertyOp7
 70
     1
102
RTVSPropertyOp8
 70
     1
102
RTVSPropertyOp9
 70
     1
102
RTVSPropertyOp10
 70
     1
102
RTVSPropertyOp11
 70
     1
102
RTVSPropertyOp12
 70
     1
102
RTVSPropertyOp13
 70
     1
102
RTVSPropertyOp14
 70
     1
102
RTVSPropertyOp15
 70
     1
102
RTVSPropertyOp16
 70
     1
102
RTVSPropertyOp17
 70
     1
102
RTVSPropertyOp18
 70
     1
102
RTVSPropertyOp19
 70
     1
102
RTVSPropertyOp20
 70
     1
102
RTVSPropertyOp21
 70
     1
102
RTVSPropertyOp22
 70
     1
102
RTVSPropertyOp23
 70
     1
102
RTVSPropertyOp24
 70
     1
102
RTVSPropertyOp25
 70
     1
102
RTVSPropertyOp26
 70
     1
102
RTVSPropertyOp27
 70
     1
102
RTVSPropertyOp28
 70
     1
102
RTVSPropertyOp29
 70
     1
102
RTVSPropertyOp30
 70
     1
102
RTVSPropertyOp31
 70
     1
102
RTVSPropertyOp32
 70
     1
  0
XRECORD
  5
35F
102
{ACAD_REACTORS
330
35E
102
}
330
35E
100
AcDbXrecord
280
     1
102
RTVSPropertyOp0
 70
     1
102
RTVSPropertyOp1
 70
     1
102
RTVSPropertyOp2
 70
     1
102
RTVSPropertyOp3
 70
     1
102
RTVSPropertyOp4
 70
     1
102
RTVSPropertyOp5
 70
     1
102
RTVSPropertyOp6
 70
     1
102
RTVSPropertyOp7
 70
     1
102
RTVSPropertyOp8
 70
     1
102
RTVSPropertyOp9
 70
     1
102
RTVSPropertyOp10
 70
     1
102
RTVSPropertyOp11
 70
     1
102
RTVSPropertyOp12
 70
     1
102
RTVSPropertyOp13
 70
     1
102
RTVSPropertyOp14
 70
     1
102
RTVSPropertyOp15
 70
     1
102
RTVSPropertyOp16
 70
     1
102
RTVSPropertyOp17
 70
     1
102
RTVSPropertyOp18
 70
     1
102
RTVSPropertyOp19
 70
     1
102
RTVSPropertyOp20
 70
     1
102
RTVSPropertyOp21
 70
     1
102
RTVSPropertyOp22
 70
     1
102
RTVSPropertyOp23
 70
     1
102
RTVSPropertyOp24
 70
     1
102
RTVSPropertyOp25
 70
     1
102
RTVSPropertyOp26
 70
     1
102
RTVSPropertyOp27
 70
     1
102
RTVSPropertyOp28
 70
     1
102
RTVSPropertyOp29
 70
     1
102
RTVSPropertyOp30
 70
     1
102
RTVSPropertyOp31
 70
     1
102
RTVSPropertyOp32
 70
     1
  0
XRECORD
  5
379
102
{ACAD_REACTORS
330
378
102
}
330
378
100
AcDbXrecord
280
     1
102
RTVSPropertyOp0
 70
     0
102
RTVSPropertyOp1
 70
     0
102
RTVSPropertyOp2
 70
     0
102
RTVSPropertyOp3
 70
     0
102
RTVSPropertyOp4
 70
     0
102
RTVSPropertyOp5
 70
     0
102
RTVSPropertyOp6
 70
     0
102
RTVSPropertyOp7
 70
     0
102
RTVSPropertyOp8
 70
     0
102
RTVSPropertyOp9
 70
     0
102
RTVSPropertyOp10
 70
     0
102
RTVSPropertyOp11
 70
     0
102
RTVSPropertyOp12
 70
     0
102
RTVSPropertyOp13
 70
     0
102
RTVSPropertyOp14
 70
     2
102
RTVSPropertyOp15
 70
     0
102
RTVSPropertyOp16
 70
     0
102
RTVSPropertyOp17
 70
     0
102
RTVSPropertyOp18
 70
     0
102
RTVSPropertyOp19
 70
     0
102
RTVSPropertyOp20
 70
     0
102
RTVSPropertyOp21
 70
     0
102
RTVSPropertyOp22
 70
     0
102
RTVSPropertyOp23
 70
     0
102
RTVSPropertyOp24
 70
     0
102
RTVSPropertyOp25
 70
     0
102
RTVSPropertyOp26
 70
     0
102
RTVSPropertyOp27
 70
     0
102
RTVSPropertyOp28
 70
     0
102
RTVSPropertyOp29
 70
     0
102
RTVSPropertyOp30
 70
     0
102
RTVSPropertyOp31
 70
     0
102
RTVSPropertyOp32
 70
     0
  0
XRECORD
  5
369
102
{ACAD_REACTORS
330
368
102
}
330
368
100
AcDbXrecord
280
     1
102
RTVSPropertyOp0
 70
     1
102
RTVSPropertyOp1
 70
     1
102
RTVSPropertyOp2
 70
     1
102
RTVSPropertyOp3
 70
     1
102
RTVSPropertyOp4
 70
     1
102
RTVSPropertyOp5
 70
     1
102
RTVSPropertyOp6
 70
     1
102
RTVSPropertyOp7
 70
     1
102
RTVSPropertyOp8
 70
     1
102
RTVSPropertyOp9
 70
     1
102
RTVSPropertyOp10
 70
     1
102
RTVSPropertyOp11
 70
     1
102
RTVSPropertyOp12
 70
     1
102
RTVSPropertyOp13
 70
     1
102
RTVSPropertyOp14
 70
     1
102
RTVSPropertyOp15
 70
     1
102
RTVSPropertyOp16
 70
     1
102
RTVSPropertyOp17
 70
     1
102
RTVSPropertyOp18
 70
     1
102
RTVSPropertyOp19
 70
     1
102
RTVSPropertyOp20
 70
     1
102
RTVSPropertyOp21
 70
     1
102
RTVSPropertyOp22
 70
     1
102
RTVSPropertyOp23
 70
     1
102
RTVSPropertyOp24
 70
     1
102
RTVSPropertyOp25
 70
     1
102
RTVSPropertyOp26
 70
     1
102
RTVSPropertyOp27
 70
     1
102
RTVSPropertyOp28
 70
     1
102
RTVSPropertyOp29
 70
     1
102
RTVSPropertyOp30
 70
     1
102
RTVSPropertyOp31
 70
     1
102
RTVSPropertyOp32
 70
     1
  0
XRECORD
  5
37B
102
{ACAD_REACTORS
330
37A
102
}
330
37A
100
AcDbXrecord
280
     1
102
RTVSPropertyOp0
 70
     0
102
RTVSPropertyOp1
 70
     0
102
RTVSPropertyOp2
 70
     0
102
RTVSPropertyOp3
 70
     0
102
RTVSPropertyOp4
 70
     0
102
RTVSPropertyOp5
 70
     0
102
RTVSPropertyOp6
 70
     0
102
RTVSPropertyOp7
 70
     0
102
RTVSPropertyOp8
 70
     0
102
RTVSPropertyOp9
 70
     0
102
RTVSPropertyOp10
 70
     0
102
RTVSPropertyOp11
 70
     0
102
RTVSPropertyOp12
 70
     0
102
RTVSPropertyOp13
 70
     0
102
RTVSPropertyOp14
 70
     2
102
RTVSPropertyOp15
 70
     0
102
RTVSPropertyOp16
 70
     0
102
RTVSPropertyOp17
 70
     0
102
RTVSPropertyOp18
 70
     0
102
RTVSPropertyOp19
 70
     0
102
RTVSPropertyOp20
 70
     0
102
RTVSPropertyOp21
 70
     0
102
RTVSPropertyOp22
 70
     0
102
RTVSPropertyOp23
 70
     0
102
RTVSPropertyOp24
 70
     0
102
RTVSPropertyOp25
 70
     0
102
RTVSPropertyOp26
 70
     0
102
RTVSPropertyOp27
 70
     0
102
RTVSPropertyOp28
 70
     0
102
RTVSPropertyOp29
 70
     0
102
RTVSPropertyOp30
 70
     0
102
RTVSPropertyOp31
 70
     0
102
RTVSPropertyOp32
 70
     0
  0
XRECORD
  5
34B
102
{ACAD_REACTORS
330
34A
102
}
330
34A
100
AcDbXrecord
280
     1
102
RTVSPropertyOp0
 70
     1
102
RTVSPropertyOp1
 70
     1
102
RTVSPropertyOp2
 70
     1
102
RTVSPropertyOp3
 70
     1
102
RTVSPropertyOp4
 70
     1
102
RTVSPropertyOp5
 70
     1
102
RTVSPropertyOp6
 70
     1
102
RTVSPropertyOp7
 70
     1
102
RTVSPropertyOp8
 70
     1
102
RTVSPropertyOp9
 70
     1
102
RTVSPropertyOp10
 70
     1
102
RTVSPropertyOp11
 70
     1
102
RTVSPropertyOp12
 70
     1
102
RTVSPropertyOp13
 70
     1
102
RTVSPropertyOp14
 70
     1
102
RTVSPropertyOp15
 70
     1
102
RTVSPropertyOp16
 70
     1
102
RTVSPropertyOp17
 70
     1
102
RTVSPropertyOp18
 70
     1
102
RTVSPropertyOp19
 70
     1
102
RTVSPropertyOp20
 70
     1
102
RTVSPropertyOp21
 70
     1
102
RTVSPropertyOp22
 70
     1
102
RTVSPropertyOp23
 70
     1
102
RTVSPropertyOp24
 70
     1
102
RTVSPropertyOp25
 70
     1
102
RTVSPropertyOp26
 70
     1
102
RTVSPropertyOp27
 70
     1
102
RTVSPropertyOp28
 70
     1
102
RTVSPropertyOp29
 70
     1
102
RTVSPropertyOp30
 70
     1
102
RTVSPropertyOp31
 70
     1
102
RTVSPropertyOp32
 70
     1
  0
XRECORD
  5
377
102
{ACAD_REACTORS
330
376
102
}
330
376
100
AcDbXrecord
280
     1
102
RTVSPropertyOp0
 70
     1
102
RTVSPropertyOp1
 70
     1
102
RTVSPropertyOp2
 70
     1
102
RTVSPropertyOp3
 70
     1
102
RTVSPropertyOp4
 70
     1
102
RTVSPropertyOp5
 70
     1
102
RTVSPropertyOp6
 70
     1
102
RTVSPropertyOp7
 70
     1
102
RTVSPropertyOp8
 70
     1
102
RTVSPropertyOp9
 70
     1
102
RTVSPropertyOp10
 70
     1
102
RTVSPropertyOp11
 70
     1
102
RTVSPropertyOp12
 70
     1
102
RTVSPropertyOp13
 70
     1
102
RTVSPropertyOp14
 70
     1
102
RTVSPropertyOp15
 70
     1
102
RTVSPropertyOp16
 70
     1
102
RTVSPropertyOp17
 70
     1
102
RTVSPropertyOp18
 70
     1
102
RTVSPropertyOp19
 70
     1
102
RTVSPropertyOp20
 70
     1
102
RTVSPropertyOp21
 70
     1
102
RTVSPropertyOp22
 70
     1
102
RTVSPropertyOp23
 70
     1
102
RTVSPropertyOp24
 70
     1
102
RTVSPropertyOp25
 70
     1
102
RTVSPropertyOp26
 70
     1
102
RTVSPropertyOp27
 70
     1
102
RTVSPropertyOp28
 70
     1
102
RTVSPropertyOp29
 70
     1
102
RTVSPropertyOp30
 70
     1
102
RTVSPropertyOp31
 70
     1
102
RTVSPropertyOp32
 70
     1
  0
XRECORD
  5
375
102
{ACAD_REACTORS
330
374
102
}
330
374
100
AcDbXrecord
280
     1
102
RTVSPropertyOp0
 70
     1
102
RTVSPropertyOp1
 70
     1
102
RTVSPropertyOp2
 70
     1
102
RTVSPropertyOp3
 70
     1
102
RTVSPropertyOp4
 70
     1
102
RTVSPropertyOp5
 70
     1
102
RTVSPropertyOp6
 70
     1
102
RTVSPropertyOp7
 70
     1
102
RTVSPropertyOp8
 70
     1
102
RTVSPropertyOp9
 70
     1
102
RTVSPropertyOp10
 70
     1
102
RTVSPropertyOp11
 70
     1
102
RTVSPropertyOp12
 70
     1
102
RTVSPropertyOp13
 70
     1
102
RTVSPropertyOp14
 70
     1
102
RTVSPropertyOp15
 70
     1
102
RTVSPropertyOp16
 70
     1
102
RTVSPropertyOp17
 70
     1
102
RTVSPropertyOp18
 70
     1
102
RTVSPropertyOp19
 70
     1
102
RTVSPropertyOp20
 70
     1
102
RTVSPropertyOp21
 70
     1
102
RTVSPropertyOp22
 70
     1
102
RTVSPropertyOp23
 70
     1
102
RTVSPropertyOp24
 70
     1
102
RTVSPropertyOp25
 70
     1
102
RTVSPropertyOp26
 70
     1
102
RTVSPropertyOp27
 70
     1
102
RTVSPropertyOp28
 70
     1
102
RTVSPropertyOp29
 70
     1
102
RTVSPropertyOp30
 70
     1
102
RTVSPropertyOp31
 70
     1
102
RTVSPropertyOp32
 70
     1
  0
XRECORD
  5
36F
102
{ACAD_REACTORS
330
36E
102
}
330
36E
100
AcDbXrecord
280
     1
102
RTVSPropertyOp0
 70
     1
102
RTVSPropertyOp1
 70
     1
102
RTVSPropertyOp2
 70
     1
102
RTVSPropertyOp3
 70
     1
102
RTVSPropertyOp4
 70
     1
102
RTVSPropertyOp5
 70
     1
102
RTVSPropertyOp6
 70
     1
102
RTVSPropertyOp7
 70
     1
102
RTVSPropertyOp8
 70
     1
102
RTVSPropertyOp9
 70
     1
102
RTVSPropertyOp10
 70
     1
102
RTVSPropertyOp11
 70
     1
102
RTVSPropertyOp12
 70
     1
102
RTVSPropertyOp13
 70
     1
102
RTVSPropertyOp14
 70
     1
102
RTVSPropertyOp15
 70
     1
102
RTVSPropertyOp16
 70
     1
102
RTVSPropertyOp17
 70
     1
102
RTVSPropertyOp18
 70
     1
102
RTVSPropertyOp19
 70
     1
102
RTVSPropertyOp20
 70
     1
102
RTVSPropertyOp21
 70
     1
102
RTVSPropertyOp22
 70
     1
102
RTVSPropertyOp23
 70
     1
102
RTVSPropertyOp24
 70
     1
102
RTVSPropertyOp25
 70
     1
102
RTVSPropertyOp26
 70
     1
102
RTVSPropertyOp27
 70
     1
102
RTVSPropertyOp28
 70
     1
102
RTVSPropertyOp29
 70
     1
102
RTVSPropertyOp30
 70
     1
102
RTVSPropertyOp31
 70
     1
102
RTVSPropertyOp32
 70
     1
  0
XRECORD
  5
371
102
{ACAD_REACTORS
330
370
102
}
330
370
100
AcDbXrecord
280
     1
102
RTVSPropertyOp0
 70
     1
102
RTVSPropertyOp1
 70
     1
102
RTVSPropertyOp2
 70
     1
102
RTVSPropertyOp3
 70
     1
102
RTVSPropertyOp4
 70
     1
102
RTVSPropertyOp5
 70
     1
102
RTVSPropertyOp6
 70
     1
102
RTVSPropertyOp7
 70
     1
102
RTVSPropertyOp8
 70
     1
102
RTVSPropertyOp9
 70
     1
102
RTVSPropertyOp10
 70
     1
102
RTVSPropertyOp11
 70
     1
102
RTVSPropertyOp12
 70
     1
102
RTVSPropertyOp13
 70
     1
102
RTVSPropertyOp14
 70
     1
102
RTVSPropertyOp15
 70
     1
102
RTVSPropertyOp16
 70
     1
102
RTVSPropertyOp17
 70
     1
102
RTVSPropertyOp18
 70
     1
102
RTVSPropertyOp19
 70
     1
102
RTVSPropertyOp20
 70
     1
102
RTVSPropertyOp21
 70
     1
102
RTVSPropertyOp22
 70
     1
102
RTVSPropertyOp23
 70
     1
102
RTVSPropertyOp24
 70
     1
102
RTVSPropertyOp25
 70
     1
102
RTVSPropertyOp26
 70
     1
102
RTVSPropertyOp27
 70
     1
102
RTVSPropertyOp28
 70
     1
102
RTVSPropertyOp29
 70
     1
102
RTVSPropertyOp30
 70
     1
102
RTVSPropertyOp31
 70
     1
102
RTVSPropertyOp32
 70
     1
  0
XRECORD
  5
367
102
{ACAD_REACTORS
330
366
102
}
330
366
100
AcDbXrecord
280
     1
102
RTVSPropertyOp0
 70
     1
102
RTVSPropertyOp1
 70
     1
102
RTVSPropertyOp2
 70
     1
102
RTVSPropertyOp3
 70
     1
102
RTVSPropertyOp4
 70
     1
102
RTVSPropertyOp5
 70
     1
102
RTVSPropertyOp6
 70
     1
102
RTVSPropertyOp7
 70
     1
102
RTVSPropertyOp8
 70
     1
102
RTVSPropertyOp9
 70
     1
102
RTVSPropertyOp10
 70
     1
102
RTVSPropertyOp11
 70
     1
102
RTVSPropertyOp12
 70
     1
102
RTVSPropertyOp13
 70
     1
102
RTVSPropertyOp14
 70
     1
102
RTVSPropertyOp15
 70
     1
102
RTVSPropertyOp16
 70
     1
102
RTVSPropertyOp17
 70
     1
102
RTVSPropertyOp18
 70
     1
102
RTVSPropertyOp19
 70
     1
102
RTVSPropertyOp20
 70
     1
102
RTVSPropertyOp21
 70
     1
102
RTVSPropertyOp22
 70
     1
102
RTVSPropertyOp23
 70
     1
102
RTVSPropertyOp24
 70
     1
102
RTVSPropertyOp25
 70
     1
102
RTVSPropertyOp26
 70
     1
102
RTVSPropertyOp27
 70
     1
102
RTVSPropertyOp28
 70
     1
102
RTVSPropertyOp29
 70
     1
102
RTVSPropertyOp30
 70
     1
102
RTVSPropertyOp31
 70
     1
102
RTVSPropertyOp32
 70
     1
  0
XRECORD
  5
34D
102
{ACAD_REACTORS
330
34C
102
}
330
34C
100
AcDbXrecord
280
     1
102
RTVSPropertyOp0
 70
     1
102
RTVSPropertyOp1
 70
     1
102
RTVSPropertyOp2
 70
     1
102
RTVSPropertyOp3
 70
     1
102
RTVSPropertyOp4
 70
     1
102
RTVSPropertyOp5
 70
     1
102
RTVSPropertyOp6
 70
     1
102
RTVSPropertyOp7
 70
     1
102
RTVSPropertyOp8
 70
     1
102
RTVSPropertyOp9
 70
     1
102
RTVSPropertyOp10
 70
     1
102
RTVSPropertyOp11
 70
     1
102
RTVSPropertyOp12
 70
     1
102
RTVSPropertyOp13
 70
     1
102
RTVSPropertyOp14
 70
     1
102
RTVSPropertyOp15
 70
     1
102
RTVSPropertyOp16
 70
     1
102
RTVSPropertyOp17
 70
     1
102
RTVSPropertyOp18
 70
     1
102
RTVSPropertyOp19
 70
     1
102
RTVSPropertyOp20
 70
     1
102
RTVSPropertyOp21
 70
     1
102
RTVSPropertyOp22
 70
     1
102
RTVSPropertyOp23
 70
     1
102
RTVSPropertyOp24
 70
     1
102
RTVSPropertyOp25
 70
     1
102
RTVSPropertyOp26
 70
     1
102
RTVSPropertyOp27
 70
     1
102
RTVSPropertyOp28
 70
     1
102
RTVSPropertyOp29
 70
     1
102
RTVSPropertyOp30
 70
     1
102
RTVSPropertyOp31
 70
     1
102
RTVSPropertyOp32
 70
     1
  0
XRECORD
  5
373
102
{ACAD_REACTORS
330
372
102
}
330
372
100
AcDbXrecord
280
     1
102
RTVSPropertyOp0
 70
     1
102
RTVSPropertyOp1
 70
     1
102
RTVSPropertyOp2
 70
     1
102
RTVSPropertyOp3
 70
     1
102
RTVSPropertyOp4
 70
     1
102
RTVSPropertyOp5
 70
     1
102
RTVSPropertyOp6
 70
     1
102
RTVSPropertyOp7
 70
     1
102
RTVSPropertyOp8
 70
     1
102
RTVSPropertyOp9
 70
     1
102
RTVSPropertyOp10
 70
     1
102
RTVSPropertyOp11
 70
     1
102
RTVSPropertyOp12
 70
     1
102
RTVSPropertyOp13
 70
     1
102
RTVSPropertyOp14
 70
     1
102
RTVSPropertyOp15
 70
     1
102
RTVSPropertyOp16
 70
     1
102
RTVSPropertyOp17
 70
     1
102
RTVSPropertyOp18
 70
     1
102
RTVSPropertyOp19
 70
     1
102
RTVSPropertyOp20
 70
     1
102
RTVSPropertyOp21
 70
     1
102
RTVSPropertyOp22
 70
     1
102
RTVSPropertyOp23
 70
     1
102
RTVSPropertyOp24
 70
     1
102
RTVSPropertyOp25
 70
     1
102
RTVSPropertyOp26
 70
     1
102
RTVSPropertyOp27
 70
     1
102
RTVSPropertyOp28
 70
     1
102
RTVSPropertyOp29
 70
     1
102
RTVSPropertyOp30
 70
     1
102
RTVSPropertyOp31
 70
     1
102
RTVSPropertyOp32
 70
     1
  0
ENDSEC
  0
EOF
