  0
SECTION
  2
HEADER
  9
$ACADVER
  1
AC1027
  9
$ACADMAINTVER
 70
   105
  9
$DWGCODEPAGE
  3
ANSI_1252
  9
$REQUIREDVERSIONS
160
                 0
  9
$COMMENTS
  1
File was created by Cadenas
  9
$CUSTOMPROPERTYTAG
  1
NN
  9
$CUSTOMPROPERTY
  1
Geberit Mapress Carbon Steel set of connector T-pieces for inlet and return flow, with union connector for Euro cone
  9
$CUSTOMPROPERTYTAG
  1
NT
  9
$CUSTOMPROPERTY
  1

  9
$CUSTOMPROPERTYTAG
  1
NB
  9
$CUSTOMPROPERTY
  1
24046
  9
$CUSTOMPROPERTYTAG
  1
NBSYN
  9
$CUSTOMPROPERTY
  1
$ARTNRT.
  9
$CUSTOMPROPERTYTAG
  1
LINA
  9
$CUSTOMPROPERTY
  1
24046
  9
$CUSTOMPROPERTYTAG
  1
CATALOG
  9
$CUSTOMPROPERTY
  1
GEBERIT
  9
$CUSTOMPROPERTYTAG
  1
ARTNRT
  9
$CUSTOMPROPERTY
  1
24046
  9
$CUSTOMPROPERTYTAG
  1
AD
  9
$CUSTOMPROPERTY
  1
5
  9
$CUSTOMPROPERTYTAG
  1
D
  9
$CUSTOMPROPERTY
  1
18.0
  9
$CUSTOMPROPERTYTAG
  1
D1
  9
$CUSTOMPROPERTY
  1
15.0
  9
$CUSTOMPROPERTYTAG
  1
DN
  9
$CUSTOMPROPERTY
  1
15 / 12
  9
$CUSTOMPROPERTYTAG
  1
L
  9
$CUSTOMPROPERTY
  1
2.9
  9
$CUSTOMPROPERTYTAG
  1
L1
  9
$CUSTOMPROPERTY
  1
12.7
  9
$CUSTOMPROPERTYTAG
  1
LL1
  9
$CUSTOMPROPERTY
  1
6.8
  9
$CUSTOMPROPERTYTAG
  1
Z
  9
$CUSTOMPROPERTY
  1
10.0
  9
$CUSTOMPROPERTYTAG
  1
Z1
  9
$CUSTOMPROPERTY
  1
1.7
  9
$CUSTOMPROPERTYTAG
  1
COMPANY
  9
$CUSTOMPROPERTY
  1
geberit
  9
$INSBASE
 10
0.0
 20
0.0
 30
0.0
  9
$EXTMIN
 10
1.000000000000000E+20
 20
1.000000000000000E+20
 30
1.000000000000000E+20
  9
$EXTMAX
 10
-1.000000000000000E+20
 20
-1.000000000000000E+20
 30
-1.000000000000000E+20
  9
$LIMMIN
 10
0.0
 20
0.0
  9
$LIMMAX
 10
420.0
 20
297.0
  9
$ORTHOMODE
 70
     0
  9
$REGENMODE
 70
     1
  9
$FILLMODE
 70
     1
  9
$QTEXTMODE
 70
     0
  9
$MIRRTEXT
 70
     1
  9
$LTSCALE
 40
1.0
  9
$ATTMODE
 70
     1
  9
$TEXTSIZE
 40
2.5
  9
$TRACEWID
 40
1.0
  9
$TEXTSTYLE
  7
Standard
  9
$CLAYER
  8
0
  9
$CELTYPE
  6
ByLayer
  9
$CECOLOR
 62
   256
  9
$CELTSCALE
 40
1.0
  9
$DISPSILH
 70
     0
  9
$DIMSCALE
 40
1.0
  9
$DIMASZ
 40
2.5
  9
$DIMEXO
 40
0.625
  9
$DIMDLI
 40
3.75
  9
$DIMRND
 40
0.0
  9
$DIMDLE
 40
0.0
  9
$DIMEXE
 40
1.25
  9
$DIMTP
 40
0.0
  9
$DIMTM
 40
0.0
  9
$DIMTXT
 40
2.5
  9
$DIMCEN
 40
2.5
  9
$DIMTSZ
 40
0.0
  9
$DIMTOL
 70
     0
  9
$DIMLIM
 70
     0
  9
$DIMTIH
 70
     0
  9
$DIMTOH
 70
     0
  9
$DIMSE1
 70
     0
  9
$DIMSE2
 70
     0
  9
$DIMTAD
 70
     1
  9
$DIMZIN
 70
     8
  9
$DIMBLK
  1

  9
$DIMASO
 70
     1
  9
$DIMSHO
 70
     1
  9
$DIMPOST
  1

  9
$DIMAPOST
  1

  9
$DIMALT
 70
     0
  9
$DIMALTD
 70
     3
  9
$DIMALTF
 40
0.03937007874016
  9
$DIMLFAC
 40
1.0
  9
$DIMTOFL
 70
     1
  9
$DIMTVP
 40
0.0
  9
$DIMTIX
 70
     0
  9
$DIMSOXD
 70
     0
  9
$DIMSAH
 70
     0
  9
$DIMBLK1
  1

  9
$DIMBLK2
  1

  9
$DIMSTYLE
  2
ISO-25
  9
$DIMCLRD
 70
     0
  9
$DIMCLRE
 70
     0
  9
$DIMCLRT
 70
     0
  9
$DIMTFAC
 40
1.0
  9
$DIMGAP
 40
0.625
  9
$DIMJUST
 70
     0
  9
$DIMSD1
 70
     0
  9
$DIMSD2
 70
     0
  9
$DIMTOLJ
 70
     0
  9
$DIMTZIN
 70
     8
  9
$DIMALTZ
 70
     0
  9
$DIMALTTZ
 70
     0
  9
$DIMUPT
 70
     0
  9
$DIMDEC
 70
     2
  9
$DIMTDEC
 70
     2
  9
$DIMALTU
 70
     2
  9
$DIMALTTD
 70
     3
  9
$DIMTXSTY
  7
Standard
  9
$DIMAUNIT
 70
     0
  9
$DIMADEC
 70
     0
  9
$DIMALTRND
 40
0.0
  9
$DIMAZIN
 70
     0
  9
$DIMDSEP
 70
    44
  9
$DIMATFIT
 70
     3
  9
$DIMFRAC
 70
     0
  9
$DIMLDRBLK
  1

  9
$DIMLUNIT
 70
     2
  9
$DIMLWD
 70
    -2
  9
$DIMLWE
 70
    -2
  9
$DIMTMOVE
 70
     0
  9
$DIMFXL
 40
1.0
  9
$DIMFXLON
 70
     0
  9
$DIMJOGANG
 40
0.7853981633974483
  9
$DIMTFILL
 70
     0
  9
$DIMTFILLCLR
 70
     0
  9
$DIMARCSYM
 70
     0
  9
$DIMLTYPE
  6

  9
$DIMLTEX1
  6

  9
$DIMLTEX2
  6

  9
$DIMTXTDIRECTION
 70
     0
  9
$LUNITS
 70
     2
  9
$LUPREC
 70
     4
  9
$SKETCHINC
 40
1.0
  9
$FILLETRAD
 40
10.0
  9
$AUNITS
 70
     0
  9
$AUPREC
 70
     0
  9
$MENU
  1
.
  9
$ELEVATION
 40
0.0
  9
$PELEVATION
 40
0.0
  9
$THICKNESS
 40
0.0
  9
$LIMCHECK
 70
     0
  9
$CHAMFERA
 40
0.0
  9
$CHAMFERB
 40
0.0
  9
$CHAMFERC
 40
0.0
  9
$CHAMFERD
 40
0.0
  9
$SKPOLY
 70
     0
  9
$TDCREATE
 40
2458934.67021044
  9
$TDUCREATE
 40
2458934.628543773
  9
$TDUPDATE
 40
2458934.670210683
  9
$TDUUPDATE
 40
2458934.628544016
  9
$TDINDWG
 40
0.0000000116
  9
$TDUSRTIMER
 40
0.0000000116
  9
$USRTIMER
 70
     1
  9
$ANGBASE
 50
0.0
  9
$ANGDIR
 70
     0
  9
$PDMODE
 70
     0
  9
$PDSIZE
 40
0.0
  9
$PLINEWID
 40
0.0
  9
$SPLFRAME
 70
     0
  9
$SPLINETYPE
 70
     6
  9
$SPLINESEGS
 70
     8
  9
$HANDSEED
  5
298
  9
$SURFTAB1
 70
     6
  9
$SURFTAB2
 70
     6
  9
$SURFTYPE
 70
     6
  9
$SURFU
 70
     6
  9
$SURFV
 70
     6
  9
$UCSBASE
  2

  9
$UCSNAME
  2

  9
$UCSORG
 10
0.0
 20
0.0
 30
0.0
  9
$UCSXDIR
 10
1.0
 20
0.0
 30
0.0
  9
$UCSYDIR
 10
0.0
 20
1.0
 30
0.0
  9
$UCSORTHOREF
  2

  9
$UCSORTHOVIEW
 70
     0
  9
$UCSORGTOP
 10
0.0
 20
0.0
 30
0.0
  9
$UCSORGBOTTOM
 10
0.0
 20
0.0
 30
0.0
  9
$UCSORGLEFT
 10
0.0
 20
0.0
 30
0.0
  9
$UCSORGRIGHT
 10
0.0
 20
0.0
 30
0.0
  9
$UCSORGFRONT
 10
0.0
 20
0.0
 30
0.0
  9
$UCSORGBACK
 10
0.0
 20
0.0
 30
0.0
  9
$PUCSBASE
  2

  9
$PUCSNAME
  2

  9
$PUCSORG
 10
0.0
 20
0.0
 30
0.0
  9
$PUCSXDIR
 10
1.0
 20
0.0
 30
0.0
  9
$PUCSYDIR
 10
0.0
 20
1.0
 30
0.0
  9
$PUCSORTHOREF
  2

  9
$PUCSORTHOVIEW
 70
     0
  9
$PUCSORGTOP
 10
0.0
 20
0.0
 30
0.0
  9
$PUCSORGBOTTOM
 10
0.0
 20
0.0
 30
0.0
  9
$PUCSORGLEFT
 10
0.0
 20
0.0
 30
0.0
  9
$PUCSORGRIGHT
 10
0.0
 20
0.0
 30
0.0
  9
$PUCSORGFRONT
 10
0.0
 20
0.0
 30
0.0
  9
$PUCSORGBACK
 10
0.0
 20
0.0
 30
0.0
  9
$USERI1
 70
     0
  9
$USERI2
 70
     0
  9
$USERI3
 70
     0
  9
$USERI4
 70
     0
  9
$USERI5
 70
     0
  9
$USERR1
 40
0.0
  9
$USERR2
 40
0.0
  9
$USERR3
 40
0.0
  9
$USERR4
 40
0.0
  9
$USERR5
 40
0.0
  9
$WORLDVIEW
 70
     1
  9
$SHADEDGE
 70
     3
  9
$SHADEDIF
 70
    70
  9
$TILEMODE
 70
     1
  9
$MAXACTVP
 70
    64
  9
$PINSBASE
 10
0.0
 20
0.0
 30
0.0
  9
$PLIMCHECK
 70
     0
  9
$PEXTMIN
 10
1.000000000000000E+20
 20
1.000000000000000E+20
 30
1.000000000000000E+20
  9
$PEXTMAX
 10
-1.000000000000000E+20
 20
-1.000000000000000E+20
 30
-1.000000000000000E+20
  9
$PLIMMIN
 10
0.0
 20
0.0
  9
$PLIMMAX
 10
420.0
 20
297.0
  9
$UNITMODE
 70
     0
  9
$VISRETAIN
 70
     1
  9
$PLINEGEN
 70
     0
  9
$PSLTSCALE
 70
     1
  9
$TREEDEPTH
 70
  3020
  9
$CMLSTYLE
  2
Standard
  9
$CMLJUST
 70
     0
  9
$CMLSCALE
 40
20.0
  9
$PROXYGRAPHICS
 70
     1
  9
$MEASUREMENT
 70
     1
  9
$CELWEIGHT
370
    -1
  9
$ENDCAPS
280
     0
  9
$JOINSTYLE
280
     0
  9
$LWDISPLAY
290
     0
  9
$INSUNITS
 70
     4
  9
$HYPERLINKBASE
  1

  9
$STYLESHEET
  1

  9
$XEDIT
290
     1
  9
$CEPSNTYPE
380
     0
  9
$PSTYLEMODE
290
     1
  9
$FINGERPRINTGUID
  2
{DB326083-81E3-423F-AE9B-5A998899EDE7}
  9
$VERSIONGUID
  2
{FAEB1C32-E019-11D5-929B-00C0DF256EC4}
  9
$EXTNAMES
290
     1
  9
$PSVPSCALE
 40
0.0
  9
$OLESTARTUP
290
     0
  9
$SORTENTS
280
   127
  9
$INDEXCTL
280
     0
  9
$HIDETEXT
280
     1
  9
$XCLIPFRAME
280
     2
  9
$HALOGAP
280
     0
  9
$OBSCOLOR
 70
   257
  9
$OBSLTYPE
280
     0
  9
$INTERSECTIONDISPLAY
280
     0
  9
$INTERSECTIONCOLOR
 70
   257
  9
$DIMASSOC
280
     2
  9
$PROJECTNAME
  1

  9
$CAMERADISPLAY
290
     0
  9
$LENSLENGTH
 40
50.0
  9
$CAMERAHEIGHT
 40
0.0
  9
$STEPSPERSEC
 40
2.0
  9
$STEPSIZE
 40
6.0
  9
$3DDWFPREC
 40
2.0
  9
$PSOLWIDTH
 40
5.0
  9
$PSOLHEIGHT
 40
80.0
  9
$LOFTANG1
 40
1.570796326794897
  9
$LOFTANG2
 40
1.570796326794897
  9
$LOFTMAG1
 40
0.0
  9
$LOFTMAG2
 40
0.0
  9
$LOFTPARAM
 70
     7
  9
$LOFTNORMALS
280
     1
  9
$LATITUDE
 40
37.795
  9
$LONGITUDE
 40
-122.394
  9
$NORTHDIRECTION
 40
0.0
  9
$TIMEZONE
 70
 -8000
  9
$LIGHTGLYPHDISPLAY
280
     1
  9
$TILEMODELIGHTSYNCH
280
     1
  9
$CMATERIAL
347
44
  9
$SOLIDHIST
280
     0
  9
$SHOWHIST
280
     1
  9
$DWFFRAME
280
     2
  9
$DGNFRAME
280
     2
  9
$REALWORLDSCALE
290
     1
  9
$INTERFERECOLOR
 62
   256
  9
$CSHADOW
280
     0
  9
$SHADOWPLANELOCATION
 40
0.0
  0
ENDSEC
  0
SECTION
  2
CLASSES
  0
CLASS
  1
ACDBDICTIONARYWDFLT
  2
AcDbDictionaryWithDefault
  3
ObjectDBX Classes
 90
        0
 91
        4
280
     0
281
     0
  0
CLASS
  1
VISUALSTYLE
  2
AcDbVisualStyle
  3
ObjectDBX Classes
 90
     4095
 91
        4
280
     0
281
     0
  0
CLASS
  1
MATERIAL
  2
AcDbMaterial
  3
ObjectDBX Classes
 90
     1153
 91
        4
280
     0
281
     0
  0
CLASS
  1
SCALE
  2
AcDbScale
  3
ObjectDBX Classes
 90
     1153
 91
        4
280
     0
281
     0
  0
CLASS
  1
TABLESTYLE
  2
AcDbTableStyle
  3
ObjectDBX Classes
 90
     4095
 91
        4
280
     0
281
     0
  0
CLASS
  1
MLEADERSTYLE
  2
AcDbMLeaderStyle
  3
ACDB_MLEADERSTYLE_CLASS
 90
     4095
 91
        4
280
     0
281
     0
  0
CLASS
  1
SUN
  2
AcDbSun
  3
SCENEOE
 90
     1153
 91
        4
280
     0
281
     0
  0
CLASS
  1
DICTIONARYVAR
  2
AcDbDictionaryVar
  3
ObjectDBX Classes
 90
        0
 91
        4
280
     0
281
     0
  0
CLASS
  1
CELLSTYLEMAP
  2
AcDbCellStyleMap
  3
ObjectDBX Classes
 90
     1152
 91
        4
280
     0
281
     0
  0
ENDSEC
  0
SECTION
  2
TABLES
  0
TABLE
  2
VPORT
  5
8
330
0
100
AcDbSymbolTable
 70
     1
  0
VPORT
  5
29
330
8
100
AcDbSymbolTableRecord
100
AcDbViewportTableRecord
  2
*Active
 70
     0
 10
0.0
 20
0.0
 11
1.0
 21
1.0
 12
29.25
 22
-6.467191208262989
 13
0.0
 23
0.0
 14
10.0
 24
10.0
 15
10.0
 25
10.0
 16
0.0
 26
0.0
 36
1.0
 17
0.0
 27
0.0
 37
0.0
 40
30.42427811777006
 41
10.32726919135903
 42
50.0
 43
0.0
 44
0.0
 50
0.0
 51
0.0
 71
     0
 72
   100
 73
     1
 74
     3
 75
     0
 76
     0
 77
     0
 78
     0
281
     0
 65
     1
110
0.0
120
0.0
130
0.0
111
1.0
121
0.0
131
0.0
112
0.0
122
1.0
132
0.0
 79
     0
146
0.0
348
2F
 60
     3
 61
     5
292
     1
282
     1
141
0.0
142
0.0
 63
   250
361
6D
  0
ENDTAB
  0
TABLE
  2
LTYPE
  5
5
330
0
100
AcDbSymbolTable
 70
     3
  0
LTYPE
  5
14
330
5
100
AcDbSymbolTableRecord
100
AcDbLinetypeTableRecord
  2
ByBlock
 70
     0
  3

 72
    65
 73
     0
 40
0.0
  0
LTYPE
  5
15
330
5
100
AcDbSymbolTableRecord
100
AcDbLinetypeTableRecord
  2
ByLayer
 70
     0
  3

 72
    65
 73
     0
 40
0.0
  0
LTYPE
  5
16
330
5
100
AcDbSymbolTableRecord
100
AcDbLinetypeTableRecord
  2
Continuous
 70
     0
  3
Solid line
 72
    65
 73
     0
 40
0.0
  0
LTYPE
  5
9B
330
5
100
AcDbSymbolTableRecord
100
AcDbLinetypeTableRecord
  2
Dashed
 70
     0
  3

 72
    65
 73
     2
 40
2.0
 49
1.0
 74
     0
 49
-1.0
 74
     0
  0
LTYPE
  5
109
330
5
100
AcDbSymbolTableRecord
100
AcDbLinetypeTableRecord
  2
Center
 70
     0
  3

 72
    65
 73
     4
 40
1.5
 49
0.45
 74
     0
 49
-0.5
 74
     0
 49
0.05
 74
     0
 49
-0.5
 74
     0
  0
ENDTAB
  0
TABLE
  2
LAYER
  5
2
330
0
100
AcDbSymbolTable
 70
     7
  0
LAYER
  5
10
330
2
100
AcDbSymbolTableRecord
100
AcDbLayerTableRecord
  2
0
 70
     0
 62
     7
  6
Continuous
370
    -3
390
F
347
46
348
0
  0
LAYER
  5
6E
330
2
100
AcDbSymbolTableRecord
100
AcDbLayerTableRecord
  2
AM_6
 70
     0
 62
    -2
  6
Continuous
370
    35
390
F
347
46
348
0
  0
LAYER
  5
9C
330
2
100
AcDbSymbolTableRecord
100
AcDbLayerTableRecord
  2
VER
 70
     0
 62
    -6
  6
Dashed
370
    25
390
F
347
46
348
0
  0
LAYER
  5
10A
330
2
100
AcDbSymbolTableRecord
100
AcDbLayerTableRecord
  2
MITTE
 70
     0
 62
     7
  6
Center
370
    25
390
F
347
46
348
0
  0
LAYER
  5
116
330
2
100
AcDbSymbolTableRecord
100
AcDbLayerTableRecord
  2
050
 70
     0
 62
     7
  6
Continuous
370
    50
390
F
347
46
348
0
  0
LAYER
  5
17F
330
2
100
AcDbSymbolTableRecord
100
AcDbLayerTableRecord
  2
GEW
 70
     0
 62
     3
  6
Continuous
370
    25
390
F
347
46
348
0
  0
LAYER
  5
289
330
2
100
AcDbSymbolTableRecord
100
AcDbLayerTableRecord
  2
2d ConnectionPoints
 70
     0
 62
    -7
  6
Continuous
370
    50
390
F
347
46
348
0
  0
ENDTAB
  0
TABLE
  2
STYLE
  5
3
330
0
100
AcDbSymbolTable
 70
     1
  0
STYLE
  5
11
330
3
100
AcDbSymbolTableRecord
100
AcDbTextStyleTableRecord
  2
Standard
 70
     0
 40
0.0
 41
1.0
 50
0.0
 71
     0
 42
2.5
  3
txt
  4

  0
ENDTAB
  0
TABLE
  2
VIEW
  5
6
330
0
100
AcDbSymbolTable
 70
     0
  0
ENDTAB
  0
TABLE
  2
UCS
  5
7
330
0
100
AcDbSymbolTable
 70
     0
  0
ENDTAB
  0
TABLE
  2
APPID
  5
9
330
0
100
AcDbSymbolTable
 70
     1
  0
APPID
  5
12
330
9
100
AcDbSymbolTableRecord
100
AcDbRegAppTableRecord
  2
ACAD
 70
     0
  0
ENDTAB
  0
TABLE
  2
DIMSTYLE
  5
A
330
0
100
AcDbSymbolTable
 70
     1
100
AcDbDimStyleTable
  0
DIMSTYLE
105
27
330
A
100
AcDbSymbolTableRecord
100
AcDbDimStyleTableRecord
  2
ISO-25
 70
     0
 41
2.5
 42
0.625
 43
3.75
 44
1.25
 73
     0
 74
     0
 77
     1
 78
     8
140
2.5
141
2.5
143
0.03937007874016
147
0.625
171
     3
172
     1
178
     0
271
     2
272
     2
274
     3
278
    44
283
     0
284
     8
340
11
  0
ENDTAB
  0
TABLE
  2
BLOCK_RECORD
  5
1
330
0
100
AcDbSymbolTable
 70
     3
  0
BLOCK_RECORD
  5
1F
330
1
100
AcDbSymbolTableRecord
100
AcDbBlockTableRecord
  2
*Model_Space
340
22
 70
     0
280
     1
281
     0
  0
BLOCK_RECORD
  5
1B
330
1
100
AcDbSymbolTableRecord
100
AcDbBlockTableRecord
  2
*Paper_Space
340
1E
 70
     0
280
     1
281
     0
  0
BLOCK_RECORD
  5
23
330
1
100
AcDbSymbolTableRecord
100
AcDbBlockTableRecord
  2
*Paper_Space0
340
26
 70
     0
280
     1
281
     0
  0
BLOCK_RECORD
  5
80
330
1
100
AcDbSymbolTableRecord
100
AcDbBlockTableRecord
  2
1_24046_2_0_in_24046_4
340
0
102
{BLKREFS
331
81
102
}
 70
     0
280
     1
281
     0
  0
BLOCK_RECORD
  5
182
330
1
100
AcDbSymbolTableRecord
100
AcDbBlockTableRecord
  2
2_24046_1_0_in_24046_4
340
0
102
{BLKREFS
331
183
102
}
 70
     0
280
     1
281
     0
  0
ENDTAB
  0
ENDSEC
  0
SECTION
  2
BLOCKS
  0
BLOCK
  5
20
330
1F
100
AcDbEntity
  8
0
100
AcDbBlockBegin
  2
*Model_Space
 70
     0
 10
0.0
 20
0.0
 30
0.0
  3
*Model_Space
  1

  0
ENDBLK
  5
21
330
1F
100
AcDbEntity
  8
0
100
AcDbBlockEnd
  0
BLOCK
  5
1C
330
1B
100
AcDbEntity
 67
     1
  8
0
100
AcDbBlockBegin
  2
*Paper_Space
 70
     0
 10
0.0
 20
0.0
 30
0.0
  3
*Paper_Space
  1

  0
ENDBLK
  5
1D
330
1B
100
AcDbEntity
 67
     1
  8
0
100
AcDbBlockEnd
  0
BLOCK
  5
24
330
23
100
AcDbEntity
  8
0
100
AcDbBlockBegin
  2
*Paper_Space0
 70
     0
 10
0.0
 20
0.0
 30
0.0
  3
*Paper_Space0
  1

  0
ENDBLK
  5
25
330
23
100
AcDbEntity
  8
0
100
AcDbBlockEnd
  0
BLOCK
  5
82
330
80
100
AcDbEntity
  8
0
100
AcDbBlockBegin
  2
1_24046_2_0_in_24046_4
 70
     2
 10
0.0
 20
0.0
 30
0.0
  3
1_24046_2_0_in_24046_4
  1

  0
ATTDEF
  5
84
330
80
100
AcDbEntity
  8
AM_6
100
AcDbText
 10
179.769465723032
 20
7.843304511145418
 30
0.0
 40
0.5
  1
Geberit Mapress Carbon Steel set of connector T-pieces for inlet and return flow, with union connector for Euro cone - part2
100
AcDbAttributeDefinition
  3

  2
NN
 70
     8
280
     0
  0
ATTDEF
  5
85
330
80
100
AcDbEntity
  8
AM_6
100
AcDbText
 10
179.769465723032
 20
7.343304511145418
 30
0.0
 40
0.5
  1

100
AcDbAttributeDefinition
  3

  2
NT
 70
     8
280
     0
  0
ATTDEF
  5
86
330
80
100
AcDbEntity
  8
AM_6
100
AcDbText
 10
179.769465723032
 20
6.843304511145418
 30
0.0
 40
0.5
  1
24046_2
100
AcDbAttributeDefinition
  3

  2
NB
 70
     8
280
     0
  0
ATTDEF
  5
87
330
80
100
AcDbEntity
  8
AM_6
100
AcDbText
 10
179.769465723032
 20
6.343304511145418
 30
0.0
 40
0.5
  1
$ARTNRT._2
100
AcDbAttributeDefinition
  3

  2
NBSYN
 70
     8
280
     0
  0
ATTDEF
  5
88
330
80
100
AcDbEntity
  8
AM_6
100
AcDbText
 10
179.769465723032
 20
5.843304511145418
 30
0.0
 40
0.5
  1
24046
100
AcDbAttributeDefinition
  3

  2
LINA
 70
     8
280
     0
  0
ATTDEF
  5
89
330
80
100
AcDbEntity
  8
AM_6
100
AcDbText
 10
179.769465723032
 20
5.343304511145418
 30
0.0
 40
0.5
  1
GEBERIT
100
AcDbAttributeDefinition
  3

  2
CATALOG
 70
     8
280
     0
  0
ATTDEF
  5
8A
330
80
100
AcDbEntity
  8
AM_6
100
AcDbText
 10
179.769465723032
 20
4.843304511145418
 30
0.0
 40
0.5
  1
24046
100
AcDbAttributeDefinition
  3

  2
ARTNRT
 70
     8
280
     0
  0
ATTDEF
  5
8B
330
80
100
AcDbEntity
  8
AM_6
100
AcDbText
 10
179.769465723032
 20
4.343304511145418
 30
0.0
 40
0.5
  1
5
100
AcDbAttributeDefinition
  3

  2
AD
 70
     8
280
     0
  0
ATTDEF
  5
8C
330
80
100
AcDbEntity
  8
AM_6
100
AcDbText
 10
179.769465723032
 20
3.843304511145418
 30
0.0
 40
0.5
  1
18.0
100
AcDbAttributeDefinition
  3

  2
D
 70
     8
280
     0
  0
ATTDEF
  5
8D
330
80
100
AcDbEntity
  8
AM_6
100
AcDbText
 10
179.769465723032
 20
3.343304511145418
 30
0.0
 40
0.5
  1
15.0
100
AcDbAttributeDefinition
  3

  2
D1
 70
     8
280
     0
  0
ATTDEF
  5
8E
330
80
100
AcDbEntity
  8
AM_6
100
AcDbText
 10
179.769465723032
 20
2.843304511145418
 30
0.0
 40
0.5
  1
15 / 12
100
AcDbAttributeDefinition
  3

  2
DN
 70
     8
280
     0
  0
ATTDEF
  5
8F
330
80
100
AcDbEntity
  8
AM_6
100
AcDbText
 10
179.769465723032
 20
2.343304511145418
 30
0.0
 40
0.5
  1
2.9
100
AcDbAttributeDefinition
  3

  2
L
 70
     8
280
     0
  0
ATTDEF
  5
90
330
80
100
AcDbEntity
  8
AM_6
100
AcDbText
 10
179.769465723032
 20
1.843304511145418
 30
0.0
 40
0.5
  1
12.7
100
AcDbAttributeDefinition
  3

  2
L1
 70
     8
280
     0
  0
ATTDEF
  5
91
330
80
100
AcDbEntity
  8
AM_6
100
AcDbText
 10
179.769465723032
 20
1.343304511145418
 30
0.0
 40
0.5
  1
6.8
100
AcDbAttributeDefinition
  3

  2
LL1
 70
     8
280
     0
  0
ATTDEF
  5
92
330
80
100
AcDbEntity
  8
AM_6
100
AcDbText
 10
179.769465723032
 20
0.8433045111454183
 30
0.0
 40
0.5
  1
10.0
100
AcDbAttributeDefinition
  3

  2
Z
 70
     8
280
     0
  0
ATTDEF
  5
93
330
80
100
AcDbEntity
  8
AM_6
100
AcDbText
 10
179.769465723032
 20
0.3433045111454183
 30
0.0
 40
0.5
  1
1.7
100
AcDbAttributeDefinition
  3

  2
Z1
 70
     8
280
     0
  0
ATTDEF
  5
94
330
80
100
AcDbEntity
  8
AM_6
100
AcDbText
 10
179.769465723032
 20
-0.1566954888545817
 30
0.0
 40
0.5
  1
2.150
100
AcDbAttributeDefinition
  3

  2
L1X
 70
     8
280
     0
  0
ATTDEF
  5
95
330
80
100
AcDbEntity
  8
AM_6
100
AcDbText
 10
179.769465723032
 20
-0.6566954888545817
 30
0.0
 40
0.5
  1
2.7
100
AcDbAttributeDefinition
  3

  2
R
 70
     8
280
     0
  0
ATTDEF
  5
96
330
80
100
AcDbEntity
  8
AM_6
100
AcDbText
 10
179.769465723032
 20
-1.156695488854582
 30
0.0
 40
0.5
  1
20.0
100
AcDbAttributeDefinition
  3

  2
DX
 70
     8
280
     0
  0
ATTDEF
  5
97
330
80
100
AcDbEntity
  8
AM_6
100
AcDbText
 10
179.769465723032
 20
-1.656695488854582
 30
0.0
 40
0.5
  1
2.25
100
AcDbAttributeDefinition
  3

  2
DXX
 70
     8
280
     0
  0
ATTDEF
  5
98
330
80
100
AcDbEntity
  8
AM_6
100
AcDbText
 10
179.769465723032
 20
-2.156695488854582
 30
0.0
 40
0.5
  1
3.002
100
AcDbAttributeDefinition
  3

  2
LX
 70
     8
280
     0
  0
ATTDEF
  5
99
330
80
100
AcDbEntity
  8
AM_6
100
AcDbText
 10
179.769465723032
 20
-2.656695488854582
 30
0.0
 40
0.5
  1
24.0
100
AcDbAttributeDefinition
  3

  2
ANGLE
 70
     8
280
     0
  0
ATTDEF
  5
9A
330
80
100
AcDbEntity
  8
AM_6
100
AcDbText
 10
179.769465723032
 20
-3.156695488854582
 30
0.0
 40
0.5
  1
geberit
100
AcDbAttributeDefinition
  3

  2
COMPANY
 70
     8
280
     0
  0
LINE
  5
9D
330
80
100
AcDbEntity
  8
VER
100
AcDbLine
 10
121.7750064802281
 20
-4.927716655626297
 30
0.0
 11
117.1966527196653
 21
-10.35
 31
0.0
  0
LINE
  5
9E
330
80
100
AcDbEntity
  8
VER
100
AcDbLine
 10
121.7750064802281
 20
-4.927716655626297
 30
0.0
 11
122.2877184315275
 21
-4.349428434214072
 31
0.0
  0
ARC
  5
9F
330
80
100
AcDbEntity
  8
VER
100
AcDbCircle
 10
116.5
 20
8.650000000000066
 30
0.0
 40
28.50000000000006
100
AcDbArc
 50
270.0000000000001
 51
294.0000000000001
  0
LINE
  5
A0
330
80
100
AcDbEntity
  8
VER
100
AcDbLine
 10
27.07273054397015
 20
-4.606797250358207
 30
0.0
 11
20.56953378488638
 21
-10.35
 31
0.0
  0
LWPOLYLINE
  5
A1
330
80
100
AcDbEntity
  8
VER
100
AcDbPolyline
 90
       21
 70
     0
 43
0.0
 10
27.07273054397015
 20
-4.606797250358207
 10
27.55536394847164
 20
-4.198344868218685
 10
28.05261440548182
 20
-3.812205456121519
 10
28.56523639558094
 20
-3.44753976490346
 10
29.09029316747683
 20
-3.106182087137067
 10
29.63639029741514
 20
-2.782950076272439
 10
30.19292119826384
 20
-2.484505401155284
 10
30.76053992119472
 20
-2.210198825324453
 10
31.33600286085224
 20
-1.961282405521759
 10
31.90215080374337
 20
-1.743563944941985
 10
32.47289968673077
 20
-1.550096141849602
 10
33.04841712729563
 20
-1.380404896174229
 10
33.62507310561272
 20
-1.235063641946161
 10
34.21020034869804
 20
-1.112094629595754
 10
34.79093680092436
 20
-1.013854963984293
 10
35.3651290158097
 20
-0.9395790340743247
 10
35.92251004199078
 20
-0.8888937096698178
 10
36.22348891910104
 20
-0.8702162733596985
 10
36.51137229552693
 20
-0.8580259987017208
 10
36.77570606392565
 20
-0.8517070619854851
 10
37.00200000000001
 20
-0.8499999999999966
  0
ARC
  5
A2
330
80
100
AcDbEntity
  8
VER
100
AcDbCircle
 10
32.64723819589891
 20
-28.98703305156428
 30
0.0
 40
28.50000000000157
100
AcDbArc
 50
75.00000000000031
 51
81.2107383266114
  0
ARC
  5
A3
330
80
100
AcDbEntity
  8
VER
100
AcDbCircle
 10
32.64723819589918
 20
-28.98703305156278
 30
0.0
 40
11.50000000000004
100
AcDbArc
 50
75.0000000000001
 51
110.0
  0
LINE
  5
A4
330
80
100
AcDbEntity
  8
VER
100
AcDbLine
 10
37.00200000000001
 20
-0.8216988763028186
 30
0.0
 11
37.00200000000001
 21
-0.8500000000021605
 31
0.0
  0
ARC
  5
A5
330
80
100
AcDbEntity
  8
VER
100
AcDbCircle
 10
-32.76946572303188
 20
-27.89181830569952
 30
0.0
 40
28.49999999999551
100
AcDbArc
 50
87.92417511965523
 51
90.00000000000024
  0
ARC
  5
A6
330
80
100
AcDbEntity
  8
VER
100
AcDbCircle
 10
-32.76946572303206
 20
-27.891818305704
 30
0.0
 40
11.49999999999999
100
AcDbArc
 50
65.99999999999979
 51
89.99999999999986
  0
LWPOLYLINE
  5
A7
330
80
100
AcDbEntity
  8
VER
100
AcDbPolyline
 90
       20
 70
     0
 43
0.0
 10
-31.7399936238279
 20
0.5895824180961732
 10
-31.73234735730973
 20
0.5884895584174907
 10
-31.69690144632851
 20
0.5833741524690904
 10
-31.6158538693113
 20
0.5713731144778397
 10
-31.50262336222733
 20
0.5538954036372723
 10
-31.33267141823864
 20
0.5260842331299367
 10
-31.14269170502011
 20
0.4928011899864627
 10
-30.71907094540606
 20
0.4099969520661613
 10
-30.14988263886845
 20
0.2795894747878506
 10
-29.56232199375089
 20
0.1220022095604654
 10
-28.96818460847303
 20
-0.0618192707094632
 10
-28.06002809780921
 20
-0.393541863873801
 10
-27.16073332515657
 20
-0.7854076673285368
 10
-26.34631573744413
 20
-1.199459711721476
 10
-25.54966514248517
 20
-1.66366768200662
 10
-24.77584487859058
 20
-2.176555071589718
 10
-24.00640666882999
 20
-2.755009550613271
 10
-23.26730027914763
 20
-3.383834828133034
 10
-22.56334396563686
 20
-4.060589883659388
 10
-22.28771843152755
 20
-4.349428434214071
  0
LINE
  5
A8
330
80
100
AcDbEntity
  8
VER
100
AcDbLine
 10
79.43046621511363
 20
-10.35
 30
0.0
 11
72.92726945602982
 21
-4.6067972503582
 31
0.0
  0
LINE
  5
A9
330
80
100
AcDbEntity
  8
VER
100
AcDbLine
 10
117.1966527196653
 20
-10.35
 30
0.0
 11
79.43046621511363
 21
-10.35
 31
0.0
  0
ARC
  5
AA
330
80
100
AcDbEntity
  8
VER
100
AcDbCircle
 10
81.03356753712768
 20
8.600671779873885
 30
0.0
 40
28.50000000000031
100
AcDbArc
 50
250.0
 51
267.9174655838268
  0
LINE
  5
AB
330
80
100
AcDbEntity
  8
VER
100
AcDbLine
 10
-50.0
 20
-16.39181830570401
 30
0.0
 11
-32.76946572303199
 21
-16.39181830570401
 31
0.0
  0
LINE
  5
AC
330
80
100
AcDbEntity
  8
VER
100
AcDbLine
 10
-32.76946572303199
 20
0.6081816942959914
 30
0.0
 11
-50.0
 21
0.6081816942959914
 31
0.0
  0
LINE
  5
AD
330
80
100
AcDbEntity
  8
VER
100
AcDbLine
 10
57.0
 20
-1.849999999999996
 30
0.0
 11
43.0
 21
-1.849999999999996
 31
0.0
  0
LINE
  5
AE
330
80
100
AcDbEntity
  8
VER
100
AcDbLine
 10
43.0
 20
-18.85
 30
0.0
 11
57.0
 21
-18.85
 31
0.0
  0
LINE
  5
AF
330
80
100
AcDbEntity
  8
VER
100
AcDbLine
 10
79.998
 20
-19.85
 30
0.0
 11
116.5
 21
-19.85
 31
0.0
  0
LINE
  5
B0
330
80
100
AcDbEntity
  8
VER
100
AcDbLine
 10
-17.19665271966528
 20
-10.35
 30
0.0
 11
-21.77500648022808
 21
-4.927716655626293
 31
0.0
  0
LINE
  5
B1
330
80
100
AcDbEntity
  8
VER
100
AcDbLine
 10
-22.28771843152755
 20
-4.349428434214077
 30
0.0
 11
-21.77500648022808
 21
-4.927716655626293
 31
0.0
  0
LINE
  5
B2
330
80
100
AcDbEntity
  8
VER
100
AcDbLine
 10
20.56953378488638
 20
-10.35
 30
0.0
 11
-17.19665271966528
 21
-10.35
 31
0.0
  0
ARC
  5
B3
330
80
100
AcDbEntity
  8
VER
100
AcDbCircle
 10
-16.49999999999999
 20
8.65000000000013
 30
0.0
 40
28.50000000000013
100
AcDbArc
 50
246.0000000000001
 51
269.9999999999999
  0
ARC
  5
B4
330
80
100
AcDbEntity
  8
VER
100
AcDbCircle
 10
18.96643246287245
 20
8.600671779873505
 30
0.0
 40
28.49999999999991
100
AcDbArc
 50
272.0828084710267
 51
289.9999999999999
  0
ARC
  5
B5
330
80
100
AcDbEntity
  8
VER
100
AcDbCircle
 10
56.99999999999999
 20
9.65000000000024
 30
0.0
 40
28.50000000000024
100
AcDbArc
 50
270.0
 51
284.9999999999999
  0
ARC
  5
B6
330
80
100
AcDbEntity
  8
VER
100
AcDbCircle
 10
57.0000000000001
 20
9.649999999999379
 30
0.0
 40
11.49999999999937
100
AcDbArc
 50
271.3742671116373
 51
285.0000000000003
  0
LINE
  5
B7
330
80
100
AcDbEntity
  8
VER
100
AcDbLine
 10
150.0
 20
0.6081816942959914
 30
0.0
 11
132.769465723032
 21
0.6081816942959914
 31
0.0
  0
LINE
  5
B8
330
80
100
AcDbEntity
  8
VER
100
AcDbLine
 10
132.769465723032
 20
-16.39181830570401
 30
0.0
 11
150.0
 21
-16.39181830570401
 31
0.0
  0
LINE
  5
B9
330
80
100
AcDbEntity
  8
VER
100
AcDbLine
 10
62.998
 20
-0.8500000000014128
 30
0.0
 11
62.998
 21
-0.8216988689956312
 31
0.0
  0
LWPOLYLINE
  5
BA
330
80
100
AcDbEntity
  8
VER
100
AcDbPolyline
 90
       19
 70
     0
 43
0.0
 10
62.998
 20
-0.8499999999999964
 10
63.19047229140649
 20
-0.8512349035982028
 10
63.42262714286183
 20
-0.8560114782775345
 10
63.68605579518844
 20
-0.8657890023295621
 10
63.9668759624934
 20
-0.8813233928545754
 10
64.39135651506616
 20
-0.914886655121985
 10
64.83045910210637
 20
-0.9623509700454205
 10
65.7400477288524
 20
-1.102757062667769
 10
66.68026815524868
 20
-1.308992427178873
 10
67.62688026362022
 20
-1.582082579960483
 10
68.21714283102607
 20
-1.787272712092236
 10
68.80307548281306
 20
-2.018835962261068
 10
69.3869442117277
 20
-2.27866338857242
 10
69.96329370630467
 20
-2.565246197805826
 10
70.54297191938028
 20
-2.885696028570095
 10
71.11178079397457
 20
-3.23387693356913
 10
71.67257088531926
 20
-3.612696955077877
 10
72.2193117401977
 20
-4.019217701686332
 10
72.92726945602982
 20
-4.6067972503582
  0
ARC
  5
BB
330
80
100
AcDbEntity
  8
VER
100
AcDbCircle
 10
67.3527618041013
 20
-28.98703305156521
 30
0.0
 40
28.50000000000252
100
AcDbArc
 50
98.79024068988835
 51
104.9999999999997
  0
ARC
  5
BC
330
80
100
AcDbEntity
  8
VER
100
AcDbCircle
 10
67.35276180410081
 20
-28.98703305156284
 30
0.0
 40
11.50000000000011
100
AcDbArc
 50
70.0
 51
104.9999999999998
  0
LWPOLYLINE
  5
BD
330
80
100
AcDbEntity
  8
VER
100
AcDbPolyline
 90
       21
 70
     0
 43
0.0
 10
122.2877184315275
 20
-4.349428434214073
 10
123.1194618769597
 20
-3.519105313188273
 10
124.0067917452786
 20
-2.754569284023522
 10
124.9541759250693
 20
-2.052535591811417
 10
125.9464476192113
 20
-1.424650310032222
 10
126.5271236458449
 20
-1.102354932600582
 10
127.1169594910829
 20
-0.8061863293447863
 10
127.7181004511739
 20
-0.5347921681452265
 10
128.3247564343638
 20
-0.2903338783679432
 10
128.9471700725566
 20
-0.0688282026810759
 10
129.5687047975593
 20
0.1241218555345924
 10
130.1905394007247
 20
0.2897595888693434
 10
130.7914396978535
 20
0.4249845546172666
 10
131.0468259409776
 20
0.4750997763803519
 10
131.2878547857422
 20
0.5184580202624224
 10
131.5012932224955
 20
0.55368515378781
 10
131.5934790734998
 20
0.567985239287482
 10
131.6689215088846
 20
0.5792789813136856
 10
131.716443017197
 20
0.5862043276250927
 10
131.7389602373221
 20
0.5894349391507562
 10
131.739993623606
 20
0.5895824180645074
  0
ARC
  5
BE
330
80
100
AcDbEntity
  8
VER
100
AcDbCircle
 10
132.7694657230314
 20
-27.89181830565319
 30
0.0
 40
28.49999999994919
100
AcDbArc
 50
89.99999999999874
 51
92.07578778311995
  0
ARC
  5
BF
330
80
100
AcDbEntity
  8
VER
100
AcDbCircle
 10
132.769465723032
 20
-27.89181830570378
 30
0.0
 40
11.49999999999977
100
AcDbArc
 50
89.99999999999972
 51
114.0000000000003
  0
LINE
  5
C0
330
80
100
AcDbEntity
  8
VER
100
AcDbLine
 10
-16.5
 20
-19.85
 30
0.0
 11
20.00200000000001
 21
-19.85
 31
0.0
  0
ARC
  5
C1
330
80
100
AcDbEntity
  8
VER
100
AcDbCircle
 10
43.00000000000014
 20
9.650000000001036
 30
0.0
 40
28.50000000000103
100
AcDbArc
 50
255.0000000000003
 51
269.9999999999997
  0
ARC
  5
C2
330
80
100
AcDbEntity
  8
VER
100
AcDbCircle
 10
43.0
 20
9.650000000000023
 30
0.0
 40
11.50000000000002
100
AcDbArc
 50
255.0
 51
268.6262401600277
  0
LINE
  5
C3
330
80
100
AcDbEntity
  8
VER
100
AcDbLine
 10
-50.0
 20
1.139879999999973
 30
0.0
 11
-62.73550845249723
 21
1.139879999999973
 31
0.0
  0
LINE
  5
C4
330
80
100
AcDbEntity
  8
VER
100
AcDbLine
 10
-62.73550845249723
 20
-16.86012
 30
0.0
 11
-50.0
 21
-16.86012
 31
0.0
  0
LINE
  5
C5
330
80
100
AcDbEntity
  8
VER
100
AcDbLine
 10
162.7355084524972
 20
1.139880000000013
 30
0.0
 11
150.0
 21
1.139880000000013
 31
0.0
  0
LINE
  5
C6
330
80
100
AcDbEntity
  8
VER
100
AcDbLine
 10
150.0
 20
-16.86012
 30
0.0
 11
162.7355084524972
 21
-16.86012
 31
0.0
  0
ARC
  5
C7
330
80
100
AcDbEntity
  8
VER
100
AcDbCircle
 10
-62.73550845249725
 20
2.639879999999931
 30
0.0
 40
1.49999999999996
100
AcDbArc
 50
235.0000000000002
 51
270.0000000000007
  0
ARC
  5
C8
330
80
100
AcDbEntity
  8
VER
100
AcDbCircle
 10
-62.73550845249724
 20
-18.36012000000003
 30
0.0
 40
1.500000000000028
100
AcDbArc
 50
89.99999999999973
 51
124.9999999999987
  0
ARC
  5
C9
330
80
100
AcDbEntity
  8
VER
100
AcDbCircle
 10
162.7355084524973
 20
2.639879999999773
 30
0.0
 40
1.499999999999754
100
AcDbArc
 50
269.9999999999979
 51
305.0000000000022
  0
ARC
  5
CA
330
80
100
AcDbEntity
  8
VER
100
AcDbCircle
 10
162.7355084524973
 20
-18.36011999999976
 30
0.0
 40
1.499999999999755
100
AcDbArc
 50
54.9999999999977
 51
90.00000000000217
  0
LINE
  5
CB
330
80
100
AcDbEntity
  8
VER
100
AcDbLine
 10
-68.89999999999999
 20
1.539879999999971
 30
0.0
 11
-69.59999999999998
 21
1.539879999999971
 31
0.0
  0
LINE
  5
CC
330
80
100
AcDbEntity
  8
VER
100
AcDbLine
 10
-69.59999999999998
 20
-17.26012
 30
0.0
 11
-68.89999999999999
 21
-17.26012
 31
0.0
  0
LINE
  5
CD
330
80
100
AcDbEntity
  8
VER
100
AcDbLine
 10
169.6
 20
1.539880000000006
 30
0.0
 11
168.9
 21
1.539880000000006
 31
0.0
  0
LINE
  5
CE
330
80
100
AcDbEntity
  8
VER
100
AcDbLine
 10
168.9
 20
-17.26012
 30
0.0
 11
169.6
 21
-17.26012
 31
0.0
  0
LINE
  5
CF
330
80
100
AcDbEntity
  8
VER
100
AcDbLine
 10
-68.89999999999999
 20
-17.26012
 30
0.0
 11
-68.89999999999999
 21
1.539879999999971
 31
0.0
  0
LINE
  5
D0
330
80
100
AcDbEntity
  8
VER
100
AcDbLine
 10
-68.89999999999999
 20
-17.26012
 30
0.0
 11
-68.49999999999999
 21
-17.66011999999998
 31
0.0
  0
LINE
  5
D1
330
80
100
AcDbEntity
  8
VER
100
AcDbLine
 10
-68.49999999999999
 20
1.939879999999955
 30
0.0
 11
-68.89999999999999
 21
1.539879999999971
 31
0.0
  0
LINE
  5
D2
330
80
100
AcDbEntity
  8
VER
100
AcDbLine
 10
-69.59999999999998
 20
-17.26012
 30
0.0
 11
-69.59999999999998
 21
1.539879999999971
 31
0.0
  0
LINE
  5
D3
330
80
100
AcDbEntity
  8
VER
100
AcDbLine
 10
-69.59999999999998
 20
1.539879999999971
 30
0.0
 11
-69.99999999999999
 21
1.939879999999955
 31
0.0
  0
LINE
  5
D4
330
80
100
AcDbEntity
  8
VER
100
AcDbLine
 10
-69.99999999999999
 20
-17.66011999999998
 30
0.0
 11
-69.59999999999998
 21
-17.26012
 31
0.0
  0
LINE
  5
D5
330
80
100
AcDbEntity
  8
VER
100
AcDbLine
 10
168.9
 20
-17.26012
 30
0.0
 11
168.9
 21
1.539880000000006
 31
0.0
  0
LINE
  5
D6
330
80
100
AcDbEntity
  8
VER
100
AcDbLine
 10
168.9
 20
1.539880000000006
 30
0.0
 11
168.5
 21
1.939880000000003
 31
0.0
  0
LINE
  5
D7
330
80
100
AcDbEntity
  8
VER
100
AcDbLine
 10
168.5
 20
-17.66012
 30
0.0
 11
168.9
 21
-17.26012
 31
0.0
  0
LINE
  5
D8
330
80
100
AcDbEntity
  8
VER
100
AcDbLine
 10
169.6
 20
-17.26012
 30
0.0
 11
169.6
 21
1.539880000000006
 31
0.0
  0
LINE
  5
D9
330
80
100
AcDbEntity
  8
VER
100
AcDbLine
 10
169.6
 20
-17.26012
 30
0.0
 11
170.0
 21
-17.66012
 31
0.0
  0
LINE
  5
DA
330
80
100
AcDbEntity
  8
VER
100
AcDbLine
 10
170.0
 20
1.939880000000003
 30
0.0
 11
169.6
 21
1.539880000000006
 31
0.0
  0
ARC
  5
DB
330
80
100
AcDbEntity
  8
VER
100
AcDbCircle
 10
67.35276180410088
 20
-28.98703305156312
 30
0.0
 40
30.00000000000038
100
AcDbArc
 50
100.2780568477512
 51
104.9999999999999
  0
ARC
  5
DC
330
80
100
AcDbEntity
  8
VER
100
AcDbCircle
 10
32.64723819589771
 20
-28.98703305156948
 30
0.0
 40
30.0000000000069
100
AcDbArc
 50
75.00000000000063
 51
79.72194315224834
  0
ARC
  5
DD
330
80
100
AcDbEntity
  8
VER
100
AcDbCircle
 10
56.99999999999999
 20
9.650000000000132
 30
0.0
 40
10.00000000000013
100
AcDbArc
 50
272.8330381512461
 51
284.9999999999999
  0
LINE
  5
DE
330
80
100
AcDbEntity
  8
VER
100
AcDbLine
 10
59.58819045102521
 20
-0.0092582628906779
 30
0.0
 11
62.0
 21
-9.010254037844375
 31
0.0
  0
LINE
  5
DF
330
80
100
AcDbEntity
  8
VER
100
AcDbLine
 10
57.0
 20
-19.49999999999999
 30
0.0
 11
57.0
 21
-1.849999999999996
 31
0.0
  0
LINE
  5
E0
330
80
100
AcDbEntity
  8
VER
100
AcDbLine
 10
12.00000000000001
 20
-8.849999999999996
 30
0.0
 11
-12.0
 21
-8.849999999999998
 31
0.0
  0
LINE
  5
E1
330
80
100
AcDbEntity
  8
VER
100
AcDbLine
 10
38.00000000000001
 20
-9.010254037844375
 30
0.0
 11
40.41180954897479
 21
-0.0092582628906779
 31
0.0
  0
ARC
  5
E2
330
80
100
AcDbEntity
  8
VER
100
AcDbCircle
 10
43.00000000000016
 20
9.65000000000098
 30
0.0
 40
10.00000000000098
100
AcDbArc
 50
255.0000000000006
 51
267.1752133564494
  0
LINE
  5
E3
330
80
100
AcDbEntity
  8
VER
100
AcDbLine
 10
43.0
 20
-19.49999999999999
 30
0.0
 11
43.0
 21
-1.849999999999996
 31
0.0
  0
LINE
  5
E4
330
80
100
AcDbEntity
  8
VER
100
AcDbLine
 10
-63.59587310702379
 20
-17.1313919335665
 30
0.0
 11
-63.59587310702379
 21
1.411151933566475
 31
0.0
  0
LINE
  5
E5
330
80
100
AcDbEntity
  8
VER
100
AcDbLine
 10
-63.59587310702379
 20
1.411151933566475
 30
0.0
 11
-66.61170827637874
 21
3.522862453146759
 31
0.0
  0
LINE
  5
E6
330
80
100
AcDbEntity
  8
VER
100
AcDbLine
 10
-66.61170827637874
 20
-19.24310245314679
 30
0.0
 11
-63.59587310702379
 21
-17.1313919335665
 31
0.0
  0
LINE
  5
E7
330
80
100
AcDbEntity
  8
VER
100
AcDbLine
 10
163.5958731070238
 20
-17.13139193356651
 30
0.0
 11
163.5958731070238
 21
1.41115193356652
 31
0.0
  0
LINE
  5
E8
330
80
100
AcDbEntity
  8
VER
100
AcDbLine
 10
163.5958731070238
 20
-17.13139193356651
 30
0.0
 11
166.6117082763787
 21
-19.24310245314681
 31
0.0
  0
LINE
  5
E9
330
80
100
AcDbEntity
  8
VER
100
AcDbLine
 10
166.6117082763787
 20
3.522862453146815
 30
0.0
 11
163.5958731070238
 21
1.41115193356652
 31
0.0
  0
LINE
  5
EA
330
80
100
AcDbEntity
  8
VER
100
AcDbLine
 10
-66.61170827637874
 20
-19.24310245314679
 30
0.0
 11
-66.61170827637874
 21
3.522862453146759
 31
0.0
  0
LINE
  5
EB
330
80
100
AcDbEntity
  8
VER
100
AcDbLine
 10
-68.5
 20
-18.26012
 30
0.0
 11
-68.5
 21
2.539879999764935
 31
0.0
  0
ARC
  5
EC
330
80
100
AcDbEntity
  8
VER
100
AcDbCircle
 10
-67.30000000000001
 20
2.539879999999978
 30
0.0
 40
1.200000000000005
100
AcDbArc
 50
54.99999999999893
 51
180.0000000000003
  0
ARC
  5
ED
330
80
100
AcDbEntity
  8
VER
100
AcDbCircle
 10
-67.30000000000001
 20
-18.26012
 30
0.0
 40
1.199999999999989
100
AcDbArc
 50
179.9999999999997
 51
305.000000000001
  0
LINE
  5
EE
330
80
100
AcDbEntity
  8
VER
100
AcDbLine
 10
168.5
 20
-18.26012
 30
0.0
 11
168.5
 21
2.53987999976497
 31
0.0
  0
LINE
  5
EF
330
80
100
AcDbEntity
  8
VER
100
AcDbLine
 10
166.6117082763787
 20
-19.24310245314681
 30
0.0
 11
166.6117082763787
 21
3.522862453146813
 31
0.0
  0
ARC
  5
F0
330
80
100
AcDbEntity
  8
VER
100
AcDbCircle
 10
167.3
 20
2.539880000000027
 30
0.0
 40
1.200000000000017
100
AcDbArc
 50
359.999999999999
 51
124.9999999999993
  0
ARC
  5
F1
330
80
100
AcDbEntity
  8
VER
100
AcDbCircle
 10
167.3
 20
-18.26012000000002
 30
0.0
 40
1.199999999999987
100
AcDbArc
 50
235.0000000000009
 51
0.0000000000010178
  0
LINE
  5
F2
330
80
100
AcDbEntity
  8
VER
100
AcDbLine
 10
42.5
 20
-0.0316954888545868
 30
0.0
 11
42.5
 21
-1.499999999999994
 31
0.0
  0
LINE
  5
F3
330
80
100
AcDbEntity
  8
VER
100
AcDbLine
 10
57.5
 20
-1.499999999999994
 30
0.0
 11
57.5
 21
-0.0316954888545868
 31
0.0
  0
ELLIPSE
  5
F4
330
80
100
AcDbEntity
  8
VER
100
AcDbEllipse
 10
49.99999999999999
 20
-0.7658477444272993
 30
0.0
 11
7.500000000000021
 21
-2.848232278972487E-14
 31
0.0
210
0.0
220
0.0
230
1.0
 40
0.9510565162951532
 41
0.0000000000000039
 42
1.570796326794898
  0
ELLIPSE
  5
F5
330
80
100
AcDbEntity
  8
VER
100
AcDbEllipse
 10
50.0
 20
-0.7658477444272971
 30
0.0
 11
7.500000000000021
 21
-1.836970198721035E-15
 31
0.0
210
0.0
220
0.0
230
1.0
 40
0.9510565162951525
 41
3.141592653589794
 42
6.283185307179586
  0
ELLIPSE
  5
F6
330
80
100
AcDbEntity
  8
VER
100
AcDbEllipse
 10
50.00000000000001
 20
-0.7658477444273117
 30
0.0
 11
7.500000000000021
 21
2.764455331316639E-14
 31
0.0
210
0.0
220
0.0
230
1.0
 40
0.9510565162951528
 41
1.570796326794895
 42
3.141592653589787
  0
LINE
  5
F7
330
80
100
AcDbEntity
  8
VER
100
AcDbLine
 10
54.5398237851265
 20
-9.499999999999991
 30
0.0
 11
54.5398237851265
 21
-10.49999999999998
 31
0.0
  0
LINE
  5
F8
330
80
100
AcDbEntity
  8
VER
100
AcDbLine
 10
45.46017621487351
 20
-10.49999999999998
 30
0.0
 11
45.46017621487351
 21
-9.499999999999991
 31
0.0
  0
LINE
  5
F9
330
80
100
AcDbEntity
  8
VER
100
AcDbLine
 10
58.66025403784439
 20
-10.49999999999999
 30
0.0
 11
58.66025403784439
 21
7.500000000000008
 31
0.0
  0
LINE
  5
FA
330
80
100
AcDbEntity
  8
VER
100
AcDbLine
 10
41.33974596215562
 20
-10.49999999999999
 30
0.0
 11
41.33974596215562
 21
7.500000000000008
 31
0.0
  0
LINE
  5
FB
330
80
100
AcDbEntity
  8
VER
100
AcDbLine
 10
45.46017621487351
 20
-9.499999999999991
 30
0.0
 11
54.5398237851265
 21
-9.499999999999991
 31
0.0
  0
CIRCLE
  5
FC
330
80
100
AcDbEntity
  8
VER
100
AcDbCircle
 10
50.0
 20
-1.499999999999991
 30
0.0
 40
7.5
  0
LINE
  5
FD
330
80
100
AcDbEntity
  8
VER
100
AcDbLine
 10
43.5
 20
4.000000000000009
 30
0.0
 11
56.50000000000001
 21
4.000000000000009
 31
0.0
  0
LINE
  5
FE
330
80
100
AcDbEntity
  8
VER
100
AcDbLine
 10
56.50000000000001
 20
-9.999999999999991
 30
0.0
 11
56.50000000000001
 21
4.000000000000009
 31
0.0
  0
LINE
  5
FF
330
80
100
AcDbEntity
  8
VER
100
AcDbLine
 10
43.5
 20
4.000000000000009
 30
0.0
 11
43.5
 21
-9.999999999999991
 31
0.0
  0
LINE
  5
100
330
80
100
AcDbEntity
  8
VER
100
AcDbLine
 10
43.5
 20
-9.999999999999991
 30
0.0
 11
56.50000000000001
 21
-9.999999999999991
 31
0.0
  0
LINE
  5
101
330
80
100
AcDbEntity
  8
VER
100
AcDbLine
 10
43.5
 20
-9.999999999999991
 30
0.0
 11
43.0
 21
-10.49999999999999
 31
0.0
  0
LINE
  5
102
330
80
100
AcDbEntity
  8
VER
100
AcDbLine
 10
57.00000000000001
 20
-10.49999999999999
 30
0.0
 11
56.50000000000001
 21
-9.999999999999991
 31
0.0
  0
LINE
  5
103
330
80
100
AcDbEntity
  8
VER
100
AcDbLine
 10
59.00000000000001
 20
-16.49999999999999
 30
0.0
 11
59.00000000000001
 21
-10.49999999999999
 31
0.0
  0
LINE
  5
104
330
80
100
AcDbEntity
  8
VER
100
AcDbLine
 10
40.99999999999999
 20
-10.49999999999999
 30
0.0
 11
40.99999999999999
 21
-16.49999999999999
 31
0.0
  0
LINE
  5
105
330
80
100
AcDbEntity
  8
VER
100
AcDbLine
 10
40.99999999999999
 20
-16.49999999999999
 30
0.0
 11
59.00000000000001
 21
-16.49999999999999
 31
0.0
  0
LINE
  5
106
330
80
100
AcDbEntity
  8
VER
100
AcDbLine
 10
40.99999999999999
 20
-16.49999999999999
 30
0.0
 11
39.26794919243114
 21
-19.49999999999999
 31
0.0
  0
LINE
  5
107
330
80
100
AcDbEntity
  8
VER
100
AcDbLine
 10
60.73205080756887
 20
-19.49999999999999
 30
0.0
 11
59.00000000000001
 21
-16.49999999999999
 31
0.0
  0
CIRCLE
  5
108
330
80
100
AcDbEntity
  8
VER
100
AcDbCircle
 10
50.0
 20
-0.0316954888545835
 30
0.0
 40
7.500000000000002
  0
LINE
  5
10B
330
80
100
AcDbEntity
  8
MITTE
100
AcDbLine
 10
42.125
 20
-1.499999999999991
 30
0.0
 11
57.875
 21
-1.499999999999991
 31
0.0
  0
LINE
  5
10C
330
80
100
AcDbEntity
  8
MITTE
100
AcDbLine
 10
58.25
 20
-15.03169548885459
 30
0.0
 11
41.75
 21
-15.03169548885459
 31
0.0
  0
LINE
  5
10D
330
80
100
AcDbEntity
  8
MITTE
100
AcDbLine
 10
-30.76946572303199
 20
-7.891818305704009
 30
0.0
 11
-74.76946572303198
 21
-7.891818305704009
 31
0.0
  0
LINE
  5
10E
330
80
100
AcDbEntity
  8
MITTE
100
AcDbLine
 10
-71.11266099591249
 20
-7.860120000000012
 30
0.0
 11
-46.63411908583715
 21
-7.860120000000012
 31
0.0
  0
LINE
  5
10F
330
80
100
AcDbEntity
  8
MITTE
100
AcDbLine
 10
130.769465723032
 20
-7.891818305704009
 30
0.0
 11
174.769465723032
 21
-7.891818305704009
 31
0.0
  0
LINE
  5
110
330
80
100
AcDbEntity
  8
MITTE
100
AcDbLine
 10
146.6341190858372
 20
-7.860119999999995
 30
0.0
 11
171.1126609959125
 21
-7.860119999999995
 31
0.0
  0
LINE
  5
111
330
80
100
AcDbEntity
  8
MITTE
100
AcDbLine
 10
-18.32509999999998
 20
-11.35
 30
0.0
 11
21.82710000000001
 21
-11.35
 31
0.0
  0
LINE
  5
112
330
80
100
AcDbEntity
  8
MITTE
100
AcDbLine
 10
78.17290000000003
 20
-11.35
 30
0.0
 11
118.3251
 21
-11.35
 31
0.0
  0
LINE
  5
113
330
80
100
AcDbEntity
  8
MITTE
100
AcDbLine
 10
42.3
 20
-10.35
 30
0.0
 11
57.7
 21
-10.35
 31
0.0
  0
LINE
  5
114
330
80
100
AcDbEntity
  8
MITTE
100
AcDbLine
 10
42.125
 20
-0.0316954888545835
 30
0.0
 11
57.875
 21
-0.0316954888545835
 31
0.0
  0
LINE
  5
115
330
80
100
AcDbEntity
  8
MITTE
100
AcDbLine
 10
50.0
 20
-20.67499999999999
 30
0.0
 11
50.0
 21
7.843304511145418
 31
0.0
  0
LINE
  5
117
330
80
100
AcDbEntity
  8
050
100
AcDbLine
 10
73.92019640163284
 20
-3.482476975394044
 30
0.0
 11
79.998
 21
-8.849999999999996
 31
0.0
  0
LWPOLYLINE
  5
118
330
80
100
AcDbEntity
  8
050
100
AcDbPolyline
 90
       20
 70
     0
 43
0.0
 10
73.92019640163284
 20
-3.482476975394044
 10
73.37772041548705
 20
-3.023800091362878
 10
72.81828857771112
 20
-2.59059080311357
 10
72.24107415268286
 20
-2.181950387564179
 10
71.64940479797433
 20
-1.79997526615748
 10
71.03356297857067
 20
-1.43890262272074
 10
70.4055763097918
 20
-1.106261898195183
 10
69.76472706831296
 20
-0.8013653515356716
 10
69.11475370202531
 20
-0.525662358563109
 10
68.47692835041298
 20
-0.2862169081215673
 10
67.83382097829306
 20
-0.07454959546636
 10
67.18529972173948
 20
0.1098408839286504
 10
66.53559684092302
 20
0.2663087768599026
 10
65.87643928122428
 20
0.3969870223467942
 10
65.22282437767885
 20
0.4993166979077734
 10
64.57762194510121
 20
0.5742136649081225
 10
63.95389202838405
 20
0.6222879537140137
 10
63.44473598087143
 20
0.6439512235059954
 10
63.20956651840559
 20
0.6486435687389099
 10
62.998
 20
0.6500000000000029
  0
LINE
  5
119
330
80
100
AcDbEntity
  8
050
100
AcDbLine
 10
62.998
 20
0.6499999999984526
 30
0.0
 11
62.998
 21
0.6952183729195326
 31
0.0
  0
ARC
  5
11A
330
80
100
AcDbEntity
  8
050
100
AcDbCircle
 10
67.35276180409647
 20
-28.98703305153677
 30
0.0
 40
29.99999999997368
100
AcDbArc
 50
98.34775327588574
 51
100.2780568477519
  0
ARC
  5
11B
330
80
100
AcDbEntity
  8
050
100
AcDbCircle
 10
67.35276180410081
 20
-28.98703305156286
 30
0.0
 40
10.00000000000013
100
AcDbArc
 50
70.00000000000016
 51
104.9999999999997
  0
LINE
  5
11C
330
80
100
AcDbEntity
  8
050
100
AcDbLine
 10
79.99800000000002
 20
-11.36124255698219
 30
0.0
 11
79.998
 21
-21.35
 31
0.0
  0
LINE
  5
11D
330
80
100
AcDbEntity
  8
050
100
AcDbLine
 10
79.998
 20
-21.05410250487683
 30
0.0
 11
79.98658263605255
 21
-21.38105303069928
 31
0.0
  0
LINE
  5
11E
330
80
100
AcDbEntity
  8
050
100
AcDbLine
 10
79.998
 20
-8.849999999999996
 30
0.0
 11
116.5
 21
-8.849999999999998
 31
0.0
  0
LINE
  5
11F
330
80
100
AcDbEntity
  8
050
100
AcDbLine
 10
75.97513267589078
 20
-5.297263779156623
 30
0.0
 11
70.77296323735752
 21
-19.59010684370365
 31
0.0
  0
ARC
  5
120
330
80
100
AcDbEntity
  8
050
100
AcDbCircle
 10
81.03356753712757
 20
8.600671779873572
 30
0.0
 40
29.99999999999997
100
AcDbArc
 50
250.0
 51
267.9999999999999
  0
LWPOLYLINE
  5
121
330
80
100
AcDbEntity
  8
050
100
AcDbPolyline
 90
       19
 70
     0
 43
0.0
 10
37.00200000000001
 20
0.6500000000023826
 10
36.81207073838598
 20
0.6489068388054983
 10
36.59867111642056
 20
0.6450697425524925
 10
36.11607479639165
 20
0.6261990924366897
 10
35.59457902491454
 20
0.5898651514813126
 10
35.04473231963196
 20
0.5335009453836788
 10
34.51634275766976
 20
0.4616985036400167
 10
33.9804907794779
 20
0.370988935027976
 10
32.89443802216159
 20
0.1305486325788129
 10
31.79225529870339
 20
-0.1940567148666496
 10
30.69532708793286
 20
-0.6028403700819956
 10
30.09278947936693
 20
-0.8662484677042969
 10
29.49666508328828
 20
-1.155785227240346
 10
28.90652129919748
 20
-1.472475018110605
 10
28.32544981925465
 20
-1.815489785496329
 10
27.74557443456134
 20
-2.190988844301538
 10
27.17772467229931
 20
-2.593544429768126
 10
26.6213431238221
 20
-3.024557987380613
 10
26.07980359835089
 20
-3.482476975408404
  0
LINE
  5
122
330
80
100
AcDbEntity
  8
050
100
AcDbLine
 10
20.002
 20
-8.849999999999996
 30
0.0
 11
26.07980359835089
 21
-3.482476975408404
 31
0.0
  0
ARC
  5
123
330
80
100
AcDbEntity
  8
050
100
AcDbCircle
 10
32.6472381958984
 20
-28.98703305156709
 30
0.0
 40
30.00000000000443
100
AcDbArc
 50
79.72194315224883
 51
81.65337628981246
  0
ARC
  5
124
330
80
100
AcDbEntity
  8
050
100
AcDbCircle
 10
32.64723819589918
 20
-28.98703305156277
 30
0.0
 40
10.00000000000004
100
AcDbArc
 50
75.00000000000006
 51
109.9999999999999
  0
LINE
  5
125
330
80
100
AcDbEntity
  8
050
100
AcDbLine
 10
37.00200000000001
 20
0.6952183664920671
 30
0.0
 11
37.00200000000001
 21
0.6500000000023838
 31
0.0
  0
LINE
  5
126
330
80
100
AcDbEntity
  8
050
100
AcDbLine
 10
147.7467800817495
 20
2.108181694295991
 30
0.0
 11
132.7694657230321
 21
2.108181694295991
 31
0.0
  0
LINE
  5
127
330
80
100
AcDbEntity
  8
050
100
AcDbLine
 10
132.7694657230321
 20
-17.89181830570401
 30
0.0
 11
147.8159599390337
 21
-17.89181830570401
 31
0.0
  0
ARC
  5
128
330
80
100
AcDbEntity
  8
050
100
AcDbCircle
 10
56.99999999999985
 20
9.650000000001189
 30
0.0
 40
30.00000000000119
100
AcDbArc
 50
270.0000000000002
 51
284.9999999999996
  0
LINE
  5
129
330
80
100
AcDbEntity
  8
050
100
AcDbLine
 10
62.0
 20
-9.010254037844375
 30
0.0
 11
64.76457135307562
 21
-19.32777478867205
 31
0.0
  0
LINE
  5
12A
330
80
100
AcDbEntity
  8
050
100
AcDbLine
 10
20.002
 20
-21.35
 30
0.0
 11
20.00200000000001
 21
-11.36124255698218
 31
0.0
  0
LINE
  5
12B
330
80
100
AcDbEntity
  8
050
100
AcDbLine
 10
12.00000000000001
 20
-8.849999999999996
 30
0.0
 11
20.002
 21
-8.849999999999996
 31
0.0
  0
ARC
  5
12C
330
80
100
AcDbEntity
  8
050
100
AcDbCircle
 10
18.96643246287248
 20
8.60067177987327
 30
0.0
 40
29.99999999999967
100
AcDbArc
 50
271.9999999999999
 51
290.0000000000001
  0
LINE
  5
12D
330
80
100
AcDbEntity
  8
050
100
AcDbLine
 10
29.22703676264248
 20
-19.59010684370365
 30
0.0
 11
24.02486732410923
 21
-5.297263779156608
 31
0.0
  0
LINE
  5
12E
330
80
100
AcDbEntity
  8
050
100
AcDbLine
 10
20.01341736394745
 20
-21.38105303069928
 30
0.0
 11
20.002
 21
-21.05410250487683
 31
0.0
  0
LWPOLYLINE
  5
12F
330
80
100
AcDbEntity
  8
050
100
AcDbPolyline
 90
       21
 70
     0
 43
0.0
 10
-21.62972130929316
 20
-2.871542700552513
 10
-22.47417487069292
 20
-2.081704350242943
 10
-23.36229294817885
 20
-1.354346410490981
 10
-24.30447445837452
 20
-0.6813600951408038
 10
-25.28125786736465
 20
-0.0765516238196555
 10
-25.92850473344042
 20
0.2774155076951383
 10
-26.58606397703588
 20
0.6019258340239284
 10
-27.25630691592657
 20
0.8984390610399945
 10
-27.93261857015625
 20
1.16453266422129
 10
-28.62647932217391
 20
1.40454907711281
 10
-29.3187270804878
 20
1.612256191062991
 10
-29.78174979025126
 20
1.733868150445632
 10
-30.23654815533483
 20
1.840404165972891
 10
-30.67507442615655
 20
1.931235983723703
 10
-30.98060942169093
 20
1.987554366429672
 10
-31.26079893587821
 20
2.034292798096034
 10
-31.39878752808453
 20
2.055597177674967
 10
-31.51241305099894
 20
2.072295205057555
 10
-31.57184702737645
 20
2.080726272765946
 10
-31.60385252351874
 20
2.085180335691719
 10
-31.60736291213016
 20
2.085665195363912
  0
ARC
  5
130
330
80
100
AcDbEntity
  8
050
100
AcDbCircle
 10
-32.76946572303224
 20
-27.89181830571077
 30
0.0
 40
30.00000000000677
100
AcDbArc
 50
87.77217233317633
 51
89.99999999999949
  0
ARC
  5
131
330
80
100
AcDbEntity
  8
050
100
AcDbCircle
 10
-32.76946572303206
 20
-27.89181830570396
 30
0.0
 40
9.999999999999961
100
AcDbArc
 50
65.99999999999956
 51
89.99999999999983
  0
LINE
  5
132
330
80
100
AcDbEntity
  8
050
100
AcDbLine
 10
43.0
 20
-20.35
 30
0.0
 11
57.0
 21
-20.35
 31
0.0
  0
LINE
  5
133
330
80
100
AcDbEntity
  8
050
100
AcDbLine
 10
57.0
 20
-20.35
 30
0.0
 11
57.0
 21
-19.49999999999999
 31
0.0
  0
LINE
  5
134
330
80
100
AcDbEntity
  8
050
100
AcDbLine
 10
19.57582334957354
 20
-8.849999999999994
 30
0.0
 11
19.66377403271602
 21
-11.36857803887358
 31
0.0
  0
LINE
  5
135
330
80
100
AcDbEntity
  8
050
100
AcDbLine
 10
-12.0
 20
-8.849999999999998
 30
0.0
 11
-16.5
 21
-8.849999999999998
 31
0.0
  0
LINE
  5
136
330
80
100
AcDbEntity
  8
050
100
AcDbLine
 10
20.00200000000001
 20
-11.36124255698218
 30
0.0
 11
19.66377403271602
 21
-11.36857803887358
 31
0.0
  0
LINE
  5
137
330
80
100
AcDbEntity
  8
050
100
AcDbLine
 10
-16.5
 20
-21.35
 30
0.0
 11
20.002
 21
-21.35
 31
0.0
  0
LINE
  5
138
330
80
100
AcDbEntity
  8
050
100
AcDbLine
 10
-32.76946572303203
 20
-17.89181830570401
 30
0.0
 11
-32.76946572303201
 21
2.108181694295992
 31
0.0
  0
LINE
  5
139
330
80
100
AcDbEntity
  8
050
100
AcDbLine
 10
-47.81595993903369
 20
-17.89181830570401
 30
0.0
 11
-32.76946572303203
 21
-17.89181830570401
 31
0.0
  0
LINE
  5
13A
330
80
100
AcDbEntity
  8
050
100
AcDbLine
 10
-32.76946572303203
 20
2.108181694295991
 30
0.0
 11
-47.74678008174966
 21
2.108181694295991
 31
0.0
  0
LINE
  5
13B
330
80
100
AcDbEntity
  8
050
100
AcDbLine
 10
80.33622596728401
 20
-11.36857803887291
 30
0.0
 11
80.42417665042647
 21
-8.849999999999996
 31
0.0
  0
LINE
  5
13C
330
80
100
AcDbEntity
  8
050
100
AcDbLine
 10
80.33622596728401
 20
-11.36857803887291
 30
0.0
 11
79.99800000000002
 21
-11.36124255698219
 31
0.0
  0
LINE
  5
13D
330
80
100
AcDbEntity
  8
050
100
AcDbLine
 10
79.99800000000002
 20
-21.35
 30
0.0
 11
116.5
 21
-21.35
 31
0.0
  0
LINE
  5
13E
330
80
100
AcDbEntity
  8
050
100
AcDbLine
 10
35.23542864692438
 20
-19.32777478867205
 30
0.0
 11
38.00000000000001
 21
-9.010254037844375
 31
0.0
  0
ARC
  5
13F
330
80
100
AcDbEntity
  8
050
100
AcDbCircle
 10
43.0000000000001
 20
9.65000000000089
 30
0.0
 40
30.00000000000088
100
AcDbArc
 50
255.0000000000003
 51
269.9999999999998
  0
LINE
  5
140
330
80
100
AcDbEntity
  8
050
100
AcDbLine
 10
43.0
 20
-20.35
 30
0.0
 11
43.0
 21
-19.49999999999999
 31
0.0
  0
LINE
  5
141
330
80
100
AcDbEntity
  8
050
100
AcDbLine
 10
-20.62891333776218
 20
-3.960002592076193
 30
0.0
 11
-16.5
 21
-8.849999999999998
 31
0.0
  0
LWPOLYLINE
  5
142
330
80
100
AcDbEntity
  8
050
100
AcDbPolyline
 90
        3
 70
     0
 43
0.0
 10
-20.62891333776218
 20
-3.960002592076193
 10
-21.11324500677479
 20
-3.410171211348301
 10
-21.62972130929316
 20
-2.871542700552514
  0
ARC
  5
143
330
80
100
AcDbEntity
  8
050
100
AcDbCircle
 10
-16.49999999999996
 20
8.650000000000176
 30
0.0
 40
30.00000000000017
100
AcDbArc
 50
246.0000000000001
 51
269.9999999999999
  0
LINE
  5
144
330
80
100
AcDbEntity
  8
050
100
AcDbLine
 10
-16.5
 20
-21.35
 30
0.0
 11
-16.5
 21
-8.849999999999998
 31
0.0
  0
LINE
  5
145
330
80
100
AcDbEntity
  8
050
100
AcDbLine
 10
-28.70209929227401
 20
-18.75636372927803
 30
0.0
 11
-21.62972130929316
 21
-2.871542700552514
 31
0.0
  0
LINE
  5
146
330
80
100
AcDbEntity
  8
050
100
AcDbLine
 10
116.5
 20
-8.849999999999998
 30
0.0
 11
120.6289133377495
 21
-3.960002592091252
 31
0.0
  0
LWPOLYLINE
  5
147
330
80
100
AcDbEntity
  8
050
100
AcDbPolyline
 90
        3
 70
     0
 43
0.0
 10
121.6297213092932
 20
-2.871542700552518
 10
121.281787042535
 20
-3.229307042912648
 10
120.6289133377495
 20
-3.960002592091252
  0
ARC
  5
148
330
80
100
AcDbEntity
  8
050
100
AcDbCircle
 10
116.5
 20
8.6499999999998
 30
0.0
 40
29.9999999999998
100
AcDbArc
 50
269.9999999999999
 51
294.0000000000001
  0
LINE
  5
149
330
80
100
AcDbEntity
  8
050
100
AcDbLine
 10
116.5
 20
-21.35
 30
0.0
 11
116.5
 21
-8.849999999999998
 31
0.0
  0
LINE
  5
14A
330
80
100
AcDbEntity
  8
050
100
AcDbLine
 10
121.6297213092932
 20
-2.871542700552518
 30
0.0
 11
128.702099292274
 21
-18.75636372927803
 31
0.0
  0
ARC
  5
14B
330
80
100
AcDbEntity
  8
050
100
AcDbCircle
 10
132.7694657230318
 20
-27.89181830570532
 30
0.0
 40
30.00000000000132
100
AcDbArc
 50
89.99999999999969
 51
92.22785759030019
  0
ARC
  5
14C
330
80
100
AcDbEntity
  8
050
100
AcDbCircle
 10
132.769465723032
 20
-27.89181830570384
 30
0.0
 40
9.999999999999833
100
AcDbArc
 50
89.99999999999969
 51
114.0000000000004
  0
LWPOLYLINE
  5
14D
330
80
100
AcDbEntity
  8
050
100
AcDbPolyline
 90
       22
 70
     0
 43
0.0
 10
131.6073629121497
 20
2.085665195366603
 10
131.6025652959173
 20
2.085002360532279
 10
131.5676029383543
 20
2.080131117060176
 10
131.4864180523461
 20
2.068542253677947
 10
131.3704831664291
 20
2.051319060174785
 10
131.2020892383259
 20
2.024886262135225
 10
131.011243019969
 20
1.992892208510625
 10
130.5847308172462
 20
1.913505947484393
 10
130.1530855085686
 20
1.821908913437762
 10
129.7083771259676
 20
1.715611486388623
 10
128.7951922273504
 20
1.458081160018538
 10
127.863840466449
 20
1.138945853190571
 10
126.9358352024728
 20
0.7608580567494261
 10
126.2501499321674
 20
0.4404241810007505
 10
125.5745256048104
 20
0.0882326627289357
 10
124.906532485419
 20
-0.298126614901988
 10
124.252678190209
 20
-0.7159118780581089
 10
123.6008913032857
 20
-1.174908138386957
 10
122.9674664839025
 20
-1.665700083692717
 10
122.349444533388
 20
-2.191890489153272
 10
121.7535159019752
 20
-2.749054946252051
 10
121.6297213092932
 20
-2.87154270055251
  0
LINE
  5
14E
330
80
100
AcDbEntity
  8
050
100
AcDbLine
 10
132.769465723032
 20
2.108181694295992
 30
0.0
 11
132.7694657230321
 21
-17.89181830570401
 31
0.0
  0
LINE
  5
14F
330
80
100
AcDbEntity
  8
050
100
AcDbLine
 10
-49.99999999999999
 20
2.639879999999974
 30
0.0
 11
-62.73550845249723
 21
2.639879999999974
 31
0.0
  0
LINE
  5
150
330
80
100
AcDbEntity
  8
050
100
AcDbLine
 10
-62.73550845249723
 20
-18.36012
 30
0.0
 11
-49.99999999999999
 21
-18.36012
 31
0.0
  0
LINE
  5
151
330
80
100
AcDbEntity
  8
050
100
AcDbLine
 10
-47.74678008174966
 20
2.13987999999997
 30
0.0
 11
-47.81597166361039
 21
-17.89181830557939
 31
0.0
  0
LINE
  5
152
330
80
100
AcDbEntity
  8
050
100
AcDbLine
 10
-49.99999999999999
 20
-18.36012
 30
0.0
 11
-49.99999999999999
 21
2.639879999999974
 31
0.0
  0
ARC
  5
153
330
80
100
AcDbEntity
  8
050
100
AcDbCircle
 10
-50.00000000000001
 20
-2.687120000000082
 30
0.0
 40
5.327000000000058
100
AcDbArc
 50
64.97706438812888
 51
89.99999999999969
  0
ARC
  5
154
330
80
100
AcDbEntity
  8
050
100
AcDbCircle
 10
-49.99999999999996
 20
-13.03312000000017
 30
0.0
 40
5.326999999999833
100
AcDbArc
 50
269.9999999999998
 51
294.2121580519548
  0
LINE
  5
155
330
80
100
AcDbEntity
  8
050
100
AcDbLine
 10
147.81597166358
 20
-17.89181830125676
 30
0.0
 11
147.7467800817497
 21
2.139880000000009
 31
0.0
  0
ARC
  5
156
330
80
100
AcDbEntity
  8
050
100
AcDbCircle
 10
149.9999999999999
 20
-2.68711999999943
 30
0.0
 40
5.326999999999442
100
AcDbArc
 50
89.99999999999876
 51
115.0229356118725
  0
ARC
  5
157
330
80
100
AcDbEntity
  8
050
100
AcDbCircle
 10
150.0
 20
-13.03312000000005
 30
0.0
 40
5.326999999999968
100
AcDbArc
 50
245.7885955186445
 51
269.9999999999997
  0
LINE
  5
158
330
80
100
AcDbEntity
  8
050
100
AcDbLine
 10
150.0
 20
-18.36012000000001
 30
0.0
 11
150.0
 21
2.639880000000011
 31
0.0
  0
LINE
  5
159
330
80
100
AcDbEntity
  8
050
100
AcDbLine
 10
162.7355084524972
 20
2.639880000000011
 30
0.0
 11
150.0
 21
2.639880000000011
 31
0.0
  0
LINE
  5
15A
330
80
100
AcDbEntity
  8
050
100
AcDbLine
 10
150.0
 20
-18.36012000000001
 30
0.0
 11
162.7355084524972
 21
-18.36012000000001
 31
0.0
  0
LINE
  5
15B
330
80
100
AcDbEntity
  8
050
100
AcDbLine
 10
-62.73550845249723
 20
-18.36012
 30
0.0
 11
-62.73550845249723
 21
2.639879999999974
 31
0.0
  0
LINE
  5
15C
330
80
100
AcDbEntity
  8
050
100
AcDbLine
 10
-62.73550845249723
 20
2.639879999999974
 30
0.0
 11
-65.75134362185216
 21
4.751590519580255
 31
0.0
  0
LINE
  5
15D
330
80
100
AcDbEntity
  8
050
100
AcDbLine
 10
-65.75134362185216
 20
-20.47183051958028
 30
0.0
 11
-62.73550845249723
 21
-18.36012
 31
0.0
  0
LINE
  5
15E
330
80
100
AcDbEntity
  8
050
100
AcDbLine
 10
162.7355084524972
 20
-18.36012
 30
0.0
 11
162.7355084524972
 21
2.639880000000009
 31
0.0
  0
LINE
  5
15F
330
80
100
AcDbEntity
  8
050
100
AcDbLine
 10
162.7355084524972
 20
-18.36012
 30
0.0
 11
165.7513436218522
 21
-20.47183051958028
 31
0.0
  0
LINE
  5
160
330
80
100
AcDbEntity
  8
050
100
AcDbLine
 10
165.7513436218522
 20
4.751590519580287
 30
0.0
 11
162.7355084524972
 21
2.639880000000009
 31
0.0
  0
LINE
  5
161
330
80
100
AcDbEntity
  8
050
100
AcDbLine
 10
-65.75134362185216
 20
-20.47183051958028
 30
0.0
 11
-65.75134362185216
 21
4.751590519580255
 31
0.0
  0
LINE
  5
162
330
80
100
AcDbEntity
  8
050
100
AcDbLine
 10
-69.99999999999999
 20
-18.26012
 30
0.0
 11
-69.99999999999999
 21
2.539879999764935
 31
0.0
  0
ARC
  5
163
330
80
100
AcDbEntity
  8
050
100
AcDbCircle
 10
-67.29999999999998
 20
2.539879999999986
 30
0.0
 40
2.699999999999995
100
AcDbArc
 50
54.99999999999991
 51
180.0000000000003
  0
ARC
  5
164
330
80
100
AcDbEntity
  8
050
100
AcDbCircle
 10
-67.3
 20
-18.26012000000002
 30
0.0
 40
2.699999999999989
100
AcDbArc
 50
179.9999999999995
 51
305.0000000000005
  0
LINE
  5
165
330
80
100
AcDbEntity
  8
050
100
AcDbLine
 10
170.0
 20
-18.26012
 30
0.0
 11
170.0
 21
2.53987999976497
 31
0.0
  0
LINE
  5
166
330
80
100
AcDbEntity
  8
050
100
AcDbLine
 10
165.7513436218522
 20
-20.47183051958028
 30
0.0
 11
165.7513436218522
 21
4.751590519580287
 31
0.0
  0
ARC
  5
167
330
80
100
AcDbEntity
  8
050
100
AcDbCircle
 10
167.3
 20
2.539880000000033
 30
0.0
 40
2.699999999999989
100
AcDbArc
 50
359.9999999999994
 51
124.9999999999998
  0
ARC
  5
168
330
80
100
AcDbEntity
  8
050
100
AcDbCircle
 10
167.3
 20
-18.26012000000004
 30
0.0
 40
2.699999999999947
100
AcDbArc
 50
234.9999999999999
 51
0.0000000000009801
  0
LINE
  5
169
330
80
100
AcDbEntity
  8
050
100
AcDbLine
 10
61.00000000000001
 20
-11.56870779386421
 30
0.0
 11
61.00000000000001
 21
-11.39999999999999
 31
0.0
  0
LINE
  5
16A
330
80
100
AcDbEntity
  8
050
100
AcDbLine
 10
38.99999999999999
 20
-11.39999999999999
 30
0.0
 11
38.99999999999999
 21
-11.56870779386421
 31
0.0
  0
LINE
  5
16B
330
80
100
AcDbEntity
  8
050
100
AcDbLine
 10
38.99999999999999
 20
-11.56870779386421
 30
0.0
 11
61.00000000000001
 21
-11.56870779386421
 31
0.0
  0
ARC
  5
16C
330
80
100
AcDbEntity
  8
050
100
AcDbCircle
 10
61.89999999999996
 20
-11.56870779386425
 30
0.0
 40
0.8999999999999417
100
AcDbArc
 50
179.9999999999978
 51
225.0000000000006
  0
ARC
  5
16D
330
80
100
AcDbEntity
  8
050
100
AcDbCircle
 10
38.10000000000005
 20
-11.56870779386425
 30
0.0
 40
0.899999999999943
100
AcDbArc
 50
314.9999999999994
 51
0.0000000000022617
  0
LINE
  5
16E
330
80
100
AcDbEntity
  8
050
100
AcDbLine
 10
38.99999999999999
 20
-11.39999999999999
 30
0.0
 11
61.00000000000001
 21
-11.39999999999999
 31
0.0
  0
ARC
  5
16F
330
80
100
AcDbEntity
  8
050
100
AcDbCircle
 10
61.90000000000001
 20
-11.39999999999999
 30
0.0
 40
0.9000000000000021
100
AcDbArc
 50
90.0
 51
180.0000000000003
  0
ARC
  5
170
330
80
100
AcDbEntity
  8
050
100
AcDbCircle
 10
38.09999999999999
 20
-11.39999999999998
 30
0.0
 40
0.8999999999999986
100
AcDbArc
 50
359.9999999999994
 51
90.0
  0
LINE
  5
171
330
80
100
AcDbEntity
  8
050
100
AcDbLine
 10
63.22100000000001
 20
-18.33749999999998
 30
0.0
 11
63.22100000000001
 21
-14.1625
 31
0.0
  0
LINE
  5
172
330
80
100
AcDbEntity
  8
050
100
AcDbLine
 10
36.77899999999999
 20
-14.1625
 30
0.0
 11
36.77899999999999
 21
-18.33749999999998
 31
0.0
  0
LINE
  5
173
330
80
100
AcDbEntity
  8
050
100
AcDbLine
 10
36.77899999999999
 20
-18.33749999999998
 30
0.0
 11
63.22100000000001
 21
-18.33749999999998
 31
0.0
  0
LINE
  5
174
330
80
100
AcDbEntity
  8
050
100
AcDbLine
 10
37.9415
 20
-19.49999999999999
 30
0.0
 11
62.0585
 21
-19.49999999999999
 31
0.0
  0
LINE
  5
175
330
80
100
AcDbEntity
  8
050
100
AcDbLine
 10
62.0585
 20
-19.49999999999999
 30
0.0
 11
63.22100000000001
 21
-18.33749999999998
 31
0.0
  0
LINE
  5
176
330
80
100
AcDbEntity
  8
050
100
AcDbLine
 10
36.77899999999999
 20
-18.33749999999998
 30
0.0
 11
37.9415
 21
-19.49999999999999
 31
0.0
  0
LINE
  5
177
330
80
100
AcDbEntity
  8
050
100
AcDbLine
 10
38.7363961030679
 20
-12.20510389693211
 30
0.0
 11
61.26360389693211
 21
-12.20510389693211
 31
0.0
  0
LINE
  5
178
330
80
100
AcDbEntity
  8
050
100
AcDbLine
 10
36.77899999999999
 20
-14.1625
 30
0.0
 11
63.22100000000001
 21
-14.1625
 31
0.0
  0
LINE
  5
179
330
80
100
AcDbEntity
  8
050
100
AcDbLine
 10
38.7363961030679
 20
-12.20510389693211
 30
0.0
 11
36.77899999999999
 21
-14.1625
 31
0.0
  0
LINE
  5
17A
330
80
100
AcDbEntity
  8
050
100
AcDbLine
 10
63.22100000000001
 20
-14.1625
 30
0.0
 11
61.26360389693211
 21
-12.20510389693211
 31
0.0
  0
LINE
  5
17B
330
80
100
AcDbEntity
  8
050
100
AcDbLine
 10
62.0
 20
7.500000000000009
 30
0.0
 11
38.00000000000001
 21
7.500000000000009
 31
0.0
  0
LINE
  5
17C
330
80
100
AcDbEntity
  8
050
100
AcDbLine
 10
38.00000000000001
 20
-10.49999999999999
 30
0.0
 11
38.00000000000001
 21
7.500000000000009
 31
0.0
  0
LINE
  5
17D
330
80
100
AcDbEntity
  8
050
100
AcDbLine
 10
62.0
 20
-10.49999999999999
 30
0.0
 11
38.00000000000001
 21
-10.49999999999999
 31
0.0
  0
LINE
  5
17E
330
80
100
AcDbEntity
  8
050
100
AcDbLine
 10
62.0
 20
-10.49999999999999
 30
0.0
 11
62.0
 21
7.500000000000009
 31
0.0
  0
LINE
  5
180
330
80
100
AcDbEntity
  8
GEW
100
AcDbLine
 10
37.94150000000002
 20
-12.99999999999998
 30
0.0
 11
37.94150000000002
 21
-19.49999999999999
 31
0.0
  0
LINE
  5
181
330
80
100
AcDbEntity
  8
GEW
100
AcDbLine
 10
62.0585
 20
-13.0
 30
0.0
 11
62.0585
 21
-19.49999999999999
 31
0.0
  0
ENDBLK
  5
83
330
80
100
AcDbEntity
  8
0
100
AcDbBlockEnd
  0
BLOCK
  5
184
330
182
100
AcDbEntity
  8
0
100
AcDbBlockBegin
  2
2_24046_1_0_in_24046_4
 70
     2
 10
0.0
 20
0.0
 30
0.0
  3
2_24046_1_0_in_24046_4
  1

  0
ATTDEF
  5
186
330
182
100
AcDbEntity
  8
AM_6
100
AcDbText
 10
129.769465723032
 20
7.843304511145383
 30
0.0
 40
0.5
  1
Geberit Mapress Carbon Steel set of connector T-pieces for inlet and return flow, with union connector for Euro cone - part1
100
AcDbAttributeDefinition
  3

  2
NN
 70
     8
280
     0
  0
ATTDEF
  5
187
330
182
100
AcDbEntity
  8
AM_6
100
AcDbText
 10
129.769465723032
 20
7.343304511145383
 30
0.0
 40
0.5
  1

100
AcDbAttributeDefinition
  3

  2
NT
 70
     8
280
     0
  0
ATTDEF
  5
188
330
182
100
AcDbEntity
  8
AM_6
100
AcDbText
 10
129.769465723032
 20
6.843304511145383
 30
0.0
 40
0.5
  1
24046_1
100
AcDbAttributeDefinition
  3

  2
NB
 70
     8
280
     0
  0
ATTDEF
  5
189
330
182
100
AcDbEntity
  8
AM_6
100
AcDbText
 10
129.769465723032
 20
6.343304511145383
 30
0.0
 40
0.5
  1
$ARTNRT._1
100
AcDbAttributeDefinition
  3

  2
NBSYN
 70
     8
280
     0
  0
ATTDEF
  5
18A
330
182
100
AcDbEntity
  8
AM_6
100
AcDbText
 10
129.769465723032
 20
5.843304511145383
 30
0.0
 40
0.5
  1
24046
100
AcDbAttributeDefinition
  3

  2
LINA
 70
     8
280
     0
  0
ATTDEF
  5
18B
330
182
100
AcDbEntity
  8
AM_6
100
AcDbText
 10
129.769465723032
 20
5.343304511145383
 30
0.0
 40
0.5
  1
GEBERIT
100
AcDbAttributeDefinition
  3

  2
CATALOG
 70
     8
280
     0
  0
ATTDEF
  5
18C
330
182
100
AcDbEntity
  8
AM_6
100
AcDbText
 10
129.769465723032
 20
4.843304511145383
 30
0.0
 40
0.5
  1
24046
100
AcDbAttributeDefinition
  3

  2
ARTNRT
 70
     8
280
     0
  0
ATTDEF
  5
18D
330
182
100
AcDbEntity
  8
AM_6
100
AcDbText
 10
129.769465723032
 20
4.343304511145383
 30
0.0
 40
0.5
  1
5
100
AcDbAttributeDefinition
  3

  2
AD
 70
     8
280
     0
  0
ATTDEF
  5
18E
330
182
100
AcDbEntity
  8
AM_6
100
AcDbText
 10
129.769465723032
 20
3.843304511145383
 30
0.0
 40
0.5
  1
18.0
100
AcDbAttributeDefinition
  3

  2
D
 70
     8
280
     0
  0
ATTDEF
  5
18F
330
182
100
AcDbEntity
  8
AM_6
100
AcDbText
 10
129.769465723032
 20
3.343304511145383
 30
0.0
 40
0.5
  1
15.0
100
AcDbAttributeDefinition
  3

  2
D1
 70
     8
280
     0
  0
ATTDEF
  5
190
330
182
100
AcDbEntity
  8
AM_6
100
AcDbText
 10
129.769465723032
 20
2.843304511145383
 30
0.0
 40
0.5
  1
15 / 12
100
AcDbAttributeDefinition
  3

  2
DN
 70
     8
280
     0
  0
ATTDEF
  5
191
330
182
100
AcDbEntity
  8
AM_6
100
AcDbText
 10
129.769465723032
 20
2.343304511145383
 30
0.0
 40
0.5
  1
2.9
100
AcDbAttributeDefinition
  3

  2
L
 70
     8
280
     0
  0
ATTDEF
  5
192
330
182
100
AcDbEntity
  8
AM_6
100
AcDbText
 10
129.769465723032
 20
1.843304511145383
 30
0.0
 40
0.5
  1
12.7
100
AcDbAttributeDefinition
  3

  2
L1
 70
     8
280
     0
  0
ATTDEF
  5
193
330
182
100
AcDbEntity
  8
AM_6
100
AcDbText
 10
129.769465723032
 20
1.343304511145383
 30
0.0
 40
0.5
  1
6.8
100
AcDbAttributeDefinition
  3

  2
LL1
 70
     8
280
     0
  0
ATTDEF
  5
194
330
182
100
AcDbEntity
  8
AM_6
100
AcDbText
 10
129.769465723032
 20
0.8433045111453827
 30
0.0
 40
0.5
  1
10.0
100
AcDbAttributeDefinition
  3

  2
Z
 70
     8
280
     0
  0
ATTDEF
  5
195
330
182
100
AcDbEntity
  8
AM_6
100
AcDbText
 10
129.769465723032
 20
0.3433045111453827
 30
0.0
 40
0.5
  1
1.7
100
AcDbAttributeDefinition
  3

  2
Z1
 70
     8
280
     0
  0
ATTDEF
  5
196
330
182
100
AcDbEntity
  8
AM_6
100
AcDbText
 10
129.769465723032
 20
-0.1566954888546173
 30
0.0
 40
0.5
  1
2.150
100
AcDbAttributeDefinition
  3

  2
L1X
 70
     8
280
     0
  0
ATTDEF
  5
197
330
182
100
AcDbEntity
  8
AM_6
100
AcDbText
 10
129.769465723032
 20
-0.6566954888546173
 30
0.0
 40
0.5
  1
2.7
100
AcDbAttributeDefinition
  3

  2
R
 70
     8
280
     0
  0
ATTDEF
  5
198
330
182
100
AcDbEntity
  8
AM_6
100
AcDbText
 10
129.769465723032
 20
-1.156695488854617
 30
0.0
 40
0.5
  1
20.0
100
AcDbAttributeDefinition
  3

  2
DX
 70
     8
280
     0
  0
ATTDEF
  5
199
330
182
100
AcDbEntity
  8
AM_6
100
AcDbText
 10
129.769465723032
 20
-1.656695488854617
 30
0.0
 40
0.5
  1
2.25
100
AcDbAttributeDefinition
  3

  2
DXX
 70
     8
280
     0
  0
ATTDEF
  5
19A
330
182
100
AcDbEntity
  8
AM_6
100
AcDbText
 10
129.769465723032
 20
-2.156695488854617
 30
0.0
 40
0.5
  1
3.002
100
AcDbAttributeDefinition
  3

  2
LX
 70
     8
280
     0
  0
ATTDEF
  5
19B
330
182
100
AcDbEntity
  8
AM_6
100
AcDbText
 10
129.769465723032
 20
-2.656695488854617
 30
0.0
 40
0.5
  1
24.0
100
AcDbAttributeDefinition
  3

  2
ANGLE
 70
     8
280
     0
  0
ATTDEF
  5
19C
330
182
100
AcDbEntity
  8
AM_6
100
AcDbText
 10
129.769465723032
 20
-3.156695488854617
 30
0.0
 40
0.5
  1
1
100
AcDbAttributeDefinition
  3

  2
V
 70
     8
280
     0
  0
ATTDEF
  5
19D
330
182
100
AcDbEntity
  8
AM_6
100
AcDbText
 10
129.769465723032
 20
-3.656695488854617
 30
0.0
 40
0.5
  1
geberit
100
AcDbAttributeDefinition
  3

  2
COMPANY
 70
     8
280
     0
  0
ARC
  5
19E
330
182
100
AcDbEntity
  8
VER
100
AcDbCircle
 10
-6.999999999999952
 20
9.650000000000372
 30
0.0
 40
28.50000000000037
100
AcDbArc
 50
255.0000000000001
 51
269.9999999999999
  0
ARC
  5
19F
330
182
100
AcDbEntity
  8
VER
100
AcDbCircle
 10
-7.000000000000053
 20
9.649999999999588
 30
0.0
 40
11.49999999999958
100
AcDbArc
 50
254.9999999999997
 51
268.6262401600278
  0
LINE
  5
1A0
330
182
100
AcDbEntity
  8
VER
100
AcDbLine
 10
29.998
 20
-19.85
 30
0.0
 11
66.5
 21
-19.85
 31
0.0
  0
LINE
  5
1A1
330
182
100
AcDbEntity
  8
VER
100
AcDbLine
 10
-66.5
 20
-19.85
 30
0.0
 11
-29.99799999999999
 21
-19.85
 31
0.0
  0
LINE
  5
1A2
330
182
100
AcDbEntity
  8
VER
100
AcDbLine
 10
29.43046621511363
 20
-10.35
 30
0.0
 11
22.92726945602982
 21
-4.606797250358202
 31
0.0
  0
LINE
  5
1A3
330
182
100
AcDbEntity
  8
VER
100
AcDbLine
 10
12.998
 20
-0.8500000000014138
 30
0.0
 11
12.998
 21
-0.8216988689956332
 31
0.0
  0
LWPOLYLINE
  5
1A4
330
182
100
AcDbEntity
  8
VER
100
AcDbPolyline
 90
       19
 70
     0
 43
0.0
 10
12.998
 20
-0.8499999999999984
 10
13.19047229140649
 20
-0.8512349035982049
 10
13.42262714286183
 20
-0.8560114782775365
 10
13.68605579518843
 20
-0.8657890023295642
 10
13.96687596249339
 20
-0.8813233928545775
 10
14.39135651506617
 20
-0.914886655121987
 10
14.83045910210637
 20
-0.9623509700454225
 10
15.7400477288524
 20
-1.102757062667771
 10
16.6802681552487
 20
-1.308992427178875
 10
17.62688026362022
 20
-1.582082579960486
 10
18.21714283102606
 20
-1.787272712092238
 10
18.80307548281305
 20
-2.01883596226107
 10
19.38694421172769
 20
-2.278663388572422
 10
19.96329370630466
 20
-2.565246197805828
 10
20.54297191938027
 20
-2.885696028570097
 10
21.11178079397458
 20
-3.233876933569132
 10
21.67257088531925
 20
-3.61269695507788
 10
22.21931174019769
 20
-4.019217701686334
 10
22.92726945602982
 20
-4.606797250358202
  0
ARC
  5
1A5
330
182
100
AcDbEntity
  8
VER
100
AcDbCircle
 10
17.35276180410116
 20
-28.98703305156455
 30
0.0
 40
28.50000000000185
100
AcDbArc
 50
98.79024068988826
 51
104.9999999999997
  0
ARC
  5
1A6
330
182
100
AcDbEntity
  8
VER
100
AcDbCircle
 10
17.35276180410083
 20
-28.98703305156266
 30
0.0
 40
11.49999999999993
100
AcDbArc
 50
69.99999999999984
 51
105.0000000000001
  0
LINE
  5
1A7
330
182
100
AcDbEntity
  8
VER
100
AcDbLine
 10
-22.92726945602985
 20
-4.606797250358209
 30
0.0
 11
-29.43046621511362
 21
-10.35
 31
0.0
  0
LWPOLYLINE
  5
1A8
330
182
100
AcDbEntity
  8
VER
100
AcDbPolyline
 90
       21
 70
     0
 43
0.0
 10
-22.92726945602985
 20
-4.606797250358209
 10
-22.44463605152836
 20
-4.198344868218687
 10
-21.94738559451818
 20
-3.812205456121521
 10
-21.43476360441906
 20
-3.447539764903462
 10
-20.90970683252317
 20
-3.10618208713707
 10
-20.36360970258486
 20
-2.782950076272441
 10
-19.80707880173616
 20
-2.484505401155286
 10
-19.23946007880528
 20
-2.210198825324455
 10
-18.66399713914776
 20
-1.961282405521761
 10
-18.09784919625663
 20
-1.743563944941987
 10
-17.52710031326923
 20
-1.550096141849604
 10
-16.95158287270437
 20
-1.380404896174231
 10
-16.37492689438728
 20
-1.235063641946163
 10
-15.78979965130196
 20
-1.112094629595756
 10
-15.20906319907563
 20
-1.013854963984295
 10
-14.6348709841903
 20
-0.9395790340743267
 10
-14.07748995800922
 20
-0.88889370966982
 10
-13.77651108089896
 20
-0.8702162733597006
 10
-13.48862770447307
 20
-0.8580259987017229
 10
-13.22429393607435
 20
-0.8517070619854871
 10
-12.99799999999999
 20
-0.8499999999999988
  0
ARC
  5
1A9
330
182
100
AcDbEntity
  8
VER
100
AcDbCircle
 10
-17.35276180410119
 20
-28.98703305156474
 30
0.0
 40
28.50000000000204
100
AcDbArc
 50
75.00000000000034
 51
81.21073832661136
  0
ARC
  5
1AA
330
182
100
AcDbEntity
  8
VER
100
AcDbCircle
 10
-17.35276180410082
 20
-28.98703305156272
 30
0.0
 40
11.49999999999998
100
AcDbArc
 50
75.0
 51
110.0000000000001
  0
LINE
  5
1AB
330
182
100
AcDbEntity
  8
VER
100
AcDbLine
 10
-12.99799999999999
 20
-0.8216988763028206
 30
0.0
 11
-12.99799999999999
 21
-0.8500000000021632
 31
0.0
  0
LINE
  5
1AC
330
182
100
AcDbEntity
  8
VER
100
AcDbLine
 10
-67.19665271966528
 20
-10.35
 30
0.0
 11
-71.77500648022809
 21
-4.927716655626295
 31
0.0
  0
LINE
  5
1AD
330
182
100
AcDbEntity
  8
VER
100
AcDbLine
 10
-72.28771843152755
 20
-4.349428434214079
 30
0.0
 11
-71.77500648022809
 21
-4.927716655626295
 31
0.0
  0
ARC
  5
1AE
330
182
100
AcDbEntity
  8
VER
100
AcDbCircle
 10
-66.49999999999997
 20
8.650000000000311
 30
0.0
 40
28.5000000000003
100
AcDbArc
 50
246.0000000000002
 51
269.9999999999999
  0
ARC
  5
1AF
330
182
100
AcDbEntity
  8
VER
100
AcDbCircle
 10
6.999999999999895
 20
9.650000000000858
 30
0.0
 40
28.50000000000086
100
AcDbArc
 50
270.0000000000002
 51
284.9999999999998
  0
ARC
  5
1B0
330
182
100
AcDbEntity
  8
VER
100
AcDbCircle
 10
7.000000000000019
 20
9.649999999999897
 30
0.0
 40
11.4999999999999
100
AcDbArc
 50
271.3742671116377
 51
285.0000000000002
  0
ARC
  5
1B1
330
182
100
AcDbEntity
  8
VER
100
AcDbCircle
 10
-82.7694657230321
 20
-27.89181830572184
 30
0.0
 40
28.50000000001783
100
AcDbArc
 50
87.92417511965643
 51
89.99999999999982
  0
ARC
  5
1B2
330
182
100
AcDbEntity
  8
VER
100
AcDbCircle
 10
-82.76946572303206
 20
-27.89181830570392
 30
0.0
 40
11.49999999999991
100
AcDbArc
 50
65.99999999999969
 51
89.99999999999991
  0
LWPOLYLINE
  5
1B3
330
182
100
AcDbEntity
  8
VER
100
AcDbPolyline
 90
       20
 70
     0
 43
0.0
 10
-81.7399936238279
 20
0.5895824180961712
 10
-81.73234735730973
 20
0.5884895584174886
 10
-81.69690144632852
 20
0.5833741524690883
 10
-81.61585386931131
 20
0.5713731144778376
 10
-81.50262336222733
 20
0.5538954036372702
 10
-81.33267141823865
 20
0.5260842331299347
 10
-81.14269170502011
 20
0.4928011899864607
 10
-80.71907094540606
 20
0.4099969520661591
 10
-80.14988263886845
 20
0.2795894747878485
 10
-79.5623219937509
 20
0.1220022095604633
 10
-78.96818460847304
 20
-0.0618192707094653
 10
-78.06002809780921
 20
-0.3935418638738032
 10
-77.16073332515657
 20
-0.785407667328539
 10
-76.34631573744413
 20
-1.199459711721478
 10
-75.54966514248518
 20
-1.663667682006622
 10
-74.77584487859059
 20
-2.17655507158972
 10
-74.00640666882998
 20
-2.755009550613273
 10
-73.26730027914763
 20
-3.383834828133037
 10
-72.56334396563686
 20
-4.060589883659389
 10
-72.28771843152755
 20
-4.349428434214073
  0
LINE
  5
1B4
330
182
100
AcDbEntity
  8
VER
100
AcDbLine
 10
67.19665271966528
 20
-10.35
 30
0.0
 11
29.43046621511363
 21
-10.35
 31
0.0
  0
LINE
  5
1B5
330
182
100
AcDbEntity
  8
VER
100
AcDbLine
 10
29.998
 20
-11.36124255698081
 30
0.0
 11
30.33622596728373
 21
-11.36857803888092
 31
0.0
  0
ARC
  5
1B6
330
182
100
AcDbEntity
  8
VER
100
AcDbCircle
 10
31.03356753712766
 20
8.600671779874016
 30
0.0
 40
28.50000000000043
100
AcDbArc
 50
250.0000000000001
 51
267.917465583827
  0
LINE
  5
1B7
330
182
100
AcDbEntity
  8
VER
100
AcDbLine
 10
7.000000000000003
 20
-1.849999999999998
 30
0.0
 11
-6.999999999999996
 21
-1.849999999999998
 31
0.0
  0
LINE
  5
1B8
330
182
100
AcDbEntity
  8
VER
100
AcDbLine
 10
-6.999999999999997
 20
-18.85
 30
0.0
 11
7.000000000000003
 21
-18.85
 31
0.0
  0
LINE
  5
1B9
330
182
100
AcDbEntity
  8
VER
100
AcDbLine
 10
-29.43046621511362
 20
-10.35
 30
0.0
 11
-67.19665271966528
 21
-10.35
 31
0.0
  0
ARC
  5
1BA
330
182
100
AcDbEntity
  8
VER
100
AcDbCircle
 10
-31.0335675371276
 20
8.600671779873718
 30
0.0
 40
28.50000000000012
100
AcDbArc
 50
272.0828084710269
 51
289.9999999999999
  0
LWPOLYLINE
  5
1BB
330
182
100
AcDbEntity
  8
VER
100
AcDbPolyline
 90
       21
 70
     0
 43
0.0
 10
72.28771843152754
 20
-4.349428434214075
 10
73.11946187695972
 20
-3.519105313188275
 10
74.0067917452786
 20
-2.754569284023524
 10
74.9541759250693
 20
-2.05253559181142
 10
75.94644761921124
 20
-1.424650310032225
 10
76.52712364584488
 20
-1.102354932600584
 10
77.1169594910829
 20
-0.8061863293447884
 10
77.71810045117391
 20
-0.5347921681452285
 10
78.32475643436386
 20
-0.2903338783679454
 10
78.94717007255664
 20
-0.068828202681078
 10
79.56870479755933
 20
0.1241218555345902
 10
80.19053940072467
 20
0.2897595888693412
 10
80.79143969785352
 20
0.4249845546172644
 10
81.04682594097763
 20
0.4750997763803497
 10
81.28785478574216
 20
0.5184580202624203
 10
81.50129322249549
 20
0.5536851537878079
 10
81.5934790734998
 20
0.5679852392874799
 10
81.66892150888454
 20
0.5792789813136835
 10
81.716443017197
 20
0.5862043276250906
 10
81.7389602373221
 20
0.5894349391507542
 10
81.73999362360593
 20
0.5895824180645054
  0
ARC
  5
1BC
330
182
100
AcDbEntity
  8
VER
100
AcDbCircle
 10
82.7694657230329
 20
-27.89181830574016
 30
0.0
 40
28.50000000003615
100
AcDbArc
 50
90.00000000000183
 51
92.07578778311672
  0
ARC
  5
1BD
330
182
100
AcDbEntity
  8
VER
100
AcDbCircle
 10
82.76946572303206
 20
-27.89181830570392
 30
0.0
 40
11.49999999999991
100
AcDbArc
 50
90.00000000000009
 51
114.0000000000003
  0
LINE
  5
1BE
330
182
100
AcDbEntity
  8
VER
100
AcDbLine
 10
71.77500648022807
 20
-4.927716655626299
 30
0.0
 11
67.19665271966528
 21
-10.35
 31
0.0
  0
LINE
  5
1BF
330
182
100
AcDbEntity
  8
VER
100
AcDbLine
 10
71.77500648022807
 20
-4.927716655626299
 30
0.0
 11
72.28771843152754
 21
-4.349428434214074
 31
0.0
  0
ARC
  5
1C0
330
182
100
AcDbEntity
  8
VER
100
AcDbCircle
 10
66.49999999999997
 20
8.650000000000063
 30
0.0
 40
28.50000000000006
100
AcDbArc
 50
270.0000000000001
 51
294.0000000000001
  0
LINE
  5
1C1
330
182
100
AcDbEntity
  8
VER
100
AcDbLine
 10
100.0
 20
0.6081816942959893
 30
0.0
 11
82.769465723032
 21
0.6081816942959893
 31
0.0
  0
LINE
  5
1C2
330
182
100
AcDbEntity
  8
VER
100
AcDbLine
 10
82.769465723032
 20
-16.39181830570401
 30
0.0
 11
100.0
 21
-16.39181830570401
 31
0.0
  0
LINE
  5
1C3
330
182
100
AcDbEntity
  8
VER
100
AcDbLine
 10
-100.0
 20
-16.39181830570401
 30
0.0
 11
-82.769465723032
 21
-16.39181830570401
 31
0.0
  0
LINE
  5
1C4
330
182
100
AcDbEntity
  8
VER
100
AcDbLine
 10
-82.769465723032
 20
0.6081816942959893
 30
0.0
 11
-100.0
 21
0.6081816942959893
 31
0.0
  0
LINE
  5
1C5
330
182
100
AcDbEntity
  8
VER
100
AcDbLine
 10
-100.0
 20
1.139879999999971
 30
0.0
 11
-112.7355084524972
 21
1.139879999999971
 31
0.0
  0
LINE
  5
1C6
330
182
100
AcDbEntity
  8
VER
100
AcDbLine
 10
-112.7355084524972
 20
-16.86012
 30
0.0
 11
-100.0
 21
-16.86012
 31
0.0
  0
LINE
  5
1C7
330
182
100
AcDbEntity
  8
VER
100
AcDbLine
 10
112.7355084524972
 20
1.139880000000011
 30
0.0
 11
100.0
 21
1.139880000000011
 31
0.0
  0
LINE
  5
1C8
330
182
100
AcDbEntity
  8
VER
100
AcDbLine
 10
100.0
 20
-16.86012000000001
 30
0.0
 11
112.7355084524972
 21
-16.86012000000001
 31
0.0
  0
ARC
  5
1C9
330
182
100
AcDbEntity
  8
VER
100
AcDbCircle
 10
-112.7355084524972
 20
2.639879999999997
 30
0.0
 40
1.500000000000021
100
AcDbArc
 50
235.0000000000015
 51
270.0000000000006
  0
ARC
  5
1CA
330
182
100
AcDbEntity
  8
VER
100
AcDbCircle
 10
-112.7355084524972
 20
-18.36012000000003
 30
0.0
 40
1.500000000000025
100
AcDbArc
 50
89.99999999999947
 51
124.9999999999985
  0
ARC
  5
1CB
330
182
100
AcDbEntity
  8
VER
100
AcDbCircle
 10
112.7355084524973
 20
2.639879999999907
 30
0.0
 40
1.499999999999891
100
AcDbArc
 50
269.9999999999989
 51
305.0000000000011
  0
ARC
  5
1CC
330
182
100
AcDbEntity
  8
VER
100
AcDbCircle
 10
112.7355084524972
 20
-18.36012000000004
 30
0.0
 40
1.50000000000002
100
AcDbArc
 50
55.00000000000146
 51
90.00000000000054
  0
LINE
  5
1CD
330
182
100
AcDbEntity
  8
VER
100
AcDbLine
 10
-118.9
 20
1.539879999999969
 30
0.0
 11
-119.6
 21
1.539879999999969
 31
0.0
  0
LINE
  5
1CE
330
182
100
AcDbEntity
  8
VER
100
AcDbLine
 10
-119.6
 20
-17.26012
 30
0.0
 11
-118.9
 21
-17.26012
 31
0.0
  0
LINE
  5
1CF
330
182
100
AcDbEntity
  8
VER
100
AcDbLine
 10
119.6
 20
1.539880000000003
 30
0.0
 11
118.9
 21
1.539880000000003
 31
0.0
  0
LINE
  5
1D0
330
182
100
AcDbEntity
  8
VER
100
AcDbLine
 10
118.9
 20
-17.26012
 30
0.0
 11
119.6
 21
-17.26012
 31
0.0
  0
LINE
  5
1D1
330
182
100
AcDbEntity
  8
VER
100
AcDbLine
 10
-119.6
 20
-17.26012
 30
0.0
 11
-119.6
 21
1.539879999999969
 31
0.0
  0
LINE
  5
1D2
330
182
100
AcDbEntity
  8
VER
100
AcDbLine
 10
-119.6
 20
1.539879999999969
 30
0.0
 11
-120.0
 21
1.939879999999953
 31
0.0
  0
LINE
  5
1D3
330
182
100
AcDbEntity
  8
VER
100
AcDbLine
 10
-120.0
 20
-17.66011999999998
 30
0.0
 11
-119.6
 21
-17.26012
 31
0.0
  0
LINE
  5
1D4
330
182
100
AcDbEntity
  8
VER
100
AcDbLine
 10
-118.9
 20
-17.26012
 30
0.0
 11
-118.9
 21
1.539879999999969
 31
0.0
  0
LINE
  5
1D5
330
182
100
AcDbEntity
  8
VER
100
AcDbLine
 10
-118.9
 20
-17.26012
 30
0.0
 11
-118.5
 21
-17.66011999999998
 31
0.0
  0
LINE
  5
1D6
330
182
100
AcDbEntity
  8
VER
100
AcDbLine
 10
-118.5
 20
1.939879999999953
 30
0.0
 11
-118.9
 21
1.539879999999969
 31
0.0
  0
LINE
  5
1D7
330
182
100
AcDbEntity
  8
VER
100
AcDbLine
 10
118.9
 20
-17.26012
 30
0.0
 11
118.9
 21
1.539880000000003
 31
0.0
  0
LINE
  5
1D8
330
182
100
AcDbEntity
  8
VER
100
AcDbLine
 10
118.9
 20
1.539880000000003
 30
0.0
 11
118.5
 21
1.939880000000001
 31
0.0
  0
LINE
  5
1D9
330
182
100
AcDbEntity
  8
VER
100
AcDbLine
 10
118.5
 20
-17.66012
 30
0.0
 11
118.9
 21
-17.26012
 31
0.0
  0
LINE
  5
1DA
330
182
100
AcDbEntity
  8
VER
100
AcDbLine
 10
119.6
 20
-17.26012
 30
0.0
 11
119.6
 21
1.539880000000003
 31
0.0
  0
LINE
  5
1DB
330
182
100
AcDbEntity
  8
VER
100
AcDbLine
 10
119.6
 20
-17.26012
 30
0.0
 11
120.0
 21
-17.66012
 31
0.0
  0
LINE
  5
1DC
330
182
100
AcDbEntity
  8
VER
100
AcDbLine
 10
120.0
 20
1.939880000000001
 30
0.0
 11
119.6
 21
1.539880000000003
 31
0.0
  0
LINE
  5
1DD
330
182
100
AcDbEntity
  8
VER
100
AcDbLine
 10
82.76946572303204
 20
-17.89181830570401
 30
0.0
 11
97.81595993903369
 21
-17.89181830570401
 31
0.0
  0
LINE
  5
1DE
330
182
100
AcDbEntity
  8
VER
100
AcDbLine
 10
-30.42417665042646
 20
-8.849999999999996
 30
0.0
 11
-30.33622596728398
 21
-11.36857803887358
 31
0.0
  0
LINE
  5
1DF
330
182
100
AcDbEntity
  8
VER
100
AcDbLine
 10
-29.998
 20
-8.849999999999998
 30
0.0
 11
-66.5
 21
-8.85
 31
0.0
  0
LINE
  5
1E0
330
182
100
AcDbEntity
  8
VER
100
AcDbLine
 10
29.99800000000001
 20
-11.36124255698219
 30
0.0
 11
29.998
 21
-19.36114949229256
 31
0.0
  0
LINE
  5
1E1
330
182
100
AcDbEntity
  8
VER
100
AcDbLine
 10
24.99973439699018
 20
-4.435855108174488
 30
0.0
 11
29.998
 21
-8.849999999999998
 31
0.0
  0
ARC
  5
1E2
330
182
100
AcDbEntity
  8
VER
100
AcDbCircle
 10
31.03356753712771
 20
8.600671779874084
 30
0.0
 40
30.0000000000005
100
AcDbArc
 50
250.0000000000001
 51
258.3976020715967
  0
ARC
  5
1E3
330
182
100
AcDbEntity
  8
VER
100
AcDbCircle
 10
82.76946572303197
 20
-27.89181830570358
 30
0.0
 40
9.999999999999577
100
AcDbArc
 50
89.99999999999957
 51
114.0000000000008
  0
LWPOLYLINE
  5
1E4
330
182
100
AcDbEntity
  8
VER
100
AcDbPolyline
 90
        3
 70
     0
 43
0.0
 10
72.30807975102901
 20
-2.228901701787877
 10
71.75351590197516
 20
-2.749054946252053
 10
71.62972130929317
 20
-2.871542700552513
  0
LINE
  5
1E5
330
182
100
AcDbEntity
  8
VER
100
AcDbLine
 10
82.76946572303201
 20
-8.849999999999996
 30
0.0
 11
82.76946572303204
 21
-17.89181830570401
 31
0.0
  0
ARC
  5
1E6
330
182
100
AcDbEntity
  8
VER
100
AcDbCircle
 10
6.999999999999959
 20
9.650000000000396
 30
0.0
 40
30.0000000000004
100
AcDbArc
 50
270.0000000000001
 51
284.9999999999999
  0
ARC
  5
1E7
330
182
100
AcDbEntity
  8
VER
100
AcDbCircle
 10
6.999999999999971
 20
9.650000000000277
 30
0.0
 40
10.00000000000028
100
AcDbArc
 50
272.8330381512463
 51
284.9999999999998
  0
LINE
  5
1E8
330
182
100
AcDbEntity
  8
VER
100
AcDbLine
 10
-70.00190310850695
 20
-4.702589840822263
 30
0.0
 11
-66.5
 21
-8.85
 31
0.0
  0
LINE
  5
1E9
330
182
100
AcDbEntity
  8
VER
100
AcDbLine
 10
-66.5
 20
-20.83887939164554
 30
0.0
 11
-66.5
 21
-8.85
 31
0.0
  0
LINE
  5
1EA
330
182
100
AcDbEntity
  8
VER
100
AcDbLine
 10
25.97513267589077
 20
-5.297263779156625
 30
0.0
 11
20.77296323735752
 21
-19.59010684370366
 31
0.0
  0
ARC
  5
1EB
330
182
100
AcDbEntity
  8
VER
100
AcDbCircle
 10
17.35276180410136
 20
-28.98703305156536
 30
0.0
 40
30.00000000000268
100
AcDbArc
 50
100.2780568477513
 51
104.9999999999997
  0
ARC
  5
1EC
330
182
100
AcDbEntity
  8
VER
100
AcDbCircle
 10
17.35276180410083
 20
-28.98703305156261
 30
0.0
 40
9.999999999999876
100
AcDbArc
 50
69.9999999999997
 51
105.0000000000002
  0
LINE
  5
1ED
330
182
100
AcDbEntity
  8
VER
100
AcDbLine
 10
9.588190451025211
 20
-0.0092582628906801
 30
0.0
 11
14.76457135307563
 21
-19.32777478867205
 31
0.0
  0
ARC
  5
1EE
330
182
100
AcDbEntity
  8
VER
100
AcDbCircle
 10
-6.999999999999859
 20
9.65000000000111
 30
0.0
 40
30.00000000000111
100
AcDbArc
 50
255.0000000000003
 51
269.9999999999997
  0
ARC
  5
1EF
330
182
100
AcDbEntity
  8
VER
100
AcDbCircle
 10
-6.999999999999966
 20
9.650000000000196
 30
0.0
 40
10.0000000000002
100
AcDbArc
 50
255.0000000000002
 51
267.1752133564499
  0
LINE
  5
1F0
330
182
100
AcDbEntity
  8
VER
100
AcDbLine
 10
-6.999999999999997
 20
-20.35
 30
0.0
 11
7.000000000000001
 21
-20.35
 31
0.0
  0
LINE
  5
1F1
330
182
100
AcDbEntity
  8
VER
100
AcDbLine
 10
7.000000000000003
 20
-20.35
 30
0.0
 11
7.000000000000003
 21
-1.849999999999998
 31
0.0
  0
LINE
  5
1F2
330
182
100
AcDbEntity
  8
VER
100
AcDbLine
 10
-6.999999999999997
 20
-20.35
 30
0.0
 11
-6.999999999999997
 21
-1.849999999999998
 31
0.0
  0
LINE
  5
1F3
330
182
100
AcDbEntity
  8
VER
100
AcDbLine
 10
-29.998
 20
-18.28951471866676
 30
0.0
 11
-29.99799999999999
 21
-11.36124255698219
 31
0.0
  0
LINE
  5
1F4
330
182
100
AcDbEntity
  8
VER
100
AcDbLine
 10
-29.998
 20
-8.849999999999998
 30
0.0
 11
-23.92019640164911
 21
-3.482476975408405
 31
0.0
  0
LINE
  5
1F5
330
182
100
AcDbEntity
  8
VER
100
AcDbLine
 10
-29.99799999999999
 20
-11.36124255698219
 30
0.0
 11
-30.33622596728398
 21
-11.36857803887358
 31
0.0
  0
ARC
  5
1F6
330
182
100
AcDbEntity
  8
VER
100
AcDbCircle
 10
-31.03356753712738
 20
8.600671779872972
 30
0.0
 40
29.99999999999935
100
AcDbArc
 50
284.212514042475
 51
290.0000000000001
  0
LINE
  5
1F7
330
182
100
AcDbEntity
  8
VER
100
AcDbLine
 10
66.5
 20
-8.85
 30
0.0
 11
70.62891333774945
 21
-3.960002592091254
 31
0.0
  0
LINE
  5
1F8
330
182
100
AcDbEntity
  8
VER
100
AcDbLine
 10
71.62972130929317
 20
-2.87154270055252
 30
0.0
 11
78.70209929227401
 21
-18.75636372927803
 31
0.0
  0
LWPOLYLINE
  5
1F9
330
182
100
AcDbEntity
  8
VER
100
AcDbPolyline
 90
        3
 70
     0
 43
0.0
 10
71.62972130929317
 20
-2.87154270055252
 10
71.28178704253497
 20
-3.229307042912651
 10
70.62891333774945
 20
-3.960002592091254
  0
ARC
  5
1FA
330
182
100
AcDbEntity
  8
VER
100
AcDbCircle
 10
66.4999999999993
 20
8.650000000002034
 30
0.0
 40
30.00000000000214
100
AcDbArc
 50
283.8235815984414
 51
293.9999999999997
  0
LWPOLYLINE
  5
1FB
330
182
100
AcDbEntity
  8
VER
100
AcDbPolyline
 90
        4
 70
     0
 43
0.0
 10
-22.31357684805126
 20
-2.231261879746286
 10
-22.82227532770067
 20
-2.593544429768112
 10
-23.37865687617789
 20
-3.024557987380607
 10
-23.92019640164911
 20
-3.482476975408405
  0
LINE
  5
1FC
330
182
100
AcDbEntity
  8
VER
100
AcDbLine
 10
-14.76457135307562
 20
-19.32777478867205
 30
0.0
 11
-9.588190451025204
 21
-0.0092582628906801
 31
0.0
  0
ARC
  5
1FD
330
182
100
AcDbEntity
  8
VER
100
AcDbCircle
 10
-17.3527618041005
 20
-28.9870330515615
 30
0.0
 40
29.99999999999873
100
AcDbArc
 50
75.0
 51
79.72194315224901
  0
ARC
  5
1FE
330
182
100
AcDbEntity
  8
VER
100
AcDbCircle
 10
-17.35276180410082
 20
-28.98703305156263
 30
0.0
 40
9.999999999999895
100
AcDbArc
 50
74.99999999999983
 51
110.0000000000002
  0
LINE
  5
1FF
330
182
100
AcDbEntity
  8
VER
100
AcDbLine
 10
-20.77296323735752
 20
-19.59010684370366
 30
0.0
 11
-25.97513267589077
 21
-5.297263779156611
 31
0.0
  0
LINE
  5
200
330
182
100
AcDbEntity
  8
VER
100
AcDbLine
 10
30.33622596728402
 20
-11.36857803887291
 30
0.0
 11
30.42417665042648
 21
-8.849999999999998
 31
0.0
  0
LINE
  5
201
330
182
100
AcDbEntity
  8
VER
100
AcDbLine
 10
66.5
 20
-8.85
 30
0.0
 11
29.998
 21
-8.849999999999998
 31
0.0
  0
LINE
  5
202
330
182
100
AcDbEntity
  8
VER
100
AcDbLine
 10
66.5
 20
-19.02345953070855
 30
0.0
 11
66.5
 21
-8.85
 31
0.0
  0
LINE
  5
203
330
182
100
AcDbEntity
  8
VER
100
AcDbLine
 10
100.0
 20
-18.36012000000001
 30
0.0
 11
112.7355084524972
 21
-18.36012000000001
 31
0.0
  0
LINE
  5
204
330
182
100
AcDbEntity
  8
VER
100
AcDbLine
 10
100.0
 20
-18.36012000000001
 30
0.0
 11
100.0
 21
-8.849999999999996
 31
0.0
  0
LINE
  5
205
330
182
100
AcDbEntity
  8
VER
100
AcDbLine
 10
97.75340901909907
 20
-8.85056144043641
 30
0.0
 11
97.81597166357999
 21
-17.89181830125677
 31
0.0
  0
ARC
  5
206
330
182
100
AcDbEntity
  8
VER
100
AcDbCircle
 10
100.0000000000001
 20
-13.03311999999972
 30
0.0
 40
5.327000000000296
100
AcDbArc
 50
245.7885955186455
 51
269.9999999999989
  0
LINE
  5
207
330
182
100
AcDbEntity
  8
VER
100
AcDbLine
 10
-113.5958731070238
 20
-17.1313919335665
 30
0.0
 11
-113.5958731070238
 21
1.411151933566473
 31
0.0
  0
LINE
  5
208
330
182
100
AcDbEntity
  8
VER
100
AcDbLine
 10
-113.5958731070238
 20
1.411151933566473
 30
0.0
 11
-116.6117082763787
 21
3.522862453146757
 31
0.0
  0
LINE
  5
209
330
182
100
AcDbEntity
  8
VER
100
AcDbLine
 10
-116.6117082763787
 20
-19.24310245314679
 30
0.0
 11
-113.5958731070238
 21
-17.1313919335665
 31
0.0
  0
LINE
  5
20A
330
182
100
AcDbEntity
  8
VER
100
AcDbLine
 10
113.5958731070238
 20
-17.13139193356652
 30
0.0
 11
113.5958731070238
 21
1.411151933566518
 31
0.0
  0
LINE
  5
20B
330
182
100
AcDbEntity
  8
VER
100
AcDbLine
 10
113.5958731070238
 20
-17.13139193356652
 30
0.0
 11
116.6117082763787
 21
-19.24310245314681
 31
0.0
  0
LINE
  5
20C
330
182
100
AcDbEntity
  8
VER
100
AcDbLine
 10
116.6117082763787
 20
3.522862453146812
 30
0.0
 11
113.5958731070238
 21
1.411151933566518
 31
0.0
  0
LINE
  5
20D
330
182
100
AcDbEntity
  8
VER
100
AcDbLine
 10
-116.6117082763787
 20
-19.24310245314679
 30
0.0
 11
-116.6117082763787
 21
3.522862453146757
 31
0.0
  0
LINE
  5
20E
330
182
100
AcDbEntity
  8
VER
100
AcDbLine
 10
-118.5
 20
-18.26012
 30
0.0
 11
-118.5
 21
2.539879999764933
 31
0.0
  0
ARC
  5
20F
330
182
100
AcDbEntity
  8
VER
100
AcDbCircle
 10
-117.3
 20
2.539879999999963
 30
0.0
 40
1.200000000000015
100
AcDbArc
 50
54.99999999999928
 51
179.9999999999997
  0
ARC
  5
210
330
182
100
AcDbEntity
  8
VER
100
AcDbCircle
 10
-117.3
 20
-18.26011999999999
 30
0.0
 40
1.200000000000003
100
AcDbArc
 50
180.0000000000003
 51
305.0000000000006
  0
LINE
  5
211
330
182
100
AcDbEntity
  8
VER
100
AcDbLine
 10
118.5
 20
-18.26012
 30
0.0
 11
118.5
 21
2.539879999764968
 31
0.0
  0
LINE
  5
212
330
182
100
AcDbEntity
  8
VER
100
AcDbLine
 10
116.6117082763787
 20
-19.24310245314681
 30
0.0
 11
116.6117082763787
 21
3.522862453146811
 31
0.0
  0
ARC
  5
213
330
182
100
AcDbEntity
  8
VER
100
AcDbCircle
 10
117.3
 20
2.539879999999986
 30
0.0
 40
1.200000000000031
100
AcDbArc
 50
0.0000000000008481
 51
124.9999999999993
  0
ARC
  5
214
330
182
100
AcDbEntity
  8
VER
100
AcDbCircle
 10
117.3
 20
-18.26011999999999
 30
0.0
 40
1.200000000000032
100
AcDbArc
 50
235.0000000000007
 51
359.9999999999993
  0
LINE
  5
215
330
182
100
AcDbEntity
  8
VER
100
AcDbLine
 10
112.7355084524972
 20
-18.36012000000001
 30
0.0
 11
112.7355084524972
 21
-8.849999999999996
 31
0.0
  0
LINE
  5
216
330
182
100
AcDbEntity
  8
VER
100
AcDbLine
 10
112.7355084524972
 20
-18.36012000000001
 30
0.0
 11
115.7513436218522
 21
-20.47183051958028
 31
0.0
  0
LINE
  5
217
330
182
100
AcDbEntity
  8
VER
100
AcDbLine
 10
120.0
 20
-18.26012
 30
0.0
 11
120.0
 21
-4.703174760932394
 31
0.0
  0
LINE
  5
218
330
182
100
AcDbEntity
  8
VER
100
AcDbLine
 10
115.7513436218522
 20
-20.47183051958028
 30
0.0
 11
115.7513436218522
 21
-8.849999999999996
 31
0.0
  0
ARC
  5
219
330
182
100
AcDbEntity
  8
VER
100
AcDbCircle
 10
117.3
 20
-18.26012000000002
 30
0.0
 40
2.699999999999993
100
AcDbArc
 50
234.9999999999995
 51
0.0000000000004523
  0
LINE
  5
21A
330
182
100
AcDbEntity
  8
VER
100
AcDbLine
 10
-7.499999999999997
 20
-0.031695488854625
 30
0.0
 11
-7.499999999999997
 21
-1.499999999999994
 31
0.0
  0
LINE
  5
21B
330
182
100
AcDbEntity
  8
VER
100
AcDbLine
 10
7.500000000000003
 20
-1.499999999999994
 30
0.0
 11
7.500000000000003
 21
-0.031695488854625
 31
0.0
  0
ELLIPSE
  5
21C
330
182
100
AcDbEntity
  8
VER
100
AcDbEllipse
 10
-0.0000000000000115
 20
-0.7658477444273006
 30
0.0
 11
7.500000000000019
 21
-2.182098464197390E-14
 31
0.0
210
0.0
220
0.0
230
1.0
 40
0.9510565162951532
 41
3.141592653589796
 42
7.853981633974483
  0
ELLIPSE
  5
21D
330
182
100
AcDbEntity
  8
VER
100
AcDbEllipse
 10
0.0000000000000062
 20
-0.7658477444273011
 30
0.0
 11
7.500000000000003
 21
2.475797344914099E-14
 31
0.0
210
0.0
220
0.0
230
1.0
 40
0.9510565162951532
 41
1.570796326794894
 42
3.14159265358979
  0
LINE
  5
21E
330
182
100
AcDbEntity
  8
VER
100
AcDbLine
 10
-4.539823785126459
 20
-9.499999999999991
 30
0.0
 11
4.539823785126464
 21
-9.499999999999991
 31
0.0
  0
LINE
  5
21F
330
182
100
AcDbEntity
  8
VER
100
AcDbLine
 10
4.539823785126464
 20
-9.499999999999991
 30
0.0
 11
4.539823785126464
 21
-10.49999999999999
 31
0.0
  0
LINE
  5
220
330
182
100
AcDbEntity
  8
VER
100
AcDbLine
 10
-4.539823785126459
 20
-10.49999999999999
 30
0.0
 11
-4.539823785126459
 21
-9.499999999999991
 31
0.0
  0
CIRCLE
  5
221
330
182
100
AcDbEntity
  8
VER
100
AcDbCircle
 10
0.0000000000000029
 20
-1.499999999999991
 30
0.0
 40
7.5
  0
LINE
  5
222
330
182
100
AcDbEntity
  8
VER
100
AcDbLine
 10
8.66025403784439
 20
-10.49999999999999
 30
0.0
 11
8.66025403784439
 21
7.500000000000008
 31
0.0
  0
LINE
  5
223
330
182
100
AcDbEntity
  8
VER
100
AcDbLine
 10
-8.660254037844386
 20
-10.49999999999999
 30
0.0
 11
-8.660254037844386
 21
7.500000000000008
 31
0.0
  0
LINE
  5
224
330
182
100
AcDbEntity
  8
VER
100
AcDbLine
 10
-6.500000000000004
 20
4.00000000000001
 30
0.0
 11
6.500000000000008
 21
4.00000000000001
 31
0.0
  0
LINE
  5
225
330
182
100
AcDbEntity
  8
VER
100
AcDbLine
 10
6.500000000000008
 20
-9.999999999999991
 30
0.0
 11
6.500000000000008
 21
4.00000000000001
 31
0.0
  0
LINE
  5
226
330
182
100
AcDbEntity
  8
VER
100
AcDbLine
 10
-6.500000000000004
 20
4.00000000000001
 30
0.0
 11
-6.500000000000004
 21
-9.999999999999991
 31
0.0
  0
LINE
  5
227
330
182
100
AcDbEntity
  8
VER
100
AcDbLine
 10
-6.500000000000004
 20
-9.999999999999991
 30
0.0
 11
6.500000000000008
 21
-9.999999999999991
 31
0.0
  0
LINE
  5
228
330
182
100
AcDbEntity
  8
VER
100
AcDbLine
 10
-6.500000000000004
 20
-9.999999999999991
 30
0.0
 11
-7.000000000000004
 21
-10.49999999999999
 31
0.0
  0
LINE
  5
229
330
182
100
AcDbEntity
  8
VER
100
AcDbLine
 10
7.000000000000009
 20
-10.49999999999999
 30
0.0
 11
6.500000000000008
 21
-9.999999999999991
 31
0.0
  0
LINE
  5
22A
330
182
100
AcDbEntity
  8
VER
100
AcDbLine
 10
9.00000000000001
 20
-16.49999999999999
 30
0.0
 11
9.00000000000001
 21
-10.49999999999999
 31
0.0
  0
LINE
  5
22B
330
182
100
AcDbEntity
  8
VER
100
AcDbLine
 10
-9.000000000000005
 20
-10.49999999999999
 30
0.0
 11
-9.000000000000005
 21
-16.49999999999999
 31
0.0
  0
LINE
  5
22C
330
182
100
AcDbEntity
  8
VER
100
AcDbLine
 10
-9.000000000000005
 20
-16.49999999999999
 30
0.0
 11
9.00000000000001
 21
-16.49999999999999
 31
0.0
  0
LINE
  5
22D
330
182
100
AcDbEntity
  8
VER
100
AcDbLine
 10
-9.000000000000005
 20
-16.49999999999999
 30
0.0
 11
-10.73205080756886
 21
-19.49999999999999
 31
0.0
  0
LINE
  5
22E
330
182
100
AcDbEntity
  8
VER
100
AcDbLine
 10
10.73205080756887
 20
-19.49999999999999
 30
0.0
 11
9.00000000000001
 21
-16.49999999999999
 31
0.0
  0
CIRCLE
  5
22F
330
182
100
AcDbEntity
  8
VER
100
AcDbCircle
 10
-0.0000000000000044
 20
-0.0316954888546261
 30
0.0
 40
7.500000000000008
  0
LINE
  5
230
330
182
100
AcDbEntity
  8
MITTE
100
AcDbLine
 10
-7.874999999999997
 20
-1.499999999999991
 30
0.0
 11
7.875000000000003
 21
-1.499999999999991
 31
0.0
  0
LINE
  5
231
330
182
100
AcDbEntity
  8
MITTE
100
AcDbLine
 10
8.250000000000004
 20
-15.03169548885462
 30
0.0
 11
-8.249999999999996
 21
-15.03169548885462
 31
0.0
  0
LINE
  5
232
330
182
100
AcDbEntity
  8
MITTE
100
AcDbLine
 10
-80.769465723032
 20
-7.891818305704011
 30
0.0
 11
-124.769465723032
 21
-7.891818305704011
 31
0.0
  0
LINE
  5
233
330
182
100
AcDbEntity
  8
MITTE
100
AcDbLine
 10
-121.1126609959125
 20
-7.860120000000014
 30
0.0
 11
-96.63411908583714
 21
-7.860120000000014
 31
0.0
  0
LINE
  5
234
330
182
100
AcDbEntity
  8
MITTE
100
AcDbLine
 10
80.769465723032
 20
-7.891818305704011
 30
0.0
 11
124.769465723032
 21
-7.891818305704011
 31
0.0
  0
LINE
  5
235
330
182
100
AcDbEntity
  8
MITTE
100
AcDbLine
 10
96.63411908583714
 20
-7.860119999999997
 30
0.0
 11
121.1126609959125
 21
-7.860119999999997
 31
0.0
  0
LINE
  5
236
330
182
100
AcDbEntity
  8
MITTE
100
AcDbLine
 10
-68.32509999999999
 20
-11.35
 30
0.0
 11
-28.17289999999999
 21
-11.35
 31
0.0
  0
LINE
  5
237
330
182
100
AcDbEntity
  8
MITTE
100
AcDbLine
 10
28.17290000000002
 20
-11.35
 30
0.0
 11
68.32509999999999
 21
-11.35
 31
0.0
  0
LINE
  5
238
330
182
100
AcDbEntity
  8
MITTE
100
AcDbLine
 10
-7.699999999999998
 20
-10.35
 30
0.0
 11
7.700000000000003
 21
-10.35
 31
0.0
  0
LINE
  5
239
330
182
100
AcDbEntity
  8
MITTE
100
AcDbLine
 10
-7.875000000000013
 20
-0.0316954888546261
 30
0.0
 11
7.875000000000004
 21
-0.0316954888546261
 31
0.0
  0
LINE
  5
23A
330
182
100
AcDbEntity
  8
MITTE
100
AcDbLine
 10
0.0000000000000029
 20
-20.67499999999999
 30
0.0
 11
-0.0000000000000044
 21
7.843304511145383
 31
0.0
  0
LINE
  5
23B
330
182
100
AcDbEntity
  8
050
100
AcDbLine
 10
97.74678008174953
 20
2.108181694295988
 30
0.0
 11
82.76946572303204
 21
2.108181694295988
 31
0.0
  0
LINE
  5
23C
330
182
100
AcDbEntity
  8
050
100
AcDbLine
 10
-66.5
 20
-21.35
 30
0.0
 11
-29.998
 21
-21.35
 31
0.0
  0
LINE
  5
23D
330
182
100
AcDbEntity
  8
050
100
AcDbLine
 10
-29.998
 20
-21.35
 30
0.0
 11
-29.998
 21
-18.28951471866676
 31
0.0
  0
LINE
  5
23E
330
182
100
AcDbEntity
  8
050
100
AcDbLine
 10
29.998
 20
-19.36114949229256
 30
0.0
 11
29.998
 21
-21.35
 31
0.0
  0
LINE
  5
23F
330
182
100
AcDbEntity
  8
050
100
AcDbLine
 10
29.998
 20
-21.05410250487683
 30
0.0
 11
29.98658263605255
 21
-21.38105303069928
 31
0.0
  0
ARC
  5
240
330
182
100
AcDbEntity
  8
050
100
AcDbCircle
 10
31.03356753712779
 20
8.600671779874851
 30
0.0
 40
30.00000000000127
100
AcDbArc
 50
258.3976020715968
 51
267.9999999999997
  0
LINE
  5
241
330
182
100
AcDbEntity
  8
050
100
AcDbLine
 10
-97.81595993903369
 20
-17.89181830570401
 30
0.0
 11
-82.76946572303204
 21
-17.89181830570401
 31
0.0
  0
LINE
  5
242
330
182
100
AcDbEntity
  8
050
100
AcDbLine
 10
-82.76946572303204
 20
2.108181694295988
 30
0.0
 11
-97.74678008174966
 21
2.108181694295988
 31
0.0
  0
ARC
  5
243
330
182
100
AcDbEntity
  8
050
100
AcDbCircle
 10
82.76946572303186
 20
-27.89181830570643
 30
0.0
 40
30.00000000000242
100
AcDbArc
 50
89.99999999999977
 51
92.22785759030016
  0
LWPOLYLINE
  5
244
330
182
100
AcDbEntity
  8
050
100
AcDbPolyline
 90
       21
 70
     0
 43
0.0
 10
81.60736291214971
 20
2.085665195366601
 10
81.60256529591726
 20
2.085002360532277
 10
81.56760293835427
 20
2.080131117060174
 10
81.48641805234608
 20
2.068542253677946
 10
81.37048316642911
 20
2.051319060174783
 10
81.20208923832588
 20
2.024886262135223
 10
81.01124301996904
 20
1.992892208510623
 10
80.58473081724617
 20
1.91350594748439
 10
80.15308550856858
 20
1.82190891343776
 10
79.70837712596756
 20
1.715611486388621
 10
78.79519222735038
 20
1.458081160018535
 10
77.86384046644896
 20
1.138945853190569
 10
76.93583520247283
 20
0.7608580567494241
 10
76.2501499321674
 20
0.4404241810007484
 10
75.57452560481042
 20
0.0882326627289336
 10
74.90653248541899
 20
-0.2981266149019902
 10
74.25267819020898
 20
-0.7159118780581109
 10
73.60089130328569
 20
-1.174908138386959
 10
72.96746648390251
 20
-1.66570008369272
 10
72.34944453338797
 20
-2.191890489153275
 10
72.30807975102901
 20
-2.228901701787877
  0
LINE
  5
245
330
182
100
AcDbEntity
  8
050
100
AcDbLine
 10
82.76946572303201
 20
2.10818169429599
 30
0.0
 11
82.76946572303201
 21
-8.849999999999996
 31
0.0
  0
LINE
  5
246
330
182
100
AcDbEntity
  8
050
100
AcDbLine
 10
-70.62891333776219
 20
-3.960002592076195
 30
0.0
 11
-70.00190310850695
 21
-4.702589840822263
 31
0.0
  0
LWPOLYLINE
  5
247
330
182
100
AcDbEntity
  8
050
100
AcDbPolyline
 90
        3
 70
     0
 43
0.0
 10
-70.62891333776219
 20
-3.960002592076195
 10
-71.11324500677479
 20
-3.410171211348303
 10
-71.62972130929317
 20
-2.871542700552517
  0
ARC
  5
248
330
182
100
AcDbEntity
  8
050
100
AcDbCircle
 10
-66.50000000000001
 20
8.650000000000102
 30
0.0
 40
30.00000000000009
100
AcDbArc
 50
246.0000000000001
 51
270.0
  0
LINE
  5
249
330
182
100
AcDbEntity
  8
050
100
AcDbLine
 10
-66.5
 20
-21.35
 30
0.0
 11
-66.5
 21
-20.83887939164554
 31
0.0
  0
LINE
  5
24A
330
182
100
AcDbEntity
  8
050
100
AcDbLine
 10
23.92019640163283
 20
-3.482476975394046
 30
0.0
 11
24.99973439699018
 21
-4.435855108174488
 31
0.0
  0
LWPOLYLINE
  5
24B
330
182
100
AcDbEntity
  8
050
100
AcDbPolyline
 90
       20
 70
     0
 43
0.0
 10
23.92019640163283
 20
-3.482476975394046
 10
23.37772041548703
 20
-3.02380009136288
 10
22.81828857771111
 20
-2.590590803113573
 10
22.24107415268286
 20
-2.181950387564181
 10
21.64940479797433
 20
-1.799975266157482
 10
21.03356297857068
 20
-1.438902622720742
 10
20.4055763097918
 20
-1.106261898195186
 10
19.76472706831296
 20
-0.8013653515356737
 10
19.11475370202531
 20
-0.525662358563111
 10
18.47692835041297
 20
-0.2862169081215695
 10
17.83382097829306
 20
-0.0745495954663622
 10
17.18529972173948
 20
0.1098408839286482
 10
16.53559684092302
 20
0.2663087768599005
 10
15.87643928122428
 20
0.3969870223467921
 10
15.22282437767885
 20
0.4993166979077714
 10
14.57762194510121
 20
0.5742136649081205
 10
13.95389202838406
 20
0.6222879537140117
 10
13.44473598087143
 20
0.6439512235059933
 10
13.2095665184056
 20
0.6486435687389079
 10
12.998
 20
0.6500000000000008
  0
LINE
  5
24C
330
182
100
AcDbEntity
  8
050
100
AcDbLine
 10
12.998
 20
0.6499999999984515
 30
0.0
 11
12.998
 21
0.6952183729195296
 31
0.0
  0
ARC
  5
24D
330
182
100
AcDbEntity
  8
050
100
AcDbCircle
 10
17.35276180410148
 20
-28.9870330515662
 30
0.0
 40
30.00000000000353
100
AcDbArc
 50
98.34775327588702
 51
100.2780568477512
  0
ARC
  5
24E
330
182
100
AcDbEntity
  8
050
100
AcDbCircle
 10
-31.03356753712777
 20
8.600671779874805
 30
0.0
 40
30.00000000000122
100
AcDbArc
 50
272.0000000000003
 51
284.2125140424748
  0
LINE
  5
24F
330
182
100
AcDbEntity
  8
050
100
AcDbLine
 10
-29.98658263605255
 20
-21.38105303069929
 30
0.0
 11
-29.998
 21
-21.05410250487683
 31
0.0
  0
ARC
  5
250
330
182
100
AcDbEntity
  8
050
100
AcDbCircle
 10
66.49999999999994
 20
8.650000000000102
 30
0.0
 40
30.0000000000001
100
AcDbArc
 50
270.0000000000001
 51
283.8235815984412
  0
LWPOLYLINE
  5
251
330
182
100
AcDbEntity
  8
050
100
AcDbPolyline
 90
       21
 70
     0
 43
0.0
 10
-71.62972130929317
 20
-2.871542700552516
 10
-72.47417487069292
 20
-2.081704350242946
 10
-73.36229294817885
 20
-1.354346410490983
 10
-74.30447445837453
 20
-0.6813600951408059
 10
-75.28125786736466
 20
-0.076551623819658
 10
-75.92850473344043
 20
0.2774155076951358
 10
-76.58606397703588
 20
0.6019258340239261
 10
-77.25630691592657
 20
0.8984390610399927
 10
-77.93261857015625
 20
1.164532664221288
 10
-78.6264793221739
 20
1.404549077112808
 10
-79.31872708048782
 20
1.612256191062989
 10
-79.78174979025127
 20
1.733868150445629
 10
-80.23654815533482
 20
1.840404165972887
 10
-80.67507442615654
 20
1.931235983723698
 10
-80.98060942169093
 20
1.98755436642967
 10
-81.26079893587819
 20
2.034292798096029
 10
-81.39878752808453
 20
2.055597177674962
 10
-81.51241305099893
 20
2.072295205057552
 10
-81.57184702737645
 20
2.080726272765943
 10
-81.60385252351874
 20
2.085180335691716
 10
-81.60736291213017
 20
2.08566519536391
  0
LINE
  5
252
330
182
100
AcDbEntity
  8
050
100
AcDbLine
 10
-82.76946572303204
 20
-17.89181830570401
 30
0.0
 11
-82.76946572303201
 21
2.10818169429599
 31
0.0
  0
ARC
  5
253
330
182
100
AcDbEntity
  8
050
100
AcDbCircle
 10
-82.7694657230319
 20
-27.89181830571096
 30
0.0
 40
30.00000000000694
100
AcDbArc
 50
87.77217233317702
 51
90.00000000000016
  0
ARC
  5
254
330
182
100
AcDbEntity
  8
050
100
AcDbCircle
 10
-82.76946572303211
 20
-27.8918183057042
 30
0.0
 40
10.00000000000019
100
AcDbArc
 50
65.99999999999987
 51
89.99999999999957
  0
LINE
  5
255
330
182
100
AcDbEntity
  8
050
100
AcDbLine
 10
-78.70209929227401
 20
-18.75636372927803
 30
0.0
 11
-71.62972130929317
 21
-2.871542700552517
 31
0.0
  0
LWPOLYLINE
  5
256
330
182
100
AcDbEntity
  8
050
100
AcDbPolyline
 90
       17
 70
     0
 43
0.0
 10
-12.99799999999999
 20
0.6499999999977799
 10
-13.18792926163715
 20
0.6489068388052288
 10
-13.40132888360203
 20
0.6450697425519367
 10
-13.88392520362545
 20
0.6261990924357693
 10
-14.40542097509489
 20
0.5898651514805003
 10
-14.955267680368
 20
0.53350094538368
 10
-15.48365724233021
 20
0.4616985036400175
 10
-16.01950922052206
 20
0.3709889350279857
 10
-17.10556197783835
 20
0.130548632578823
 10
-18.20774470129654
 20
-0.1940567148666288
 10
-19.30467291206706
 20
-0.6028403700819625
 10
-19.90721052063299
 20
-0.8662484677042664
 10
-20.50333491671165
 20
-1.155785227240315
 10
-21.09347870080247
 20
-1.472475018110579
 10
-21.67455018074532
 20
-1.815489785496305
 10
-22.25442556543863
 20
-2.190988844301523
 10
-22.31357684805126
 20
-2.231261879746286
  0
ARC
  5
257
330
182
100
AcDbEntity
  8
050
100
AcDbCircle
 10
-17.35276180409951
 20
-28.98703305155393
 30
0.0
 40
29.9999999999911
100
AcDbArc
 50
79.7219431522483
 51
81.65337628981275
  0
LINE
  5
258
330
182
100
AcDbEntity
  8
050
100
AcDbLine
 10
-12.99799999999999
 20
0.6952183664920667
 30
0.0
 11
-12.99799999999999
 21
0.6499999999977777
 31
0.0
  0
LINE
  5
259
330
182
100
AcDbEntity
  8
050
100
AcDbLine
 10
29.99800000000001
 20
-21.35
 30
0.0
 11
66.5
 21
-21.35
 31
0.0
  0
LINE
  5
25A
330
182
100
AcDbEntity
  8
050
100
AcDbLine
 10
66.5
 20
-21.35
 30
0.0
 11
66.5
 21
-19.02345953070855
 31
0.0
  0
LINE
  5
25B
330
182
100
AcDbEntity
  8
050
100
AcDbLine
 10
-100.0
 20
2.639879999999972
 30
0.0
 11
-112.7355084524972
 21
2.639879999999972
 31
0.0
  0
LINE
  5
25C
330
182
100
AcDbEntity
  8
050
100
AcDbLine
 10
-112.7355084524972
 20
-18.36012000000001
 30
0.0
 11
-100.0
 21
-18.36012000000001
 31
0.0
  0
LINE
  5
25D
330
182
100
AcDbEntity
  8
050
100
AcDbLine
 10
-97.74678008174966
 20
2.139879999999968
 30
0.0
 11
-97.81597166361038
 21
-17.89181830557939
 31
0.0
  0
LINE
  5
25E
330
182
100
AcDbEntity
  8
050
100
AcDbLine
 10
-100.0
 20
-18.36012000000001
 30
0.0
 11
-100.0
 21
2.639879999999972
 31
0.0
  0
ARC
  5
25F
330
182
100
AcDbEntity
  8
050
100
AcDbCircle
 10
-100.0
 20
-2.687120000000286
 30
0.0
 40
5.327000000000253
100
AcDbArc
 50
64.97706438812952
 51
89.99999999999939
  0
ARC
  5
260
330
182
100
AcDbEntity
  8
050
100
AcDbCircle
 10
-100.0
 20
-13.03312000000009
 30
0.0
 40
5.326999999999911
100
AcDbArc
 50
270.0
 51
294.2121580519546
  0
LINE
  5
261
330
182
100
AcDbEntity
  8
050
100
AcDbLine
 10
112.7355084524972
 20
2.639880000000009
 30
0.0
 11
100.0
 21
2.639880000000009
 31
0.0
  0
LINE
  5
262
330
182
100
AcDbEntity
  8
050
100
AcDbLine
 10
100.0
 20
-8.849999999999996
 30
0.0
 11
100.0
 21
2.63988000000001
 31
0.0
  0
LINE
  5
263
330
182
100
AcDbEntity
  8
050
100
AcDbLine
 10
97.75340901909907
 20
-8.85056144043641
 30
0.0
 11
97.74678008174966
 21
2.139880000000006
 31
0.0
  0
ARC
  5
264
330
182
100
AcDbEntity
  8
050
100
AcDbCircle
 10
100.0
 20
-2.687120000000247
 30
0.0
 40
5.327000000000258
100
AcDbArc
 50
90.00000000000063
 51
115.0229356118705
  0
LINE
  5
265
330
182
100
AcDbEntity
  8
050
100
AcDbLine
 10
-112.7355084524972
 20
-18.36012000000001
 30
0.0
 11
-112.7355084524972
 21
2.639879999999972
 31
0.0
  0
LINE
  5
266
330
182
100
AcDbEntity
  8
050
100
AcDbLine
 10
-112.7355084524972
 20
2.639879999999972
 30
0.0
 11
-115.7513436218522
 21
4.751590519580254
 31
0.0
  0
LINE
  5
267
330
182
100
AcDbEntity
  8
050
100
AcDbLine
 10
-115.7513436218522
 20
-20.47183051958028
 30
0.0
 11
-112.7355084524972
 21
-18.36012000000001
 31
0.0
  0
LINE
  5
268
330
182
100
AcDbEntity
  8
050
100
AcDbLine
 10
112.7355084524972
 20
-8.849999999999996
 30
0.0
 11
112.7355084524972
 21
2.639880000000007
 31
0.0
  0
LINE
  5
269
330
182
100
AcDbEntity
  8
050
100
AcDbLine
 10
115.7513436218522
 20
4.751590519580285
 30
0.0
 11
112.7355084524972
 21
2.639880000000007
 31
0.0
  0
LINE
  5
26A
330
182
100
AcDbEntity
  8
050
100
AcDbLine
 10
-115.7513436218522
 20
-20.47183051958028
 30
0.0
 11
-115.7513436218522
 21
4.751590519580254
 31
0.0
  0
LINE
  5
26B
330
182
100
AcDbEntity
  8
050
100
AcDbLine
 10
-120.0
 20
-18.26012
 30
0.0
 11
-120.0
 21
2.539879999764933
 31
0.0
  0
ARC
  5
26C
330
182
100
AcDbEntity
  8
050
100
AcDbCircle
 10
-117.3
 20
2.539879999999983
 30
0.0
 40
2.699999999999996
100
AcDbArc
 50
54.99999999999992
 51
180.0000000000003
  0
ARC
  5
26D
330
182
100
AcDbEntity
  8
050
100
AcDbCircle
 10
-117.3
 20
-18.26012000000002
 30
0.0
 40
2.699999999999989
100
AcDbArc
 50
179.9999999999995
 51
305.0000000000005
  0
LINE
  5
26E
330
182
100
AcDbEntity
  8
050
100
AcDbLine
 10
120.0
 20
-4.703174760932394
 30
0.0
 11
120.0
 21
2.539879999764968
 31
0.0
  0
LINE
  5
26F
330
182
100
AcDbEntity
  8
050
100
AcDbLine
 10
115.7513436218522
 20
-8.849999999999996
 30
0.0
 11
115.7513436218522
 21
4.751590519580285
 31
0.0
  0
ARC
  5
270
330
182
100
AcDbEntity
  8
050
100
AcDbCircle
 10
117.3
 20
2.539880000000025
 30
0.0
 40
2.699999999999989
100
AcDbArc
 50
359.9999999999996
 51
125.0000000000005
  0
LINE
  5
271
330
182
100
AcDbEntity
  8
050
100
AcDbLine
 10
11.00000000000001
 20
-11.56870779386421
 30
0.0
 11
11.00000000000001
 21
-11.39999999999999
 31
0.0
  0
LINE
  5
272
330
182
100
AcDbEntity
  8
050
100
AcDbLine
 10
-11.00000000000001
 20
-11.39999999999999
 30
0.0
 11
-11.00000000000001
 21
-11.56870779386421
 31
0.0
  0
LINE
  5
273
330
182
100
AcDbEntity
  8
050
100
AcDbLine
 10
-11.00000000000001
 20
-11.56870779386421
 30
0.0
 11
11.00000000000001
 21
-11.56870779386421
 31
0.0
  0
ARC
  5
274
330
182
100
AcDbEntity
  8
050
100
AcDbCircle
 10
11.89999999999985
 20
-11.56870779386425
 30
0.0
 40
0.8999999999998494
100
AcDbArc
 50
179.9999999999976
 51
225.0000000000052
  0
ARC
  5
275
330
182
100
AcDbEntity
  8
050
100
AcDbCircle
 10
-11.89999999999985
 20
-11.56870779386425
 30
0.0
 40
0.89999999999985
100
AcDbArc
 50
314.9999999999947
 51
0.0000000000023748
  0
LINE
  5
276
330
182
100
AcDbEntity
  8
050
100
AcDbLine
 10
-11.00000000000001
 20
-11.39999999999999
 30
0.0
 11
11.00000000000001
 21
-11.39999999999999
 31
0.0
  0
ARC
  5
277
330
182
100
AcDbEntity
  8
050
100
AcDbCircle
 10
11.89999999999997
 20
-11.39999999999995
 30
0.0
 40
0.899999999999956
100
AcDbArc
 50
89.9999999999982
 51
180.0000000000028
  0
ARC
  5
278
330
182
100
AcDbEntity
  8
050
100
AcDbCircle
 10
-11.89999999999996
 20
-11.39999999999994
 30
0.0
 40
0.8999999999999524
100
AcDbArc
 50
359.9999999999969
 51
90.00000000000192
  0
LINE
  5
279
330
182
100
AcDbEntity
  8
050
100
AcDbLine
 10
-12.0585
 20
-19.49999999999999
 30
0.0
 11
12.0585
 21
-19.49999999999999
 31
0.0
  0
LINE
  5
27A
330
182
100
AcDbEntity
  8
050
100
AcDbLine
 10
12.0585
 20
-19.49999999999999
 30
0.0
 11
13.22100000000001
 21
-18.3375
 31
0.0
  0
LINE
  5
27B
330
182
100
AcDbEntity
  8
050
100
AcDbLine
 10
-13.22100000000001
 20
-18.3375
 30
0.0
 11
-12.0585
 21
-19.49999999999999
 31
0.0
  0
LINE
  5
27C
330
182
100
AcDbEntity
  8
050
100
AcDbLine
 10
-13.22100000000001
 20
-18.3375
 30
0.0
 11
13.22100000000001
 21
-18.3375
 31
0.0
  0
LINE
  5
27D
330
182
100
AcDbEntity
  8
050
100
AcDbLine
 10
13.22100000000001
 20
-18.3375
 30
0.0
 11
13.22100000000001
 21
-14.16249999999999
 31
0.0
  0
LINE
  5
27E
330
182
100
AcDbEntity
  8
050
100
AcDbLine
 10
-13.22100000000001
 20
-14.16249999999999
 30
0.0
 11
-13.22100000000001
 21
-18.3375
 31
0.0
  0
LINE
  5
27F
330
182
100
AcDbEntity
  8
050
100
AcDbLine
 10
-11.26360389693212
 20
-12.2051038969321
 30
0.0
 11
11.26360389693213
 21
-12.2051038969321
 31
0.0
  0
LINE
  5
280
330
182
100
AcDbEntity
  8
050
100
AcDbLine
 10
-13.22100000000001
 20
-14.16249999999999
 30
0.0
 11
13.22100000000001
 21
-14.16249999999999
 31
0.0
  0
LINE
  5
281
330
182
100
AcDbEntity
  8
050
100
AcDbLine
 10
-11.26360389693212
 20
-12.2051038969321
 30
0.0
 11
-13.22100000000001
 21
-14.16249999999999
 31
0.0
  0
LINE
  5
282
330
182
100
AcDbEntity
  8
050
100
AcDbLine
 10
13.22100000000001
 20
-14.16249999999999
 30
0.0
 11
11.26360389693213
 21
-12.2051038969321
 31
0.0
  0
LINE
  5
283
330
182
100
AcDbEntity
  8
050
100
AcDbLine
 10
12.0
 20
7.500000000000009
 30
0.0
 11
-11.99999999999999
 21
7.500000000000009
 31
0.0
  0
LINE
  5
284
330
182
100
AcDbEntity
  8
050
100
AcDbLine
 10
12.0
 20
-10.49999999999999
 30
0.0
 11
-11.99999999999999
 21
-10.49999999999999
 31
0.0
  0
LINE
  5
285
330
182
100
AcDbEntity
  8
050
100
AcDbLine
 10
-11.99999999999999
 20
-10.49999999999999
 30
0.0
 11
-11.99999999999999
 21
7.500000000000009
 31
0.0
  0
LINE
  5
286
330
182
100
AcDbEntity
  8
050
100
AcDbLine
 10
12.0
 20
-10.49999999999999
 30
0.0
 11
12.0
 21
7.500000000000009
 31
0.0
  0
LINE
  5
287
330
182
100
AcDbEntity
  8
GEW
100
AcDbLine
 10
-12.0585
 20
-12.99999999999998
 30
0.0
 11
-12.0585
 21
-19.49999999999999
 31
0.0
  0
LINE
  5
288
330
182
100
AcDbEntity
  8
GEW
100
AcDbLine
 10
12.05850000000001
 20
-12.99999999999999
 30
0.0
 11
12.05850000000001
 21
-19.49999999999998
 31
0.0
  0
ENDBLK
  5
185
330
182
100
AcDbEntity
  8
0
100
AcDbBlockEnd
  0
ENDSEC
  0
SECTION
  2
ENTITIES
  0
ATTDEF
  5
6F
330
1F
100
AcDbEntity
  8
AM_6
100
AcDbText
 10
179.769465723032
 20
7.843304511145418
 30
0.0
 40
0.5
  1
Geberit Mapress Carbon Steel set of connector T-pieces for inlet and return flow, with union connector for Euro cone
100
AcDbAttributeDefinition
  3

  2
NN
 70
     8
280
     0
  0
ATTDEF
  5
70
330
1F
100
AcDbEntity
  8
AM_6
100
AcDbText
 10
179.769465723032
 20
7.343304511145418
 30
0.0
 40
0.5
  1

100
AcDbAttributeDefinition
  3

  2
NT
 70
     8
280
     0
  0
ATTDEF
  5
71
330
1F
100
AcDbEntity
  8
AM_6
100
AcDbText
 10
179.769465723032
 20
6.843304511145418
 30
0.0
 40
0.5
  1
24046
100
AcDbAttributeDefinition
  3

  2
NB
 70
     8
280
     0
  0
ATTDEF
  5
72
330
1F
100
AcDbEntity
  8
AM_6
100
AcDbText
 10
179.769465723032
 20
6.343304511145418
 30
0.0
 40
0.5
  1
$ARTNRT.
100
AcDbAttributeDefinition
  3

  2
NBSYN
 70
     8
280
     0
  0
ATTDEF
  5
73
330
1F
100
AcDbEntity
  8
AM_6
100
AcDbText
 10
179.769465723032
 20
5.843304511145418
 30
0.0
 40
0.5
  1
24046
100
AcDbAttributeDefinition
  3

  2
LINA
 70
     8
280
     0
  0
ATTDEF
  5
74
330
1F
100
AcDbEntity
  8
AM_6
100
AcDbText
 10
179.769465723032
 20
5.343304511145418
 30
0.0
 40
0.5
  1
GEBERIT
100
AcDbAttributeDefinition
  3

  2
CATALOG
 70
     8
280
     0
  0
ATTDEF
  5
75
330
1F
100
AcDbEntity
  8
AM_6
100
AcDbText
 10
179.769465723032
 20
4.843304511145418
 30
0.0
 40
0.5
  1
24046
100
AcDbAttributeDefinition
  3

  2
ARTNRT
 70
     8
280
     0
  0
ATTDEF
  5
76
330
1F
100
AcDbEntity
  8
AM_6
100
AcDbText
 10
179.769465723032
 20
4.343304511145418
 30
0.0
 40
0.5
  1
5
100
AcDbAttributeDefinition
  3

  2
AD
 70
     8
280
     0
  0
ATTDEF
  5
77
330
1F
100
AcDbEntity
  8
AM_6
100
AcDbText
 10
179.769465723032
 20
3.843304511145418
 30
0.0
 40
0.5
  1
18.0
100
AcDbAttributeDefinition
  3

  2
D
 70
     8
280
     0
  0
ATTDEF
  5
78
330
1F
100
AcDbEntity
  8
AM_6
100
AcDbText
 10
179.769465723032
 20
3.343304511145418
 30
0.0
 40
0.5
  1
15.0
100
AcDbAttributeDefinition
  3

  2
D1
 70
     8
280
     0
  0
ATTDEF
  5
79
330
1F
100
AcDbEntity
  8
AM_6
100
AcDbText
 10
179.769465723032
 20
2.843304511145418
 30
0.0
 40
0.5
  1
15 / 12
100
AcDbAttributeDefinition
  3

  2
DN
 70
     8
280
     0
  0
ATTDEF
  5
7A
330
1F
100
AcDbEntity
  8
AM_6
100
AcDbText
 10
179.769465723032
 20
2.343304511145418
 30
0.0
 40
0.5
  1
2.9
100
AcDbAttributeDefinition
  3

  2
L
 70
     8
280
     0
  0
ATTDEF
  5
7B
330
1F
100
AcDbEntity
  8
AM_6
100
AcDbText
 10
179.769465723032
 20
1.843304511145418
 30
0.0
 40
0.5
  1
12.7
100
AcDbAttributeDefinition
  3

  2
L1
 70
     8
280
     0
  0
ATTDEF
  5
7C
330
1F
100
AcDbEntity
  8
AM_6
100
AcDbText
 10
179.769465723032
 20
1.343304511145418
 30
0.0
 40
0.5
  1
6.8
100
AcDbAttributeDefinition
  3

  2
LL1
 70
     8
280
     0
  0
ATTDEF
  5
7D
330
1F
100
AcDbEntity
  8
AM_6
100
AcDbText
 10
179.769465723032
 20
0.8433045111454183
 30
0.0
 40
0.5
  1
10.0
100
AcDbAttributeDefinition
  3

  2
Z
 70
     8
280
     0
  0
ATTDEF
  5
7E
330
1F
100
AcDbEntity
  8
AM_6
100
AcDbText
 10
179.769465723032
 20
0.3433045111454183
 30
0.0
 40
0.5
  1
1.7
100
AcDbAttributeDefinition
  3

  2
Z1
 70
     8
280
     0
  0
ATTDEF
  5
7F
330
1F
100
AcDbEntity
  8
AM_6
100
AcDbText
 10
179.769465723032
 20
-0.1566954888545817
 30
0.0
 40
0.5
  1
geberit
100
AcDbAttributeDefinition
  3

  2
COMPANY
 70
     8
280
     0
  0
INSERT
  5
81
330
1F
100
AcDbEntity
  8
0
100
AcDbBlockReference
  2
1_24046_2_0_in_24046_4
 10
0.0
 20
0.0
 30
0.0
  0
INSERT
  5
183
330
1F
100
AcDbEntity
  8
0
100
AcDbBlockReference
  2
2_24046_1_0_in_24046_4
 10
0.0
 20
0.0
 30
0.0
  0
POINT
  5
28A
330
1F
100
AcDbEntity
  8
2d ConnectionPoints
100
AcDbPoint
 10
0.0
 20
0.0000000000000015
 30
0.0
  0
POINT
  5
28B
330
1F
100
AcDbEntity
  8
2d ConnectionPoints
100
AcDbPoint
 10
0.0
 20
0.0000000000000015
 30
0.0
  0
POINT
  5
28C
330
1F
100
AcDbEntity
  8
2d ConnectionPoints
100
AcDbPoint
 10
0.0
 20
0.0000000000000015
 30
0.0
  0
POINT
  5
28D
330
1F
100
AcDbEntity
  8
2d ConnectionPoints
100
AcDbPoint
 10
-50.0
 20
0.0000000000000036
 30
0.0
  0
ENDSEC
  0
SECTION
  2
OBJECTS
  0
DICTIONARY
  5
C
330
0
100
AcDbDictionary
281
     1
  3
ACAD_DETAILVIEWSTYLE
350
295
  3
ACAD_GROUP
350
D
  3
ACAD_LAYOUT
350
1A
  3
ACAD_MATERIAL
350
43
  3
ACAD_MLEADERSTYLE
350
6B
  3
ACAD_MLINESTYLE
350
17
  3
ACAD_PLOTSETTINGS
350
19
  3
ACAD_PLOTSTYLENAME
350
E
  3
ACAD_SCALELIST
350
47
  3
ACAD_SECTIONVIEWSTYLE
350
296
  3
ACAD_TABLESTYLE
350
69
  3
ACAD_VISUALSTYLE
350
2A
  3
ACDB_RECOMPOSE_DATA
350
292
  3
AcDbVariableDictionary
350
28E
  0
SUN
  5
6D
330
29
100
AcDbSun
 90
        1
290
     0
 63
     7
421
 16777215
 40
1.0
291
     1
 91
  2455826
 92
 54000000
292
     0
 70
     2
 71
   256
280
     1
  0
DICTIONARY
  5
295
102
{ACAD_REACTORS
330
C
102
}
330
C
100
AcDbDictionary
281
     1
  0
DICTIONARY
  5
D
102
{ACAD_REACTORS
330
C
102
}
330
C
100
AcDbDictionary
281
     1
  0
DICTIONARY
  5
1A
102
{ACAD_REACTORS
330
C
102
}
330
C
100
AcDbDictionary
281
     1
  3
Layout1
350
1E
  3
Layout2
350
26
  3
Model
350
22
  0
DICTIONARY
  5
43
102
{ACAD_REACTORS
330
C
102
}
330
C
100
AcDbDictionary
281
     1
  3
ByBlock
350
45
  3
ByLayer
350
44
  3
Global
350
46
  0
DICTIONARY
  5
6B
102
{ACAD_REACTORS
330
C
102
}
330
C
100
AcDbDictionary
281
     1
  3
Standard
350
6C
  0
DICTIONARY
  5
17
102
{ACAD_REACTORS
330
C
102
}
330
C
100
AcDbDictionary
281
     1
  3
Standard
350
18
  0
DICTIONARY
  5
19
102
{ACAD_REACTORS
330
C
102
}
330
C
100
AcDbDictionary
281
     1
  0
ACDBDICTIONARYWDFLT
  5
E
102
{ACAD_REACTORS
330
C
102
}
330
C
100
AcDbDictionary
281
     1
  3
Normal
350
F
100
AcDbDictionaryWithDefault
340
F
  0
DICTIONARY
  5
47
102
{ACAD_REACTORS
330
C
102
}
330
C
100
AcDbDictionary
281
     1
  3
A0
350
48
  3
A1
350
49
  3
A2
350
4A
  3
A3
350
4B
  3
A4
350
4C
  3
A5
350
4D
  3
A6
350
4E
  3
A7
350
4F
  3
A8
350
50
  3
A9
350
51
  3
B0
350
52
  3
B1
350
53
  3
B2
350
54
  3
B3
350
55
  3
B4
350
56
  3
B5
350
57
  3
B6
350
58
  3
B7
350
59
  3
B8
350
5A
  3
B9
350
5B
  3
C0
350
5C
  3
C1
350
5D
  3
C2
350
5E
  3
C3
350
5F
  3
C4
350
60
  3
C5
350
61
  3
C6
350
62
  3
C7
350
63
  3
C8
350
64
  3
C9
350
65
  3
D0
350
66
  3
D1
350
67
  3
D2
350
68
  0
DICTIONARY
  5
296
102
{ACAD_REACTORS
330
C
102
}
330
C
100
AcDbDictionary
281
     1
  0
DICTIONARY
  5
69
102
{ACAD_REACTORS
330
C
102
}
330
C
100
AcDbDictionary
281
     1
  3
Standard
350
6A
  0
DICTIONARY
  5
2A
102
{ACAD_REACTORS
330
C
102
}
330
C
100
AcDbDictionary
281
     1
  3
2dWireframe
350
2F
  3
Basic
350
32
  3
Brighten
350
36
  3
ColorChange
350
3A
  3
Conceptual
350
34
  3
Dim
350
35
  3
EdgeColorOff
350
3D
  3
Facepattern
350
39
  3
Flat
350
2B
  3
FlatWithEdges
350
2C
  3
Gouraud
350
2D
  3
GouraudWithEdges
350
2E
  3
Hidden
350
31
  3
JitterOff
350
3B
  3
Linepattern
350
38
  3
OverhangOff
350
3C
  3
Realistic
350
33
  3
Shaded
350
42
  3
Shaded with edges
350
41
  3
Shades of Gray
350
3E
  3
Sketchy
350
3F
  3
Thicken
350
37
  3
Wireframe
350
30
  3
X-Ray
350
40
  0
XRECORD
  5
292
102
{ACAD_REACTORS
330
C
102
}
330
C
100
AcDbXrecord
280
     1
 90
        1
330
6A
  0
DICTIONARY
  5
28E
102
{ACAD_REACTORS
330
C
102
}
330
C
100
AcDbDictionary
281
     1
  3
CANNOSCALE
350
28F
  3
CMLEADERSTYLE
350
294
  3
CTABLESTYLE
350
293
  3
SECTIONTHICKNESSINC
350
297
  0
LAYOUT
  5
1E
102
{ACAD_REACTORS
330
1A
102
}
330
1A
100
AcDbPlotSettings
  1

  2
none_device
  4

  6

 40
0.0
 41
0.0
 42
0.0
 43
0.0
 44
0.0
 45
0.0
 46
0.0
 47
0.0
 48
0.0
 49
0.0
140
0.0
141
0.0
142
1.0
143
1.0
 70
   688
 72
     1
 73
     0
 74
     5
  7

 75
    16
 76
     0
 77
     2
 78
   300
147
1.0
148
0.0
149
0.0
100
AcDbLayout
  1
Layout1
 70
     1
 71
     1
 10
0.0
 20
0.0
 11
420.0
 21
297.0
 12
0.0
 22
0.0
 32
0.0
 14
1.000000000000000E+20
 24
1.000000000000000E+20
 34
1.000000000000000E+20
 15
-1.000000000000000E+20
 25
-1.000000000000000E+20
 35
-1.000000000000000E+20
146
0.0
 13
0.0
 23
0.0
 33
0.0
 16
1.0
 26
0.0
 36
0.0
 17
0.0
 27
1.0
 37
0.0
 76
     0
330
1B
  0
LAYOUT
  5
26
102
{ACAD_REACTORS
330
1A
102
}
330
1A
100
AcDbPlotSettings
  1

  2
none_device
  4

  6

 40
0.0
 41
0.0
 42
0.0
 43
0.0
 44
0.0
 45
0.0
 46
0.0
 47
0.0
 48
0.0
 49
0.0
140
0.0
141
0.0
142
1.0
143
1.0
 70
   688
 72
     1
 73
     0
 74
     5
  7

 75
    16
 76
     0
 77
     2
 78
   300
147
1.0
148
0.0
149
0.0
100
AcDbLayout
  1
Layout2
 70
     1
 71
     2
 10
0.0
 20
0.0
 11
0.0
 21
0.0
 12
0.0
 22
0.0
 32
0.0
 14
0.0
 24
0.0
 34
0.0
 15
0.0
 25
0.0
 35
0.0
146
0.0
 13
0.0
 23
0.0
 33
0.0
 16
1.0
 26
0.0
 36
0.0
 17
0.0
 27
1.0
 37
0.0
 76
     0
330
23
  0
LAYOUT
  5
22
102
{ACAD_REACTORS
330
1A
102
}
330
1A
100
AcDbPlotSettings
  1

  2
none_device
  4
Letter_(8.50_x_11.00_Inches)
  6

 40
6.35
 41
6.35
 42
6.35000508
 43
6.35000508
 44
215.9
 45
279.4
 46
0.0
 47
0.0
 48
0.0
 49
0.0
140
0.0
141
0.0
142
1.0
143
1.0
 70
  1712
 72
     1
 73
     0
 74
     0
  7

 75
     0
 76
     0
 77
     2
 78
   300
147
1.0
148
0.0
149
0.0
100
AcDbLayout
  1
Model
 70
     1
 71
     0
 10
0.0
 20
0.0
 11
420.0
 21
297.0
 12
0.0
 22
0.0
 32
0.0
 14
1.000000000000000E+20
 24
1.000000000000000E+20
 34
1.000000000000000E+20
 15
-1.000000000000000E+20
 25
-1.000000000000000E+20
 35
-1.000000000000000E+20
146
0.0
 13
0.0
 23
0.0
 33
0.0
 16
1.0
 26
0.0
 36
0.0
 17
0.0
 27
1.0
 37
0.0
 76
     0
330
1F
331
29
  0
MATERIAL
  5
45
102
{ACAD_REACTORS
330
43
102
}
330
43
100
AcDbMaterial
  1
ByBlock
 72
     1
 94
      127
  0
MATERIAL
  5
44
102
{ACAD_REACTORS
330
43
102
}
330
43
100
AcDbMaterial
  1
ByLayer
 72
     1
 94
      127
  0
MATERIAL
  5
46
102
{ACAD_REACTORS
330
43
102
}
330
43
100
AcDbMaterial
  1
Global
 72
     1
 94
      127
  0
MLEADERSTYLE
  5
6C
102
{ACAD_REACTORS
330
6B
102
}
330
6B
100
AcDbMLeaderStyle
179
     2
170
     2
171
     1
172
     0
 90
        2
 40
0.0
 41
0.0
173
     1
 91
-1056964608
340
14
 92
       -2
290
     1
 42
2.0
291
     1
 43
8.0
  3
Standard
341
0
 44
4.0
300

342
11
174
     1
178
     6
175
     1
176
     0
 93
-1056964608
 45
4.0
292
     0
297
     0
 46
4.0
343
0
 94
-1056964608
 47
1.0
 49
1.0
140
1.0
293
     1
141
0.0
294
     1
177
     0
142
1.0
295
     0
296
     0
143
3.75
271
     0
272
     9
273
     9
298
     0
  0
MLINESTYLE
  5
18
102
{ACAD_REACTORS
330
17
102
}
330
17
100
AcDbMlineStyle
  2
Standard
 70
     0
  3

 62
   256
 51
90.0
 52
90.0
 71
     2
 49
0.5
 62
   256
  6
BYLAYER
 49
-0.5
 62
   256
  6
BYLAYER
  0
ACDBPLACEHOLDER
  5
F
102
{ACAD_REACTORS
330
E
102
}
330
E
  0
SCALE
  5
48
102
{ACAD_REACTORS
330
47
102
}
330
47
100
AcDbScale
 70
     0
300
1:1
140
1.0
141
1.0
290
     1
  0
SCALE
  5
49
102
{ACAD_REACTORS
330
47
102
}
330
47
100
AcDbScale
 70
     0
300
1:2
140
1.0
141
2.0
290
     0
  0
SCALE
  5
4A
102
{ACAD_REACTORS
330
47
102
}
330
47
100
AcDbScale
 70
     0
300
1:4
140
1.0
141
4.0
290
     0
  0
SCALE
  5
4B
102
{ACAD_REACTORS
330
47
102
}
330
47
100
AcDbScale
 70
     0
300
1:5
140
1.0
141
5.0
290
     0
  0
SCALE
  5
4C
102
{ACAD_REACTORS
330
47
102
}
330
47
100
AcDbScale
 70
     0
300
1:8
140
1.0
141
8.0
290
     0
  0
SCALE
  5
4D
102
{ACAD_REACTORS
330
47
102
}
330
47
100
AcDbScale
 70
     0
300
1:10
140
1.0
141
10.0
290
     0
  0
SCALE
  5
4E
102
{ACAD_REACTORS
330
47
102
}
330
47
100
AcDbScale
 70
     0
300
1:16
140
1.0
141
16.0
290
     0
  0
SCALE
  5
4F
102
{ACAD_REACTORS
330
47
102
}
330
47
100
AcDbScale
 70
     0
300
1:20
140
1.0
141
20.0
290
     0
  0
SCALE
  5
50
102
{ACAD_REACTORS
330
47
102
}
330
47
100
AcDbScale
 70
     0
300
1:30
140
1.0
141
30.0
290
     0
  0
SCALE
  5
51
102
{ACAD_REACTORS
330
47
102
}
330
47
100
AcDbScale
 70
     0
300
1:40
140
1.0
141
40.0
290
     0
  0
SCALE
  5
52
102
{ACAD_REACTORS
330
47
102
}
330
47
100
AcDbScale
 70
     0
300
1:50
140
1.0
141
50.0
290
     0
  0
SCALE
  5
53
102
{ACAD_REACTORS
330
47
102
}
330
47
100
AcDbScale
 70
     0
300
1:100
140
1.0
141
100.0
290
     0
  0
SCALE
  5
54
102
{ACAD_REACTORS
330
47
102
}
330
47
100
AcDbScale
 70
     0
300
2:1
140
2.0
141
1.0
290
     0
  0
SCALE
  5
55
102
{ACAD_REACTORS
330
47
102
}
330
47
100
AcDbScale
 70
     0
300
4:1
140
4.0
141
1.0
290
     0
  0
SCALE
  5
56
102
{ACAD_REACTORS
330
47
102
}
330
47
100
AcDbScale
 70
     0
300
8:1
140
8.0
141
1.0
290
     0
  0
SCALE
  5
57
102
{ACAD_REACTORS
330
47
102
}
330
47
100
AcDbScale
 70
     0
300
10:1
140
10.0
141
1.0
290
     0
  0
SCALE
  5
58
102
{ACAD_REACTORS
330
47
102
}
330
47
100
AcDbScale
 70
     0
300
100:1
140
100.0
141
1.0
290
     0
  0
SCALE
  5
59
102
{ACAD_REACTORS
330
47
102
}
330
47
100
AcDbScale
 70
     0
300
1/128" = 1'-0"
140
0.0078125
141
12.0
290
     0
  0
SCALE
  5
5A
102
{ACAD_REACTORS
330
47
102
}
330
47
100
AcDbScale
 70
     0
300
1/64" = 1'-0"
140
0.015625
141
12.0
290
     0
  0
SCALE
  5
5B
102
{ACAD_REACTORS
330
47
102
}
330
47
100
AcDbScale
 70
     0
300
1/32" = 1'-0"
140
0.03125
141
12.0
290
     0
  0
SCALE
  5
5C
102
{ACAD_REACTORS
330
47
102
}
330
47
100
AcDbScale
 70
     0
300
1/16" = 1'-0"
140
0.0625
141
12.0
290
     0
  0
SCALE
  5
5D
102
{ACAD_REACTORS
330
47
102
}
330
47
100
AcDbScale
 70
     0
300
3/32" = 1'-0"
140
0.09375
141
12.0
290
     0
  0
SCALE
  5
5E
102
{ACAD_REACTORS
330
47
102
}
330
47
100
AcDbScale
 70
     0
300
1/8" = 1'-0"
140
0.125
141
12.0
290
     0
  0
SCALE
  5
5F
102
{ACAD_REACTORS
330
47
102
}
330
47
100
AcDbScale
 70
     0
300
3/16" = 1'-0"
140
0.1875
141
12.0
290
     0
  0
SCALE
  5
60
102
{ACAD_REACTORS
330
47
102
}
330
47
100
AcDbScale
 70
     0
300
1/4" = 1'-0"
140
0.25
141
12.0
290
     0
  0
SCALE
  5
61
102
{ACAD_REACTORS
330
47
102
}
330
47
100
AcDbScale
 70
     0
300
3/8" = 1'-0"
140
0.375
141
12.0
290
     0
  0
SCALE
  5
62
102
{ACAD_REACTORS
330
47
102
}
330
47
100
AcDbScale
 70
     0
300
1/2" = 1'-0"
140
0.5
141
12.0
290
     0
  0
SCALE
  5
63
102
{ACAD_REACTORS
330
47
102
}
330
47
100
AcDbScale
 70
     0
300
3/4" = 1'-0"
140
0.75
141
12.0
290
     0
  0
SCALE
  5
64
102
{ACAD_REACTORS
330
47
102
}
330
47
100
AcDbScale
 70
     0
300
1" = 1'-0"
140
1.0
141
12.0
290
     0
  0
SCALE
  5
65
102
{ACAD_REACTORS
330
47
102
}
330
47
100
AcDbScale
 70
     0
300
1-1/2" = 1'-0"
140
1.5
141
12.0
290
     0
  0
SCALE
  5
66
102
{ACAD_REACTORS
330
47
102
}
330
47
100
AcDbScale
 70
     0
300
3" = 1'-0"
140
3.0
141
12.0
290
     0
  0
SCALE
  5
67
102
{ACAD_REACTORS
330
47
102
}
330
47
100
AcDbScale
 70
     0
300
6" = 1'-0"
140
6.0
141
12.0
290
     0
  0
SCALE
  5
68
102
{ACAD_REACTORS
330
47
102
}
330
47
100
AcDbScale
 70
     0
300
1'-0" = 1'-0"
140
12.0
141
12.0
290
     0
  0
TABLESTYLE
  5
6A
102
{ACAD_REACTORS
330
69
102
}
102
{ACAD_XDICTIONARY
360
290
102
}
330
69
100
AcDbTableStyle
  3
Standard
 70
     0
 71
     0
 40
0.06
 41
0.06
280
     0
281
     0
  7
Standard
140
4.5
170
     2
 62
     0
 63
   257
283
     0
 90
        4
 91
        0
  1

274
    -2
284
     1
 64
     0
275
    -2
285
     1
 65
     0
276
    -2
286
     1
 66
     0
277
    -2
287
     1
 67
     0
278
    -2
288
     1
 68
     0
279
    -2
289
     1
 69
     0
  7
Standard
140
6.0
170
     5
 62
     0
 63
   257
283
     0
 90
        4
 91
        0
  1

274
    -2
284
     1
 64
     0
275
    -2
285
     1
 65
     0
276
    -2
286
     1
 66
     0
277
    -2
287
     1
 67
     0
278
    -2
288
     1
 68
     0
279
    -2
289
     1
 69
     0
  7
Standard
140
4.5
170
     5
 62
     0
 63
   257
283
     0
 90
        4
 91
        0
  1

274
    -2
284
     1
 64
     0
275
    -2
285
     1
 65
     0
276
    -2
286
     1
 66
     0
277
    -2
287
     1
 67
     0
278
    -2
288
     1
 68
     0
279
    -2
289
     1
 69
     0
  0
VISUALSTYLE
  5
2F
102
{ACAD_REACTORS
330
2A
102
}
330
2A
100
AcDbVisualStyle
  2
2dWireframe
 70
     4
177
     3
291
     0
 70
    58
 90
        0
176
     1
 90
        2
176
     1
 90
        0
176
     1
 90
        0
176
     1
 40
0.6
176
     1
 40
30.0
176
     1
 62
     7
420
 16777215
176
     1
 90
        1
176
     1
 90
        4
176
     1
 62
     7
176
     1
 62
   257
176
     1
 90
        1
176
     1
 90
        1
176
     1
 40
1.0
176
     1
 90
        0
176
     1
 62
   257
176
     1
 40
1.0
176
     1
 90
        1
176
     1
 90
        6
176
     1
 90
        2
176
     1
 62
     7
176
     1
 90
        5
176
     1
 90
        0
176
     1
 90
        0
176
     1
290
     0
176
     1
 90
        1
176
     1
 40
0.0
176
     1
 90
        0
176
     1
290
     1
176
     1
290
     1
176
     1
290
     0
176
     1
290
     0
176
     1
290
     0
176
     1
290
     0
176
     1
290
     0
176
     1
290
     0
176
     1
290
     0
176
     1
 90
       50
176
     1
 40
0.0
176
     1
 40
1.0
176
     1
 90
        0
176
     1
 62
    18
420
        0
176
     1
 90
       50
176
     1
 90
        3
176
     1
 62
     5
420
      255
176
     1
290
     0
176
     1
 90
       50
176
     1
 90
       50
176
     1
 90
       50
176
     1
290
     0
176
     1
 90
       50
176
     1
 62
   256
176
     0
 40
1.0
176
     0
 90
        2
176
     1
  1
strokes_ogs.tif
176
     1
290
     0
176
     1
 40
1.0
176
     1
 40
1.0
176
     1
  0
VISUALSTYLE
  5
32
102
{ACAD_REACTORS
330
2A
102
}
330
2A
100
AcDbVisualStyle
  2
Basic
 70
     7
177
     3
291
     1
 70
    58
 90
        1
176
     1
 90
        0
176
     1
 90
        1
176
     1
 90
        0
176
     1
 40
0.6
176
     1
 40
30.0
176
     1
 62
     7
420
 16777215
176
     1
 90
        0
176
     1
 90
        4
176
     1
 62
     7
176
     1
 62
   257
176
     1
 90
        1
176
     1
 90
        1
176
     1
 40
1.0
176
     1
 90
        8
176
     1
 62
     7
176
     1
 40
1.0
176
     1
 90
        1
176
     1
 90
        6
176
     1
 90
        2
176
     1
 62
     7
176
     1
 90
        5
176
     1
 90
        0
176
     1
 90
        0
176
     1
290
     0
176
     1
 90
        1
176
     1
 40
0.0
176
     1
 90
        0
176
     1
290
     0
176
     1
290
     1
176
     1
290
     1
176
     1
290
     0
176
     1
290
     0
176
     1
290
     0
176
     1
290
     0
176
     1
290
     0
176
     1
290
     0
176
     1
 90
       50
176
     1
 40
0.0
176
     1
 40
1.0
176
     1
 90
        0
176
     1
 62
    18
420
        0
176
     1
 90
       50
176
     1
 90
        3
176
     1
 62
     5
420
      255
176
     1
290
     0
176
     1
 90
       50
176
     1
 90
       50
176
     1
 90
       50
176
     1
290
     0
176
     1
 90
       50
176
     1
 62
   256
176
     0
 40
1.0
176
     0
 90
        2
176
     1
  1
strokes_ogs.tif
176
     1
290
     0
176
     1
 40
1.0
176
     1
 40
1.0
176
     1
  0
VISUALSTYLE
  5
36
102
{ACAD_REACTORS
330
2A
102
}
330
2A
100
AcDbVisualStyle
  2
Brighten
 70
    12
177
     3
291
     1
 70
    58
 90
        2
176
     1
 90
        2
176
     1
 90
        0
176
     1
 90
        0
176
     1
 40
0.6
176
     1
 40
30.0
176
     1
 62
     7
420
 16777215
176
     1
 90
        1
176
     1
 90
        4
176
     1
 62
     7
176
     1
 62
   257
176
     1
 90
        1
176
     1
 90
        1
176
     1
 40
1.0
176
     1
 90
        8
176
     1
 62
     7
176
     1
 40
1.0
176
     1
 90
        1
176
     1
 90
        6
176
     1
 90
        2
176
     1
 62
     7
176
     1
 90
        5
176
     1
 90
        0
176
     1
 90
        0
176
     1
290
     0
176
     1
 90
        1
176
     1
 40
50.0
176
     1
 90
        0
176
     1
290
     0
176
     1
290
     1
176
     1
290
     1
176
     1
290
     0
176
     1
290
     0
176
     1
290
     0
176
     1
290
     0
176
     1
290
     0
176
     1
290
     0
176
     1
 90
       50
176
     1
 40
0.0
176
     1
 40
1.0
176
     1
 90
        0
176
     1
 62
    18
420
        0
176
     1
 90
       50
176
     1
 90
        3
176
     1
 62
     5
420
      255
176
     1
290
     0
176
     1
 90
       50
176
     1
 90
       50
176
     1
 90
       50
176
     1
290
     0
176
     1
 90
       50
176
     1
 62
   256
176
     0
 40
1.0
176
     0
 90
        2
176
     1
  1
strokes_ogs.tif
176
     1
290
     0
176
     1
 40
1.0
176
     1
 40
1.0
176
     1
  0
VISUALSTYLE
  5
3A
102
{ACAD_REACTORS
330
2A
102
}
330
2A
100
AcDbVisualStyle
  2
ColorChange
 70
    16
177
     3
291
     1
 70
    58
 90
        2
176
     1
 90
        2
176
     1
 90
        3
176
     1
 90
        0
176
     1
 40
0.6
176
     1
 40
30.0
176
     1
 62
     8
420
  8421504
176
     1
 90
        1
176
     1
 90
        4
176
     1
 62
     7
176
     1
 62
   257
176
     1
 90
        1
176
     1
 90
        1
176
     1
 40
1.0
176
     1
 90
        8
176
     1
 62
     8
420
  8421504
176
     1
 40
1.0
176
     1
 90
        1
176
     1
 90
        6
176
     1
 90
        2
176
     1
 62
     7
176
     1
 90
        5
176
     1
 90
        0
176
     1
 90
        0
176
     1
290
     0
176
     1
 90
        1
176
     1
 40
0.0
176
     1
 90
        0
176
     1
290
     0
176
     1
290
     1
176
     1
290
     1
176
     1
290
     0
176
     1
290
     0
176
     1
290
     0
176
     1
290
     0
176
     1
290
     0
176
     1
290
     0
176
     1
 90
       50
176
     1
 40
0.0
176
     1
 40
1.0
176
     1
 90
        0
176
     1
 62
    18
420
        0
176
     1
 90
       50
176
     1
 90
        3
176
     1
 62
     5
420
      255
176
     1
290
     0
176
     1
 90
       50
176
     1
 90
       50
176
     1
 90
       50
176
     1
290
     0
176
     1
 90
       50
176
     1
 62
   256
176
     0
 40
1.0
176
     0
 90
        2
176
     1
  1
strokes_ogs.tif
176
     1
290
     0
176
     1
 40
1.0
176
     1
 40
1.0
176
     1
  0
VISUALSTYLE
  5
34
102
{ACAD_REACTORS
330
2A
102
}
330
2A
100
AcDbVisualStyle
  2
Conceptual
 70
     9
177
     3
291
     0
 70
    58
 90
        3
176
     1
 90
        2
176
     1
 90
        0
176
     1
 90
        0
176
     1
 40
0.6
176
     1
 40
30.0
176
     1
 62
     7
420
 16777215
176
     1
 90
        2
176
     1
 90
        2
176
     1
 62
     7
176
     1
 62
   257
176
     1
 90
        1
176
     1
 90
        1
176
     1
 40
179.0
176
     1
 90
        8
176
     1
 62
     7
176
     1
 40
1.0
176
     1
 90
        1
176
     1
 90
        6
176
     1
 90
        2
176
     1
 62
     7
176
     1
 90
        3
176
     1
 90
        0
176
     1
 90
        0
176
     1
290
     0
176
     1
 90
        1
176
     1
 40
0.0
176
     1
 90
        0
176
     1
290
     0
176
     1
290
     1
176
     1
290
     1
176
     1
290
     0
176
     1
290
     0
176
     1
290
     0
176
     1
290
     0
176
     1
290
     0
176
     1
290
     0
176
     1
 90
       50
176
     1
 40
0.0
176
     1
 40
1.0
176
     1
 90
        0
176
     1
 62
    18
420
        0
176
     1
 90
       50
176
     1
 90
        3
176
     1
 62
     5
420
      255
176
     1
290
     0
176
     1
 90
       50
176
     1
 90
       50
176
     1
 90
       50
176
     1
290
     0
176
     1
 90
       50
176
     1
 62
   256
176
     0
 40
1.0
176
     0
 90
        2
176
     1
  1
strokes_ogs.tif
176
     1
290
     0
176
     1
 40
1.0
176
     1
 40
1.0
176
     1
  0
VISUALSTYLE
  5
35
102
{ACAD_REACTORS
330
2A
102
}
330
2A
100
AcDbVisualStyle
  2
Dim
 70
    11
177
     3
291
     1
 70
    58
 90
        2
176
     1
 90
        2
176
     1
 90
        0
176
     1
 90
        0
176
     1
 40
0.6
176
     1
 40
30.0
176
     1
 62
     7
420
 16777215
176
     1
 90
        1
176
     1
 90
        4
176
     1
 62
     7
176
     1
 62
   257
176
     1
 90
        1
176
     1
 90
        1
176
     1
 40
1.0
176
     1
 90
        8
176
     1
 62
     7
176
     1
 40
1.0
176
     1
 90
        1
176
     1
 90
        6
176
     1
 90
        2
176
     1
 62
     7
176
     1
 90
        5
176
     1
 90
        0
176
     1
 90
        0
176
     1
290
     0
176
     1
 90
        1
176
     1
 40
-50.0
176
     1
 90
        0
176
     1
290
     0
176
     1
290
     1
176
     1
290
     1
176
     1
290
     0
176
     1
290
     0
176
     1
290
     0
176
     1
290
     0
176
     1
290
     0
176
     1
290
     0
176
     1
 90
       50
176
     1
 40
0.0
176
     1
 40
1.0
176
     1
 90
        0
176
     1
 62
    18
420
        0
176
     1
 90
       50
176
     1
 90
        3
176
     1
 62
     5
420
      255
176
     1
290
     0
176
     1
 90
       50
176
     1
 90
       50
176
     1
 90
       50
176
     1
290
     0
176
     1
 90
       50
176
     1
 62
   256
176
     0
 40
1.0
176
     0
 90
        2
176
     1
  1
strokes_ogs.tif
176
     1
290
     0
176
     1
 40
1.0
176
     1
 40
1.0
176
     1
  0
VISUALSTYLE
  5
3D
102
{ACAD_REACTORS
330
2A
102
}
330
2A
100
AcDbVisualStyle
  2
EdgeColorOff
 70
    22
177
     3
291
     1
 70
    58
 90
        2
176
     0
 90
        2
176
     0
 90
        0
176
     0
 90
        0
176
     0
 40
0.6
176
     0
 40
30.0
176
     0
 62
     7
420
 16777215
176
     0
 90
        1
176
     0
 90
        4
176
     0
 62
     7
176
     0
 62
   257
176
     0
 90
        1
176
     0
 90
        1
176
     0
 40
1.0
176
     0
 90
        8
176
     2
 62
     7
176
     0
 40
1.0
176
     0
 90
        1
176
     0
 90
        6
176
     0
 90
        2
176
     0
 62
     7
176
     0
 90
        5
176
     0
 90
        0
176
     0
 90
        0
176
     0
290
     0
176
     0
 90
        1
176
     0
 40
0.0
176
     0
 90
        0
176
     0
290
     0
176
     0
290
     1
176
     0
290
     1
176
     0
290
     0
176
     0
290
     0
176
     0
290
     0
176
     0
290
     0
176
     0
290
     0
176
     0
290
     0
176
     0
 90
       50
176
     0
 40
0.0
176
     0
 40
1.0
176
     0
 90
        0
176
     0
 62
    18
420
        0
176
     0
 90
       50
176
     0
 90
        3
176
     0
 62
     5
420
      255
176
     0
290
     0
176
     0
 90
       50
176
     0
 90
       50
176
     0
 90
       50
176
     0
290
     0
176
     0
 90
       50
176
     0
 62
   256
176
     0
 40
1.0
176
     0
 90
        2
176
     0
  1
strokes_ogs.tif
176
     0
290
     0
176
     0
 40
1.0
176
     0
 40
1.0
176
     0
  0
VISUALSTYLE
  5
39
102
{ACAD_REACTORS
330
2A
102
}
330
2A
100
AcDbVisualStyle
  2
Facepattern
 70
    15
177
     3
291
     1
 70
    58
 90
        2
176
     1
 90
        2
176
     1
 90
        0
176
     1
 90
        0
176
     1
 40
0.6
176
     1
 40
30.0
176
     1
 62
     7
420
 16777215
176
     1
 90
        1
176
     1
 90
        4
176
     1
 62
     7
176
     1
 62
   257
176
     1
 90
        1
176
     1
 90
        1
176
     1
 40
1.0
176
     1
 90
        8
176
     1
 62
     7
176
     1
 40
1.0
176
     1
 90
        1
176
     1
 90
        6
176
     1
 90
        2
176
     1
 62
     7
176
     1
 90
        5
176
     1
 90
        0
176
     1
 90
        0
176
     1
290
     0
176
     1
 90
        1
176
     1
 40
0.0
176
     1
 90
        0
176
     1
290
     0
176
     1
290
     1
176
     1
290
     1
176
     1
290
     0
176
     1
290
     0
176
     1
290
     0
176
     1
290
     0
176
     1
290
     0
176
     1
290
     0
176
     1
 90
       50
176
     1
 40
0.0
176
     1
 40
1.0
176
     1
 90
        0
176
     1
 62
    18
420
        0
176
     1
 90
       50
176
     1
 90
        3
176
     1
 62
     5
420
      255
176
     1
290
     0
176
     1
 90
       50
176
     1
 90
       50
176
     1
 90
       50
176
     1
290
     0
176
     1
 90
       50
176
     1
 62
   256
176
     0
 40
1.0
176
     0
 90
        2
176
     1
  1
strokes_ogs.tif
176
     1
290
     0
176
     1
 40
1.0
176
     1
 40
1.0
176
     1
  0
VISUALSTYLE
  5
2B
102
{ACAD_REACTORS
330
2A
102
}
330
2A
100
AcDbVisualStyle
  2
Flat
 70
     0
177
     3
291
     1
 70
    58
 90
        2
176
     1
 90
        1
176
     1
 90
        1
176
     1
 90
        2
176
     1
 40
0.6
176
     1
 40
30.0
176
     1
 62
     7
420
 16777215
176
     1
 90
        0
176
     1
 90
        0
176
     1
 62
     7
176
     1
 62
   257
176
     1
 90
        1
176
     1
 90
        1
176
     1
 40
1.0
176
     1
 90
        8
176
     1
 62
     7
176
     1
 40
1.0
176
     1
 90
        1
176
     1
 90
        6
176
     1
 90
        2
176
     1
 62
     7
176
     1
 90
        5
176
     1
 90
        0
176
     1
 90
        0
176
     1
290
     0
176
     1
 90
       13
176
     1
 40
0.0
176
     1
 90
        0
176
     1
290
     0
176
     1
290
     1
176
     1
290
     1
176
     1
290
     0
176
     1
290
     0
176
     1
290
     0
176
     1
290
     0
176
     1
290
     0
176
     1
290
     0
176
     1
 90
       50
176
     1
 40
0.0
176
     1
 40
1.0
176
     1
 90
        0
176
     1
 62
    18
420
        0
176
     1
 90
       50
176
     1
 90
        3
176
     1
 62
     5
420
      255
176
     1
290
     0
176
     1
 90
       50
176
     1
 90
       50
176
     1
 90
       50
176
     1
290
     0
176
     1
 90
       50
176
     1
 62
   256
176
     0
 40
1.0
176
     0
 90
        2
176
     1
  1
strokes_ogs.tif
176
     1
290
     0
176
     1
 40
1.0
176
     1
 40
1.0
176
     1
  0
VISUALSTYLE
  5
2C
102
{ACAD_REACTORS
330
2A
102
}
330
2A
100
AcDbVisualStyle
  2
FlatWithEdges
 70
     1
177
     3
291
     1
 70
    58
 90
        2
176
     1
 90
        1
176
     1
 90
        1
176
     1
 90
        2
176
     1
 40
0.6
176
     1
 40
30.0
176
     1
 62
     7
420
 16777215
176
     1
 90
        1
176
     1
 90
        0
176
     1
 62
     7
176
     1
 62
   257
176
     1
 90
        1
176
     1
 90
        1
176
     1
 40
1.0
176
     1
 90
        0
176
     1
 62
   257
176
     1
 40
1.0
176
     1
 90
        1
176
     1
 90
        6
176
     1
 90
        2
176
     1
 62
     7
176
     1
 90
        5
176
     1
 90
        0
176
     1
 90
        0
176
     1
290
     0
176
     1
 90
       13
176
     1
 40
0.0
176
     1
 90
        0
176
     1
290
     0
176
     1
290
     1
176
     1
290
     1
176
     1
290
     0
176
     1
290
     0
176
     1
290
     0
176
     1
290
     0
176
     1
290
     0
176
     1
290
     0
176
     1
 90
       50
176
     1
 40
0.0
176
     1
 40
1.0
176
     1
 90
        0
176
     1
 62
    18
420
        0
176
     1
 90
       50
176
     1
 90
        3
176
     1
 62
     5
420
      255
176
     1
290
     0
176
     1
 90
       50
176
     1
 90
       50
176
     1
 90
       50
176
     1
290
     0
176
     1
 90
       50
176
     1
 62
   256
176
     0
 40
1.0
176
     0
 90
        2
176
     1
  1
strokes_ogs.tif
176
     1
290
     0
176
     1
 40
1.0
176
     1
 40
1.0
176
     1
  0
VISUALSTYLE
  5
2D
102
{ACAD_REACTORS
330
2A
102
}
330
2A
100
AcDbVisualStyle
  2
Gouraud
 70
     2
177
     3
291
     1
 70
    58
 90
        2
176
     1
 90
        2
176
     1
 90
        1
176
     1
 90
        2
176
     1
 40
0.6
176
     1
 40
30.0
176
     1
 62
     7
420
 16777215
176
     1
 90
        0
176
     1
 90
        0
176
     1
 62
     7
176
     1
 62
   257
176
     1
 90
        1
176
     1
 90
        1
176
     1
 40
1.0
176
     1
 90
        0
176
     1
 62
     7
176
     1
 40
1.0
176
     1
 90
        1
176
     1
 90
        6
176
     1
 90
        2
176
     1
 62
     7
176
     1
 90
        5
176
     1
 90
        0
176
     1
 90
        0
176
     1
290
     0
176
     1
 90
       13
176
     1
 40
0.0
176
     1
 90
        0
176
     1
290
     0
176
     1
290
     1
176
     1
290
     1
176
     1
290
     0
176
     1
290
     0
176
     1
290
     0
176
     1
290
     0
176
     1
290
     0
176
     1
290
     0
176
     1
 90
       50
176
     1
 40
0.0
176
     1
 40
1.0
176
     1
 90
        0
176
     1
 62
    18
420
        0
176
     1
 90
       50
176
     1
 90
        3
176
     1
 62
     5
420
      255
176
     1
290
     0
176
     1
 90
       50
176
     1
 90
       50
176
     1
 90
       50
176
     1
290
     0
176
     1
 90
       50
176
     1
 62
   256
176
     0
 40
1.0
176
     0
 90
        2
176
     1
  1
strokes_ogs.tif
176
     1
290
     0
176
     1
 40
1.0
176
     1
 40
1.0
176
     1
  0
VISUALSTYLE
  5
2E
102
{ACAD_REACTORS
330
2A
102
}
330
2A
100
AcDbVisualStyle
  2
GouraudWithEdges
 70
     3
177
     3
291
     1
 70
    58
 90
        2
176
     1
 90
        2
176
     1
 90
        1
176
     1
 90
        2
176
     1
 40
0.6
176
     1
 40
30.0
176
     1
 62
     7
420
 16777215
176
     1
 90
        1
176
     1
 90
        0
176
     1
 62
     7
176
     1
 62
   257
176
     1
 90
        1
176
     1
 90
        1
176
     1
 40
1.0
176
     1
 90
        0
176
     1
 62
   257
176
     1
 40
1.0
176
     1
 90
        1
176
     1
 90
        6
176
     1
 90
        2
176
     1
 62
     7
176
     1
 90
        5
176
     1
 90
        0
176
     1
 90
        0
176
     1
290
     0
176
     1
 90
       13
176
     1
 40
0.0
176
     1
 90
        0
176
     1
290
     0
176
     1
290
     1
176
     1
290
     1
176
     1
290
     0
176
     1
290
     0
176
     1
290
     0
176
     1
290
     0
176
     1
290
     0
176
     1
290
     0
176
     1
 90
       50
176
     1
 40
0.0
176
     1
 40
1.0
176
     1
 90
        0
176
     1
 62
    18
420
        0
176
     1
 90
       50
176
     1
 90
        3
176
     1
 62
     5
420
      255
176
     1
290
     0
176
     1
 90
       50
176
     1
 90
       50
176
     1
 90
       50
176
     1
290
     0
176
     1
 90
       50
176
     1
 62
   256
176
     0
 40
1.0
176
     0
 90
        2
176
     1
  1
strokes_ogs.tif
176
     1
290
     0
176
     1
 40
1.0
176
     1
 40
1.0
176
     1
  0
VISUALSTYLE
  5
31
102
{ACAD_REACTORS
330
2A
102
}
330
2A
100
AcDbVisualStyle
  2
Hidden
 70
     6
177
     3
291
     0
 70
    58
 90
        1
176
     1
 90
        2
176
     1
 90
        2
176
     1
 90
        0
176
     1
 40
0.6
176
     1
 40
30.0
176
     1
 62
     7
420
 16777215
176
     1
 90
        2
176
     1
 90
        2
176
     1
 62
     7
176
     1
 62
   257
176
     1
 90
        2
176
     1
 90
        1
176
     1
 40
40.0
176
     1
 90
        0
176
     1
 62
   257
176
     1
 40
1.0
176
     1
 90
        1
176
     1
 90
        6
176
     1
 90
        2
176
     1
 62
     7
176
     1
 90
        3
176
     1
 90
        0
176
     1
 90
        0
176
     1
290
     0
176
     1
 90
        1
176
     1
 40
0.0
176
     1
 90
        0
176
     1
290
     0
176
     1
290
     1
176
     1
290
     1
176
     1
290
     0
176
     1
290
     0
176
     1
290
     0
176
     1
290
     0
176
     1
290
     0
176
     1
290
     0
176
     1
 90
       50
176
     1
 40
0.0
176
     1
 40
1.0
176
     1
 90
        0
176
     1
 62
    18
420
        0
176
     1
 90
       50
176
     1
 90
        3
176
     1
 62
     5
420
      255
176
     1
290
     0
176
     1
 90
       50
176
     1
 90
       50
176
     1
 90
       50
176
     1
290
     0
176
     1
 90
       50
176
     1
 62
   256
176
     0
 40
1.0
176
     0
 90
        2
176
     1
  1
strokes_ogs.tif
176
     1
290
     0
176
     1
 40
1.0
176
     1
 40
1.0
176
     1
  0
VISUALSTYLE
  5
3B
102
{ACAD_REACTORS
330
2A
102
}
330
2A
100
AcDbVisualStyle
  2
JitterOff
 70
    20
177
     3
291
     1
 70
    58
 90
        2
176
     0
 90
        2
176
     0
 90
        0
176
     0
 90
        0
176
     0
 40
0.6
176
     0
 40
30.0
176
     0
 62
     7
420
 16777215
176
     0
 90
        1
176
     0
 90
        4
176
     0
 62
     7
176
     0
 62
   257
176
     0
 90
        1
176
     0
 90
        1
176
     0
 40
1.0
176
     0
 90
       10
176
     2
 62
     7
176
     0
 40
1.0
176
     0
 90
        1
176
     0
 90
        6
176
     0
 90
        2
176
     0
 62
     7
176
     0
 90
        5
176
     0
 90
        0
176
     0
 90
        0
176
     0
290
     0
176
     0
 90
        1
176
     0
 40
0.0
176
     0
 90
        0
176
     0
290
     0
176
     0
290
     1
176
     0
290
     1
176
     0
290
     0
176
     0
290
     0
176
     0
290
     0
176
     0
290
     0
176
     0
290
     0
176
     0
290
     0
176
     0
 90
       50
176
     0
 40
0.0
176
     0
 40
1.0
176
     0
 90
        0
176
     0
 62
    18
420
        0
176
     0
 90
       50
176
     0
 90
        3
176
     0
 62
     5
420
      255
176
     0
290
     0
176
     0
 90
       50
176
     0
 90
       50
176
     0
 90
       50
176
     0
290
     0
176
     0
 90
       50
176
     0
 62
   256
176
     0
 40
1.0
176
     0
 90
        2
176
     0
  1
strokes_ogs.tif
176
     0
290
     0
176
     0
 40
1.0
176
     0
 40
1.0
176
     0
  0
VISUALSTYLE
  5
38
102
{ACAD_REACTORS
330
2A
102
}
330
2A
100
AcDbVisualStyle
  2
Linepattern
 70
    14
177
     3
291
     1
 70
    58
 90
        2
176
     1
 90
        2
176
     1
 90
        0
176
     1
 90
        0
176
     1
 40
0.6
176
     1
 40
30.0
176
     1
 62
     7
420
 16777215
176
     1
 90
        1
176
     1
 90
        4
176
     1
 62
     7
176
     1
 62
   257
176
     1
 90
        7
176
     1
 90
        7
176
     1
 40
1.0
176
     1
 90
        8
176
     1
 62
     7
176
     1
 40
1.0
176
     1
 90
        1
176
     1
 90
        6
176
     1
 90
        2
176
     1
 62
     7
176
     1
 90
        5
176
     1
 90
        0
176
     1
 90
        0
176
     1
290
     0
176
     1
 90
        1
176
     1
 40
0.0
176
     1
 90
        0
176
     1
290
     0
176
     1
290
     1
176
     1
290
     1
176
     1
290
     0
176
     1
290
     0
176
     1
290
     0
176
     1
290
     0
176
     1
290
     0
176
     1
290
     0
176
     1
 90
       50
176
     1
 40
0.0
176
     1
 40
1.0
176
     1
 90
        0
176
     1
 62
    18
420
        0
176
     1
 90
       50
176
     1
 90
        3
176
     1
 62
     5
420
      255
176
     1
290
     0
176
     1
 90
       50
176
     1
 90
       50
176
     1
 90
       50
176
     1
290
     0
176
     1
 90
       50
176
     1
 62
   256
176
     0
 40
1.0
176
     0
 90
        2
176
     1
  1
strokes_ogs.tif
176
     1
290
     0
176
     1
 40
1.0
176
     1
 40
1.0
176
     1
  0
VISUALSTYLE
  5
3C
102
{ACAD_REACTORS
330
2A
102
}
330
2A
100
AcDbVisualStyle
  2
OverhangOff
 70
    21
177
     3
291
     1
 70
    58
 90
        2
176
     0
 90
        2
176
     0
 90
        0
176
     0
 90
        0
176
     0
 40
0.6
176
     0
 40
30.0
176
     0
 62
     7
420
 16777215
176
     0
 90
        1
176
     0
 90
        4
176
     0
 62
     7
176
     0
 62
   257
176
     0
 90
        1
176
     0
 90
        1
176
     0
 40
1.0
176
     0
 90
        9
176
     2
 62
     7
176
     0
 40
1.0
176
     0
 90
        1
176
     0
 90
        6
176
     0
 90
        2
176
     0
 62
     7
176
     0
 90
        5
176
     0
 90
        0
176
     0
 90
        0
176
     0
290
     0
176
     0
 90
        1
176
     0
 40
0.0
176
     0
 90
        0
176
     0
290
     0
176
     0
290
     1
176
     0
290
     1
176
     0
290
     0
176
     0
290
     0
176
     0
290
     0
176
     0
290
     0
176
     0
290
     0
176
     0
290
     0
176
     0
 90
       50
176
     0
 40
0.0
176
     0
 40
1.0
176
     0
 90
        0
176
     0
 62
    18
420
        0
176
     0
 90
       50
176
     0
 90
        3
176
     0
 62
     5
420
      255
176
     0
290
     0
176
     0
 90
       50
176
     0
 90
       50
176
     0
 90
       50
176
     0
290
     0
176
     0
 90
       50
176
     0
 62
   256
176
     0
 40
1.0
176
     0
 90
        2
176
     0
  1
strokes_ogs.tif
176
     0
290
     0
176
     0
 40
1.0
176
     0
 40
1.0
176
     0
  0
VISUALSTYLE
  5
33
102
{ACAD_REACTORS
330
2A
102
}
330
2A
100
AcDbVisualStyle
  2
Realistic
 70
     8
177
     3
291
     0
 70
    58
 90
        2
176
     1
 90
        3
176
     1
 90
        0
176
     1
 90
        2
176
     1
 40
0.6
176
     1
 40
30.0
176
     1
 62
     7
420
 16777215
176
     1
 90
        0
176
     1
 90
        0
176
     1
 62
     7
176
     1
 62
   257
176
     1
 90
        1
176
     1
 90
        1
176
     1
 40
1.0
176
     1
 90
        8
176
     1
 62
   257
176
     1
 40
1.0
176
     1
 90
        1
176
     1
 90
        6
176
     1
 90
        2
176
     1
 62
     7
176
     1
 90
        3
176
     1
 90
        0
176
     1
 90
        0
176
     1
290
     0
176
     1
 90
       13
176
     1
 40
0.0
176
     1
 90
        0
176
     1
290
     0
176
     1
290
     1
176
     1
290
     1
176
     1
290
     0
176
     1
290
     0
176
     1
290
     0
176
     1
290
     0
176
     1
290
     0
176
     1
290
     0
176
     1
 90
       50
176
     1
 40
0.0
176
     1
 40
1.0
176
     1
 90
        0
176
     1
 62
    18
420
        0
176
     1
 90
       50
176
     1
 90
        3
176
     1
 62
     5
420
      255
176
     1
290
     0
176
     1
 90
       50
176
     1
 90
       50
176
     1
 90
       50
176
     1
290
     0
176
     1
 90
       50
176
     1
 62
   256
176
     0
 40
1.0
176
     0
 90
        2
176
     1
  1
strokes_ogs.tif
176
     1
290
     0
176
     1
 40
1.0
176
     1
 40
1.0
176
     1
  0
VISUALSTYLE
  5
42
102
{ACAD_REACTORS
330
2A
102
}
330
2A
100
AcDbVisualStyle
  2
Shaded
 70
    27
177
     3
291
     0
 70
    58
 90
        2
176
     1
 90
        2
176
     1
 90
        1
176
     1
 90
        2
176
     1
 40
0.6
176
     1
 40
30.0
176
     1
 62
     7
420
 16777215
176
     1
 90
        0
176
     1
 90
        4
176
     1
 62
     7
176
     1
 62
   257
176
     1
 90
        1
176
     1
 90
        1
176
     1
 40
1.0
176
     1
 90
        8
176
     1
 62
   257
176
     1
 40
1.0
176
     1
 90
        1
176
     1
 90
        6
176
     1
 90
        2
176
     1
 62
     8
420
  7895160
176
     1
 90
        3
176
     1
 90
        0
176
     1
 90
        0
176
     1
290
     0
176
     1
 90
        5
176
     1
 40
0.0
176
     1
 90
        0
176
     1
290
     0
176
     1
290
     1
176
     1
290
     1
176
     1
290
     0
176
     1
290
     0
176
     1
290
     0
176
     1
290
     0
176
     1
290
     0
176
     1
290
     0
176
     1
 90
       50
176
     1
 40
0.0
176
     1
 40
1.0
176
     1
 90
        0
176
     1
 62
    18
420
        0
176
     1
 90
       50
176
     1
 90
        3
176
     1
 62
     5
420
      255
176
     1
290
     0
176
     1
 90
       50
176
     1
 90
       50
176
     1
 90
       50
176
     1
290
     0
176
     1
 90
       50
176
     1
 62
   256
176
     0
 40
1.0
176
     0
 90
        2
176
     1
  1
strokes_ogs.tif
176
     1
290
     0
176
     1
 40
1.0
176
     1
 40
1.0
176
     1
  0
VISUALSTYLE
  5
41
102
{ACAD_REACTORS
330
2A
102
}
330
2A
100
AcDbVisualStyle
  2
Shaded with edges
 70
    26
177
     3
291
     0
 70
    58
 90
        2
176
     1
 90
        2
176
     1
 90
        1
176
     1
 90
        2
176
     1
 40
0.6
176
     1
 40
30.0
176
     1
 62
     7
420
 16777215
176
     1
 90
        1
176
     1
 90
       10
176
     1
 62
     7
176
     1
 62
   257
176
     1
 90
        2
176
     1
 90
        1
176
     1
 40
1.0
176
     1
 90
        8
176
     1
 62
   257
176
     1
 40
1.0
176
     1
 90
        1
176
     1
 90
        6
176
     1
 90
        2
176
     1
 62
     7
176
     1
 90
        3
176
     1
 90
        0
176
     1
 90
        0
176
     1
290
     0
176
     1
 90
        5
176
     1
 40
0.0
176
     1
 90
        0
176
     1
290
     0
176
     1
290
     1
176
     1
290
     1
176
     1
290
     0
176
     1
290
     0
176
     1
290
     0
176
     1
290
     0
176
     1
290
     0
176
     1
290
     0
176
     1
 90
       50
176
     1
 40
0.0
176
     1
 40
1.0
176
     1
 90
        0
176
     1
 62
    18
420
        0
176
     1
 90
       50
176
     1
 90
        3
176
     1
 62
     5
420
      255
176
     1
290
     0
176
     1
 90
       50
176
     1
 90
       50
176
     1
 90
       50
176
     1
290
     0
176
     1
 90
       50
176
     1
 62
   256
176
     0
 40
1.0
176
     0
 90
        2
176
     1
  1
strokes_ogs.tif
176
     1
290
     0
176
     1
 40
1.0
176
     1
 40
1.0
176
     1
  0
VISUALSTYLE
  5
3E
102
{ACAD_REACTORS
330
2A
102
}
330
2A
100
AcDbVisualStyle
  2
Shades of Gray
 70
    23
177
     3
291
     0
 70
    58
 90
        2
176
     1
 90
        2
176
     1
 90
        3
176
     1
 90
        0
176
     1
 40
0.6
176
     1
 40
30.0
176
     1
 62
     7
420
 16777215
176
     1
 90
        2
176
     1
 90
        2
176
     1
 62
     7
176
     1
 62
     7
176
     1
 90
        1
176
     1
 90
        1
176
     1
 40
40.0
176
     1
 90
        8
176
     1
 62
     7
176
     1
 40
1.0
176
     1
 90
        1
176
     1
 90
        6
176
     1
 90
        2
176
     1
 62
     7
176
     1
 90
        3
176
     1
 90
        0
176
     1
 90
        0
176
     1
290
     0
176
     1
 90
        1
176
     1
 40
0.0
176
     1
 90
        0
176
     1
290
     0
176
     1
290
     1
176
     1
290
     1
176
     1
290
     0
176
     1
290
     0
176
     1
290
     0
176
     1
290
     0
176
     1
290
     0
176
     1
290
     0
176
     1
 90
       50
176
     1
 40
0.0
176
     1
 40
1.0
176
     1
 90
        0
176
     1
 62
    18
420
        0
176
     1
 90
       50
176
     1
 90
        3
176
     1
 62
     5
420
      255
176
     1
290
     0
176
     1
 90
       50
176
     1
 90
       50
176
     1
 90
       50
176
     1
290
     0
176
     1
 90
       50
176
     1
 62
   256
176
     0
 40
1.0
176
     0
 90
        2
176
     1
  1
strokes_ogs.tif
176
     1
290
     0
176
     1
 40
1.0
176
     1
 40
1.0
176
     1
  0
VISUALSTYLE
  5
3F
102
{ACAD_REACTORS
330
2A
102
}
330
2A
100
AcDbVisualStyle
  2
Sketchy
 70
    24
177
     3
291
     0
 70
    58
 90
        1
176
     1
 90
        2
176
     1
 90
        2
176
     1
 90
        0
176
     1
 40
0.6
176
     1
 40
30.0
176
     1
 62
     7
420
 16777215
176
     1
 90
        2
176
     1
 90
        2
176
     1
 62
     7
176
     1
 62
     7
176
     1
 90
        1
176
     1
 90
        1
176
     1
 40
40.0
176
     1
 90
       11
176
     1
 62
     7
176
     1
 40
1.0
176
     1
 90
        1
176
     1
 90
        6
176
     1
 90
        2
176
     1
 62
     7
176
     1
 90
        6
176
     1
 90
        0
176
     1
 90
        0
176
     1
290
     0
176
     1
 90
        1
176
     1
 40
0.0
176
     1
 90
        0
176
     1
290
     0
176
     1
290
     1
176
     1
290
     1
176
     1
290
     0
176
     1
290
     0
176
     1
290
     0
176
     1
290
     0
176
     1
290
     0
176
     1
290
     0
176
     1
 90
       50
176
     1
 40
0.0
176
     1
 40
1.0
176
     1
 90
        0
176
     1
 62
    18
420
        0
176
     1
 90
       50
176
     1
 90
        3
176
     1
 62
     5
420
      255
176
     1
290
     0
176
     1
 90
       50
176
     1
 90
       50
176
     1
 90
       50
176
     1
290
     0
176
     1
 90
       50
176
     1
 62
   256
176
     0
 40
1.0
176
     0
 90
        2
176
     1
  1
strokes_ogs.tif
176
     1
290
     0
176
     1
 40
1.0
176
     1
 40
1.0
176
     1
  0
VISUALSTYLE
  5
37
102
{ACAD_REACTORS
330
2A
102
}
330
2A
100
AcDbVisualStyle
  2
Thicken
 70
    13
177
     3
291
     1
 70
    58
 90
        2
176
     1
 90
        2
176
     1
 90
        0
176
     1
 90
        0
176
     1
 40
0.6
176
     1
 40
30.0
176
     1
 62
     7
420
 16777215
176
     1
 90
        1
176
     1
 90
        4
176
     1
 62
     7
176
     1
 62
   257
176
     1
 90
        1
176
     1
 90
        1
176
     1
 40
1.0
176
     1
 90
       12
176
     1
 62
     7
176
     1
 40
1.0
176
     1
 90
        1
176
     1
 90
        6
176
     1
 90
        2
176
     1
 62
     7
176
     1
 90
        5
176
     1
 90
        0
176
     1
 90
        0
176
     1
290
     0
176
     1
 90
        1
176
     1
 40
0.0
176
     1
 90
        0
176
     1
290
     0
176
     1
290
     1
176
     1
290
     1
176
     1
290
     0
176
     1
290
     0
176
     1
290
     0
176
     1
290
     0
176
     1
290
     0
176
     1
290
     0
176
     1
 90
       50
176
     1
 40
0.0
176
     1
 40
1.0
176
     1
 90
        0
176
     1
 62
    18
420
        0
176
     1
 90
       50
176
     1
 90
        3
176
     1
 62
     5
420
      255
176
     1
290
     0
176
     1
 90
       50
176
     1
 90
       50
176
     1
 90
       50
176
     1
290
     0
176
     1
 90
       50
176
     1
 62
   256
176
     0
 40
1.0
176
     0
 90
        2
176
     1
  1
strokes_ogs.tif
176
     1
290
     0
176
     1
 40
1.0
176
     1
 40
1.0
176
     1
  0
VISUALSTYLE
  5
30
102
{ACAD_REACTORS
330
2A
102
}
330
2A
100
AcDbVisualStyle
  2
Wireframe
 70
     5
177
     3
291
     0
 70
    58
 90
        0
176
     1
 90
        2
176
     1
 90
        0
176
     1
 90
        0
176
     1
 40
0.6
176
     1
 40
30.0
176
     1
 62
     7
420
 16777215
176
     1
 90
        1
176
     1
 90
        4
176
     1
 62
     7
176
     1
 62
   257
176
     1
 90
        1
176
     1
 90
        1
176
     1
 40
1.0
176
     1
 90
        0
176
     1
 62
   257
176
     1
 40
1.0
176
     1
 90
        1
176
     1
 90
        6
176
     1
 90
        2
176
     1
 62
     7
176
     1
 90
        3
176
     1
 90
        0
176
     1
 90
        0
176
     1
290
     0
176
     1
 90
        1
176
     1
 40
0.0
176
     1
 90
        0
176
     1
290
     0
176
     1
290
     1
176
     1
290
     1
176
     1
290
     0
176
     1
290
     0
176
     1
290
     0
176
     1
290
     0
176
     1
290
     0
176
     1
290
     0
176
     1
 90
       50
176
     1
 40
0.0
176
     1
 40
1.0
176
     1
 90
        0
176
     1
 62
    18
420
        0
176
     1
 90
       50
176
     1
 90
        3
176
     1
 62
     5
420
      255
176
     1
290
     0
176
     1
 90
       50
176
     1
 90
       50
176
     1
 90
       50
176
     1
290
     0
176
     1
 90
       50
176
     1
 62
   256
176
     0
 40
1.0
176
     0
 90
        2
176
     1
  1
strokes_ogs.tif
176
     1
290
     0
176
     1
 40
1.0
176
     1
 40
1.0
176
     1
  0
VISUALSTYLE
  5
40
102
{ACAD_REACTORS
330
2A
102
}
330
2A
100
AcDbVisualStyle
  2
X-Ray
 70
    25
177
     3
291
     0
 70
    58
 90
        2
176
     1
 90
        2
176
     1
 90
        1
176
     1
 90
        1
176
     1
 40
0.5
176
     1
 40
30.0
176
     1
 62
     7
420
 16777215
176
     1
 90
        1
176
     1
 90
        0
176
     1
 62
     7
176
     1
 62
   257
176
     1
 90
        1
176
     1
 90
        1
176
     1
 40
1.0
176
     1
 90
        8
176
     1
 62
     7
176
     1
 40
1.0
176
     1
 90
        1
176
     1
 90
        6
176
     1
 90
        2
176
     1
 62
     7
176
     1
 90
        3
176
     1
 90
        0
176
     1
 90
        0
176
     1
290
     0
176
     1
 90
       13
176
     1
 40
0.0
176
     1
 90
        0
176
     1
290
     0
176
     1
290
     1
176
     1
290
     1
176
     1
290
     0
176
     1
290
     0
176
     1
290
     0
176
     1
290
     0
176
     1
290
     0
176
     1
290
     0
176
     1
 90
       50
176
     1
 40
0.0
176
     1
 40
1.0
176
     1
 90
        0
176
     1
 62
    18
420
        0
176
     1
 90
       50
176
     1
 90
        3
176
     1
 62
     5
420
      255
176
     1
290
     0
176
     1
 90
       50
176
     1
 90
       50
176
     1
 90
       50
176
     1
290
     0
176
     1
 90
       50
176
     1
 62
   256
176
     0
 40
1.0
176
     0
 90
        2
176
     1
  1
strokes_ogs.tif
176
     1
290
     0
176
     1
 40
1.0
176
     1
 40
1.0
176
     1
  0
DICTIONARYVAR
  5
28F
102
{ACAD_REACTORS
330
28E
102
}
330
28E
100
DictionaryVariables
280
     0
  1
1:1
  0
DICTIONARYVAR
  5
294
102
{ACAD_REACTORS
330
28E
102
}
330
28E
100
DictionaryVariables
280
     0
  1
Standard
  0
DICTIONARYVAR
  5
293
102
{ACAD_REACTORS
330
28E
102
}
330
28E
100
DictionaryVariables
280
     0
  1
Standard
  0
DICTIONARYVAR
  5
297
102
{ACAD_REACTORS
330
28E
102
}
330
28E
100
DictionaryVariables
280
     0
  1
6.000000
  0
DICTIONARY
  5
290
330
6A
100
AcDbDictionary
280
     1
281
     1
  3
ACAD_ROUNDTRIP_2008_TABLESTYLE_CELLSTYLEMAP
360
291
  0
CELLSTYLEMAP
  5
291
102
{ACAD_REACTORS
330
290
102
}
330
290
100
AcDbCellStyleMap
 90
        3
300
CELLSTYLE
  1
TABLEFORMAT_BEGIN
 90
        5
170
     1
 91
        0
 92
    32768
 62
   257
 93
        1
300
CONTENTFORMAT
  1
CONTENTFORMAT_BEGIN
 90
        0
 91
        0
 92
        4
 93
        0
300

 40
0.0
140
1.0
 94
        5
 62
     0
340
11
144
6.0
309
CONTENTFORMAT_END
171
     1
301
MARGIN
  1
CELLMARGIN_BEGIN
 40
1.5
 40
1.5
 40
1.5
 40
1.5
 40
1.5
 40
1.5
309
CELLMARGIN_END
 94
        6
 95
        1
302
GRIDFORMAT
  1
GRIDFORMAT_BEGIN
 90
        0
 91
        1
 62
     0
 92
       -2
340
14
 93
        0
 40
0.045
309
GRIDFORMAT_END
 95
        2
302
GRIDFORMAT
  1
GRIDFORMAT_BEGIN
 90
        0
 91
        1
 62
     0
 92
       -2
340
14
 93
        0
 40
0.045
309
GRIDFORMAT_END
 95
        4
302
GRIDFORMAT
  1
GRIDFORMAT_BEGIN
 90
        0
 91
        1
 62
     0
 92
       -2
340
14
 93
        0
 40
0.045
309
GRIDFORMAT_END
 95
        8
302
GRIDFORMAT
  1
GRIDFORMAT_BEGIN
 90
        0
 91
        1
 62
     0
 92
       -2
340
14
 93
        0
 40
0.045
309
GRIDFORMAT_END
 95
       16
302
GRIDFORMAT
  1
GRIDFORMAT_BEGIN
 90
        0
 91
        1
 62
     0
 92
       -2
340
14
 93
        0
 40
0.045
309
GRIDFORMAT_END
 95
       32
302
GRIDFORMAT
  1
GRIDFORMAT_BEGIN
 90
        0
 91
        1
 62
     0
 92
       -2
340
14
 93
        0
 40
0.045
309
GRIDFORMAT_END
309
TABLEFORMAT_END
  1
CELLSTYLE_BEGIN
 90
        1
 91
        1
300
_TITLE
309
CELLSTYLE_END
300
CELLSTYLE
  1
TABLEFORMAT_BEGIN
 90
        5
170
     1
 91
        0
 92
        0
 62
   257
 93
        1
300
CONTENTFORMAT
  1
CONTENTFORMAT_BEGIN
 90
        0
 91
        0
 92
        4
 93
        0
300

 40
0.0
140
1.0
 94
        5
 62
     0
340
11
144
4.5
309
CONTENTFORMAT_END
171
     1
301
MARGIN
  1
CELLMARGIN_BEGIN
 40
1.5
 40
1.5
 40
1.5
 40
1.5
 40
1.5
 40
1.5
309
CELLMARGIN_END
 94
        6
 95
        1
302
GRIDFORMAT
  1
GRIDFORMAT_BEGIN
 90
        0
 91
        1
 62
     0
 92
       -2
340
14
 93
        0
 40
0.045
309
GRIDFORMAT_END
 95
        2
302
GRIDFORMAT
  1
GRIDFORMAT_BEGIN
 90
        0
 91
        1
 62
     0
 92
       -2
340
14
 93
        0
 40
0.045
309
GRIDFORMAT_END
 95
        4
302
GRIDFORMAT
  1
GRIDFORMAT_BEGIN
 90
        0
 91
        1
 62
     0
 92
       -2
340
14
 93
        0
 40
0.045
309
GRIDFORMAT_END
 95
        8
302
GRIDFORMAT
  1
GRIDFORMAT_BEGIN
 90
        0
 91
        1
 62
     0
 92
       -2
340
14
 93
        0
 40
0.045
309
GRIDFORMAT_END
 95
       16
302
GRIDFORMAT
  1
GRIDFORMAT_BEGIN
 90
        0
 91
        1
 62
     0
 92
       -2
340
14
 93
        0
 40
0.045
309
GRIDFORMAT_END
 95
       32
302
GRIDFORMAT
  1
GRIDFORMAT_BEGIN
 90
        0
 91
        1
 62
     0
 92
       -2
340
14
 93
        0
 40
0.045
309
GRIDFORMAT_END
309
TABLEFORMAT_END
  1
CELLSTYLE_BEGIN
 90
        2
 91
        1
300
_HEADER
309
CELLSTYLE_END
300
CELLSTYLE
  1
TABLEFORMAT_BEGIN
 90
        5
170
     1
 91
        0
 92
        0
 62
   257
 93
        1
300
CONTENTFORMAT
  1
CONTENTFORMAT_BEGIN
 90
        0
 91
        0
 92
        4
 93
        0
300

 40
0.0
140
1.0
 94
        2
 62
     0
340
11
144
4.5
309
CONTENTFORMAT_END
171
     1
301
MARGIN
  1
CELLMARGIN_BEGIN
 40
1.5
 40
1.5
 40
1.5
 40
1.5
 40
1.5
 40
1.5
309
CELLMARGIN_END
 94
        6
 95
        1
302
GRIDFORMAT
  1
GRIDFORMAT_BEGIN
 90
        0
 91
        1
 62
     0
 92
       -2
340
14
 93
        0
 40
0.045
309
GRIDFORMAT_END
 95
        2
302
GRIDFORMAT
  1
GRIDFORMAT_BEGIN
 90
        0
 91
        1
 62
     0
 92
       -2
340
14
 93
        0
 40
0.045
309
GRIDFORMAT_END
 95
        4
302
GRIDFORMAT
  1
GRIDFORMAT_BEGIN
 90
        0
 91
        1
 62
     0
 92
       -2
340
14
 93
        0
 40
0.045
309
GRIDFORMAT_END
 95
        8
302
GRIDFORMAT
  1
GRIDFORMAT_BEGIN
 90
        0
 91
        1
 62
     0
 92
       -2
340
14
 93
        0
 40
0.045
309
GRIDFORMAT_END
 95
       16
302
GRIDFORMAT
  1
GRIDFORMAT_BEGIN
 90
        0
 91
        1
 62
     0
 92
       -2
340
14
 93
        0
 40
0.045
309
GRIDFORMAT_END
 95
       32
302
GRIDFORMAT
  1
GRIDFORMAT_BEGIN
 90
        0
 91
        1
 62
     0
 92
       -2
340
14
 93
        0
 40
0.045
309
GRIDFORMAT_END
309
TABLEFORMAT_END
  1
CELLSTYLE_BEGIN
 90
        3
 91
        2
300
_DATA
309
CELLSTYLE_END
  0
ENDSEC
  0
EOF
