  0
SECTION
  2
HEADER
  9
$ACADVER
  1
AC1018
  9
$ACADMAINTVER
 70
     0
  9
$DWGCODEPAGE
  3
ANSI_1252
  9
$COMMENTS
  1
File was created by Cadenas
  9
$CUSTOMPROPERTYTAG
  1
NB
  9
$CUSTOMPROPERTY
  1
150300
  9
$CUSTOMPROPERTYTAG
  1
NN
  9
$CUSTOMPROPERTY
  1
RTFset BD 52-12, split
  9
$CUSTOMPROPERTYTAG
  1
NT
  9
$CUSTOMPROPERTY
  1

  9
$CUSTOMPROPERTYTAG
  1
NBSYN
  9
$CUSTOMPROPERTY
  1
$ARTNRTX.
  9
$CUSTOMPROPERTYTAG
  1
LINA
  9
$CUSTOMPROPERTY
  1
150300
  9
$CUSTOMPROPERTYTAG
  1
CATALOG
  9
$CUSTOMPROPERTY
  1
GEBERIT
  9
$CUSTOMPROPERTYTAG
  1
ARTNRT
  9
$CUSTOMPROPERTY
  1
150.300.KJ.1
  9
$CUSTOMPROPERTYTAG
  1
COMPANY
  9
$CUSTOMPROPERTY
  1
geberit
  9
$INSBASE
 10
0.0
 20
0.0
 30
0.0
  9
$EXTMIN
 10
1.000000000000000E+20
 20
1.000000000000000E+20
 30
1.000000000000000E+20
  9
$EXTMAX
 10
-1.000000000000000E+20
 20
-1.000000000000000E+20
 30
-1.000000000000000E+20
  9
$LIMMIN
 10
0.0
 20
0.0
  9
$LIMMAX
 10
420.0
 20
297.0
  9
$ORTHOMODE
 70
     0
  9
$REGENMODE
 70
     1
  9
$FILLMODE
 70
     1
  9
$QTEXTMODE
 70
     0
  9
$MIRRTEXT
 70
     1
  9
$LTSCALE
 40
1.0
  9
$ATTMODE
 70
     1
  9
$TEXTSIZE
 40
2.5
  9
$TRACEWID
 40
1.0
  9
$TEXTSTYLE
  7
Standard
  9
$CLAYER
  8
0
  9
$CELTYPE
  6
ByLayer
  9
$CECOLOR
 62
   256
  9
$CELTSCALE
 40
1.0
  9
$DISPSILH
 70
     0
  9
$DIMSCALE
 40
1.0
  9
$DIMASZ
 40
2.5
  9
$DIMEXO
 40
0.625
  9
$DIMDLI
 40
3.75
  9
$DIMRND
 40
0.0
  9
$DIMDLE
 40
0.0
  9
$DIMEXE
 40
1.25
  9
$DIMTP
 40
0.0
  9
$DIMTM
 40
0.0
  9
$DIMTXT
 40
2.5
  9
$DIMCEN
 40
2.5
  9
$DIMTSZ
 40
0.0
  9
$DIMTOL
 70
     0
  9
$DIMLIM
 70
     0
  9
$DIMTIH
 70
     0
  9
$DIMTOH
 70
     0
  9
$DIMSE1
 70
     0
  9
$DIMSE2
 70
     0
  9
$DIMTAD
 70
     1
  9
$DIMZIN
 70
     8
  9
$DIMBLK
  1

  9
$DIMASO
 70
     1
  9
$DIMSHO
 70
     1
  9
$DIMPOST
  1

  9
$DIMAPOST
  1

  9
$DIMALT
 70
     0
  9
$DIMALTD
 70
     3
  9
$DIMALTF
 40
0.03937007874016
  9
$DIMLFAC
 40
1.0
  9
$DIMTOFL
 70
     1
  9
$DIMTVP
 40
0.0
  9
$DIMTIX
 70
     0
  9
$DIMSOXD
 70
     0
  9
$DIMSAH
 70
     0
  9
$DIMBLK1
  1

  9
$DIMBLK2
  1

  9
$DIMSTYLE
  2
ISO-25
  9
$DIMCLRD
 70
     0
  9
$DIMCLRE
 70
     0
  9
$DIMCLRT
 70
     0
  9
$DIMTFAC
 40
1.0
  9
$DIMGAP
 40
0.625
  9
$DIMJUST
 70
     0
  9
$DIMSD1
 70
     0
  9
$DIMSD2
 70
     0
  9
$DIMTOLJ
 70
     0
  9
$DIMTZIN
 70
     8
  9
$DIMALTZ
 70
     0
  9
$DIMALTTZ
 70
     0
  9
$DIMUPT
 70
     0
  9
$DIMDEC
 70
     2
  9
$DIMTDEC
 70
     2
  9
$DIMALTU
 70
     2
  9
$DIMALTTD
 70
     3
  9
$DIMTXSTY
  7
Standard
  9
$DIMAUNIT
 70
     0
  9
$DIMADEC
 70
     0
  9
$DIMALTRND
 40
0.0
  9
$DIMAZIN
 70
     0
  9
$DIMDSEP
 70
    44
  9
$DIMATFIT
 70
     3
  9
$DIMFRAC
 70
     0
  9
$DIMLDRBLK
  1

  9
$DIMLUNIT
 70
     2
  9
$DIMLWD
 70
    -2
  9
$DIMLWE
 70
    -2
  9
$DIMTMOVE
 70
     0
  9
$LUNITS
 70
     2
  9
$LUPREC
 70
     4
  9
$SKETCHINC
 40
1.0
  9
$FILLETRAD
 40
10.0
  9
$AUNITS
 70
     0
  9
$AUPREC
 70
     0
  9
$MENU
  1
.
  9
$ELEVATION
 40
0.0
  9
$PELEVATION
 40
0.0
  9
$THICKNESS
 40
0.0
  9
$LIMCHECK
 70
     0
  9
$CHAMFERA
 40
0.0
  9
$CHAMFERB
 40
0.0
  9
$CHAMFERC
 40
0.0
  9
$CHAMFERD
 40
0.0
  9
$SKPOLY
 70
     0
  9
$TDCREATE
 40
2459415.659028218
  9
$TDUCREATE
 40
2459415.575694884
  9
$TDUPDATE
 40
2459415.659028715
  9
$TDUUPDATE
 40
2459415.575695382
  9
$TDINDWG
 40
0.0000000116
  9
$TDUSRTIMER
 40
0.0000000116
  9
$USRTIMER
 70
     1
  9
$ANGBASE
 50
0.0
  9
$ANGDIR
 70
     0
  9
$PDMODE
 70
     0
  9
$PDSIZE
 40
0.0
  9
$PLINEWID
 40
0.0
  9
$SPLFRAME
 70
     0
  9
$SPLINETYPE
 70
     6
  9
$SPLINESEGS
 70
     8
  9
$HANDSEED
  5
434
  9
$SURFTAB1
 70
     6
  9
$SURFTAB2
 70
     6
  9
$SURFTYPE
 70
     6
  9
$SURFU
 70
     6
  9
$SURFV
 70
     6
  9
$UCSBASE
  2

  9
$UCSNAME
  2

  9
$UCSORG
 10
0.0
 20
0.0
 30
0.0
  9
$UCSXDIR
 10
1.0
 20
0.0
 30
0.0
  9
$UCSYDIR
 10
0.0
 20
1.0
 30
0.0
  9
$UCSORTHOREF
  2

  9
$UCSORTHOVIEW
 70
     0
  9
$UCSORGTOP
 10
0.0
 20
0.0
 30
0.0
  9
$UCSORGBOTTOM
 10
0.0
 20
0.0
 30
0.0
  9
$UCSORGLEFT
 10
0.0
 20
0.0
 30
0.0
  9
$UCSORGRIGHT
 10
0.0
 20
0.0
 30
0.0
  9
$UCSORGFRONT
 10
0.0
 20
0.0
 30
0.0
  9
$UCSORGBACK
 10
0.0
 20
0.0
 30
0.0
  9
$PUCSBASE
  2

  9
$PUCSNAME
  2

  9
$PUCSORG
 10
0.0
 20
0.0
 30
0.0
  9
$PUCSXDIR
 10
1.0
 20
0.0
 30
0.0
  9
$PUCSYDIR
 10
0.0
 20
1.0
 30
0.0
  9
$PUCSORTHOREF
  2

  9
$PUCSORTHOVIEW
 70
     0
  9
$PUCSORGTOP
 10
0.0
 20
0.0
 30
0.0
  9
$PUCSORGBOTTOM
 10
0.0
 20
0.0
 30
0.0
  9
$PUCSORGLEFT
 10
0.0
 20
0.0
 30
0.0
  9
$PUCSORGRIGHT
 10
0.0
 20
0.0
 30
0.0
  9
$PUCSORGFRONT
 10
0.0
 20
0.0
 30
0.0
  9
$PUCSORGBACK
 10
0.0
 20
0.0
 30
0.0
  9
$USERI1
 70
     0
  9
$USERI2
 70
     0
  9
$USERI3
 70
     0
  9
$USERI4
 70
     0
  9
$USERI5
 70
     0
  9
$USERR1
 40
0.0
  9
$USERR2
 40
0.0
  9
$USERR3
 40
0.0
  9
$USERR4
 40
0.0
  9
$USERR5
 40
0.0
  9
$WORLDVIEW
 70
     1
  9
$SHADEDGE
 70
     3
  9
$SHADEDIF
 70
    70
  9
$TILEMODE
 70
     1
  9
$MAXACTVP
 70
    64
  9
$PINSBASE
 10
0.0
 20
0.0
 30
0.0
  9
$PLIMCHECK
 70
     0
  9
$PEXTMIN
 10
1.000000000000000E+20
 20
1.000000000000000E+20
 30
1.000000000000000E+20
  9
$PEXTMAX
 10
-1.000000000000000E+20
 20
-1.000000000000000E+20
 30
-1.000000000000000E+20
  9
$PLIMMIN
 10
0.0
 20
0.0
  9
$PLIMMAX
 10
420.0
 20
297.0
  9
$UNITMODE
 70
     0
  9
$VISRETAIN
 70
     1
  9
$PLINEGEN
 70
     0
  9
$PSLTSCALE
 70
     1
  9
$TREEDEPTH
 70
  3020
  9
$CMLSTYLE
  2
Standard
  9
$CMLJUST
 70
     0
  9
$CMLSCALE
 40
20.0
  9
$PROXYGRAPHICS
 70
     1
  9
$MEASUREMENT
 70
     1
  9
$CELWEIGHT
370
    -1
  9
$ENDCAPS
280
     0
  9
$JOINSTYLE
280
     0
  9
$LWDISPLAY
290
     0
  9
$INSUNITS
 70
     4
  9
$HYPERLINKBASE
  1

  9
$STYLESHEET
  1

  9
$XEDIT
290
     1
  9
$CEPSNTYPE
380
     0
  9
$PSTYLEMODE
290
     1
  9
$FINGERPRINTGUID
  2
{CEF9BABD-96E6-49EC-9BB8-10911355DE17}
  9
$VERSIONGUID
  2
{FAEB1C32-E019-11D5-929B-00C0DF256EC4}
  9
$EXTNAMES
290
     1
  9
$PSVPSCALE
 40
0.0
  9
$OLESTARTUP
290
     0
  9
$SORTENTS
280
   127
  9
$INDEXCTL
280
     0
  9
$HIDETEXT
280
     1
  9
$XCLIPFRAME
290
     0
  9
$HALOGAP
280
     0
  9
$OBSCOLOR
 70
   257
  9
$OBSLTYPE
280
     0
  9
$INTERSECTIONDISPLAY
280
     0
  9
$INTERSECTIONCOLOR
 70
   257
  9
$DIMASSOC
280
     2
  9
$PROJECTNAME
  1

  0
ENDSEC
  0
SECTION
  2
CLASSES
  0
CLASS
  1
ACDBDICTIONARYWDFLT
  2
AcDbDictionaryWithDefault
  3
ObjectDBX Classes
 90
        0
 91
        4
280
     0
281
     0
  0
CLASS
  1
VISUALSTYLE
  2
AcDbVisualStyle
  3
ObjectDBX Classes
 90
     4095
 91
        4
280
     0
281
     0
  0
CLASS
  1
MATERIAL
  2
AcDbMaterial
  3
ObjectDBX Classes
 90
     1153
 91
        4
280
     0
281
     0
  0
CLASS
  1
SCALE
  2
AcDbScale
  3
ObjectDBX Classes
 90
     1153
 91
        4
280
     0
281
     0
  0
CLASS
  1
TABLESTYLE
  2
AcDbTableStyle
  3
ObjectDBX Classes
 90
     4095
 91
        4
280
     0
281
     0
  0
CLASS
  1
MLEADERSTYLE
  2
AcDbMLeaderStyle
  3
ACDB_MLEADERSTYLE_CLASS
 90
     4095
 91
        4
280
     0
281
     0
  0
CLASS
  1
SUN
  2
AcDbSun
  3
SCENEOE
 90
     1153
 91
        4
280
     0
281
     0
  0
CLASS
  1
DICTIONARYVAR
  2
AcDbDictionaryVar
  3
ObjectDBX Classes
 90
        0
 91
        4
280
     0
281
     0
  0
CLASS
  1
CELLSTYLEMAP
  2
AcDbCellStyleMap
  3
ObjectDBX Classes
 90
     1152
 91
        4
280
     0
281
     0
  0
ENDSEC
  0
SECTION
  2
TABLES
  0
TABLE
  2
VPORT
  5
8
102
{ACAD_XDICTIONARY
360
3EC
102
}
330
0
100
AcDbSymbolTable
 70
     1
  0
VPORT
  5
29
330
8
100
AcDbSymbolTableRecord
100
AcDbViewportTableRecord
  2
*Active
 70
     0
 10
0.0
 20
0.0
 11
1.0
 21
1.0
 12
-27.34999999999997
 22
-37.38281694848604
 13
0.0
 23
0.0
 14
10.0
 24
10.0
 15
10.0
 25
10.0
 16
0.0
 26
0.0
 36
1.0
 17
0.0
 27
0.0
 37
0.0
 40
171.5990534250885
 41
0.8755642703215131
 42
50.0
 43
0.0
 44
0.0
 50
0.0
 51
0.0
 71
     0
 72
   100
 73
     1
 74
     3
 75
     0
 76
     0
 77
     0
 78
     0
281
     0
 65
     1
110
0.0
120
0.0
130
0.0
111
1.0
121
0.0
131
0.0
112
0.0
122
1.0
132
0.0
 79
     0
146
0.0
  0
ENDTAB
  0
TABLE
  2
LTYPE
  5
5
330
0
100
AcDbSymbolTable
 70
     3
  0
LTYPE
  5
14
330
5
100
AcDbSymbolTableRecord
100
AcDbLinetypeTableRecord
  2
ByBlock
 70
     0
  3

 72
    65
 73
     0
 40
0.0
  0
LTYPE
  5
15
330
5
100
AcDbSymbolTableRecord
100
AcDbLinetypeTableRecord
  2
ByLayer
 70
     0
  3

 72
    65
 73
     0
 40
0.0
  0
LTYPE
  5
16
330
5
100
AcDbSymbolTableRecord
100
AcDbLinetypeTableRecord
  2
Continuous
 70
     0
  3
Solid line
 72
    65
 73
     0
 40
0.0
  0
LTYPE
  5
87
330
5
100
AcDbSymbolTableRecord
100
AcDbLinetypeTableRecord
  2
Dashed
 70
     0
  3

 72
    65
 73
     2
 40
2.0
 49
1.0
 74
     0
 49
-1.0
 74
     0
  0
LTYPE
  5
BF
330
5
100
AcDbSymbolTableRecord
100
AcDbLinetypeTableRecord
  2
Center
 70
     0
  3

 72
    65
 73
     4
 40
1.5
 49
0.45
 74
     0
 49
-0.5
 74
     0
 49
0.05
 74
     0
 49
-0.5
 74
     0
  0
ENDTAB
  0
TABLE
  2
LAYER
  5
2
330
0
100
AcDbSymbolTable
 70
     6
  0
LAYER
  5
10
330
2
100
AcDbSymbolTableRecord
100
AcDbLayerTableRecord
  2
0
 70
     0
 62
     7
  6
Continuous
370
    -3
390
F
  0
LAYER
  5
6E
330
2
100
AcDbSymbolTableRecord
100
AcDbLayerTableRecord
  2
ATTR
 70
     0
 62
    -2
  6
Continuous
370
    35
390
F
  0
LAYER
  5
88
330
2
100
AcDbSymbolTableRecord
100
AcDbLayerTableRecord
  2
VER
 70
     0
 62
    -6
  6
Dashed
370
    25
390
F
  0
LAYER
  5
C0
330
2
100
AcDbSymbolTableRecord
100
AcDbLayerTableRecord
  2
MITTE
 70
     0
 62
     7
  6
Center
370
    25
390
F
  0
LAYER
  5
C3
330
2
100
AcDbSymbolTableRecord
100
AcDbLayerTableRecord
  2
050
 70
     0
 62
     7
  6
Continuous
370
    50
390
F
  0
LAYER
  5
3E6
330
2
100
AcDbSymbolTableRecord
100
AcDbLayerTableRecord
  2
2d ConnectionPoints
 70
     0
 62
    -7
  6
Continuous
370
    50
390
F
  0
ENDTAB
  0
TABLE
  2
STYLE
  5
3
330
0
100
AcDbSymbolTable
 70
     1
  0
STYLE
  5
11
330
3
100
AcDbSymbolTableRecord
100
AcDbTextStyleTableRecord
  2
Standard
 70
     0
 40
0.0
 41
1.0
 50
0.0
 71
     0
 42
2.5
  3
txt
  4

  0
ENDTAB
  0
TABLE
  2
VIEW
  5
6
330
0
100
AcDbSymbolTable
 70
     0
  0
ENDTAB
  0
TABLE
  2
UCS
  5
7
330
0
100
AcDbSymbolTable
 70
     0
  0
ENDTAB
  0
TABLE
  2
APPID
  5
9
330
0
100
AcDbSymbolTable
 70
     2
  0
APPID
  5
12
330
9
100
AcDbSymbolTableRecord
100
AcDbRegAppTableRecord
  2
ACAD
 70
     0
  0
APPID
  5
42B
330
9
100
AcDbSymbolTableRecord
100
AcDbRegAppTableRecord
  2
ACAD_MLEADERVER
 70
     0
  0
ENDTAB
  0
TABLE
  2
DIMSTYLE
  5
A
330
0
100
AcDbSymbolTable
 70
     1
100
AcDbDimStyleTable
  0
DIMSTYLE
105
27
330
A
100
AcDbSymbolTableRecord
100
AcDbDimStyleTableRecord
  2
ISO-25
 70
     0
 41
2.5
 42
0.625
 43
3.75
 44
1.25
 73
     0
 74
     0
 77
     1
 78
     8
140
2.5
141
2.5
143
0.03937007874016
147
0.625
171
     3
172
     1
178
     0
271
     2
272
     2
274
     3
278
    44
283
     0
284
     8
340
11
  0
ENDTAB
  0
TABLE
  2
BLOCK_RECORD
  5
1
330
0
100
AcDbSymbolTable
 70
     6
  0
BLOCK_RECORD
  5
1F
330
1
100
AcDbSymbolTableRecord
100
AcDbBlockTableRecord
  2
*Model_Space
340
22
  0
BLOCK_RECORD
  5
1B
330
1
100
AcDbSymbolTableRecord
100
AcDbBlockTableRecord
  2
*Paper_Space
340
1E
  0
BLOCK_RECORD
  5
23
330
1
100
AcDbSymbolTableRecord
100
AcDbBlockTableRecord
  2
*Paper_Space0
340
26
  0
BLOCK_RECORD
  5
79
330
1
100
AcDbSymbolTableRecord
100
AcDbBlockTableRecord
  2
1_893_735_scheibe_0_in_150300_4
340
0
102
{BLKREFS
331
7A
102
}
  0
BLOCK_RECORD
  5
C8
330
1
100
AcDbSymbolTableRecord
100
AcDbBlockTableRecord
  2
2_893_735_mitnehmer_0_in_150300_4
340
0
102
{BLKREFS
331
C9
102
}
  0
BLOCK_RECORD
  5
1D0
330
1
100
AcDbSymbolTableRecord
100
AcDbBlockTableRecord
  2
3_893_735_metallrosette_0_in_150300_4
340
0
102
{BLKREFS
331
1D1
102
}
  0
BLOCK_RECORD
  5
240
330
1
100
AcDbSymbolTableRecord
100
AcDbBlockTableRecord
  2
4_893_743_0_in_150300_4
340
0
102
{BLKREFS
331
241
102
}
  0
BLOCK_RECORD
  5
2E3
330
1
100
AcDbSymbolTableRecord
100
AcDbBlockTableRecord
  2
5_893_741_0_in_150300_4
340
0
102
{BLKREFS
331
2E4
102
}
  0
ENDTAB
  0
ENDSEC
  0
SECTION
  2
BLOCKS
  0
BLOCK
  5
20
330
1F
100
AcDbEntity
  8
0
100
AcDbBlockBegin
  2
*Model_Space
 70
     0
 10
0.0
 20
0.0
 30
0.0
  3
*Model_Space
  1

  0
ENDBLK
  5
21
330
1F
100
AcDbEntity
  8
0
100
AcDbBlockEnd
  0
BLOCK
  5
1C
330
1B
100
AcDbEntity
 67
     1
  8
0
100
AcDbBlockBegin
  2
*Paper_Space
 70
     0
 10
0.0
 20
0.0
 30
0.0
  3
*Paper_Space
  1

  0
ENDBLK
  5
1D
330
1B
100
AcDbEntity
 67
     1
  8
0
100
AcDbBlockEnd
  0
BLOCK
  5
24
330
23
100
AcDbEntity
  8
0
100
AcDbBlockBegin
  2
*Paper_Space0
 70
     0
 10
0.0
 20
0.0
 30
0.0
  3
*Paper_Space0
  1

  0
ENDBLK
  5
25
330
23
100
AcDbEntity
  8
0
100
AcDbBlockEnd
  0
BLOCK
  5
7B
330
79
100
AcDbEntity
  8
0
100
AcDbBlockBegin
  2
1_893_735_scheibe_0_in_150300_4
 70
     2
 10
0.0
 20
0.0
 30
0.0
  3
1_893_735_scheibe_0_in_150300_4
  1

  0
ATTDEF
  5
7D
330
79
100
AcDbEntity
  8
ATTR
100
AcDbText
 10
-69.7650000000001
 20
43.82500000000001
 30
0.0
 40
0.5
  1
893.735_scheibe
100
AcDbAttributeDefinition
  3

  2
NB
 70
     8
  0
ATTDEF
  5
7E
330
79
100
AcDbEntity
  8
ATTR
100
AcDbText
 10
-69.7650000000001
 20
43.32500000000001
 30
0.0
 40
0.5
  1
893.735 Scheibe
100
AcDbAttributeDefinition
  3

  2
NN
 70
     8
  0
ATTDEF
  5
7F
330
79
100
AcDbEntity
  8
ATTR
100
AcDbText
 10
-69.7650000000001
 20
42.82500000000001
 30
0.0
 40
0.5
  1

100
AcDbAttributeDefinition
  3

  2
NT
 70
     8
  0
ATTDEF
  5
80
330
79
100
AcDbEntity
  8
ATTR
100
AcDbText
 10
-69.7650000000001
 20
42.32500000000001
 30
0.0
 40
0.5
  1
$ARTNRT._scheibe
100
AcDbAttributeDefinition
  3

  2
NBSYN
 70
     8
  0
ATTDEF
  5
81
330
79
100
AcDbEntity
  8
ATTR
100
AcDbText
 10
-69.7650000000001
 20
41.82500000000001
 30
0.0
 40
0.5
  1
893.735_scheibe
100
AcDbAttributeDefinition
  3

  2
LINA
 70
     8
  0
ATTDEF
  5
82
330
79
100
AcDbEntity
  8
ATTR
100
AcDbText
 10
-69.7650000000001
 20
41.32500000000001
 30
0.0
 40
0.5
  1
GEBERIT
100
AcDbAttributeDefinition
  3

  2
CATALOG
 70
     8
  0
ATTDEF
  5
83
330
79
100
AcDbEntity
  8
ATTR
100
AcDbText
 10
-69.7650000000001
 20
40.82500000000001
 30
0.0
 40
0.5
  1
893.735
100
AcDbAttributeDefinition
  3

  2
ARTNRT
 70
     8
  0
ATTDEF
  5
84
330
79
100
AcDbEntity
  8
ATTR
100
AcDbText
 10
-69.7650000000001
 20
40.32500000000001
 30
0.0
 40
0.5
  1
geberit
100
AcDbAttributeDefinition
  3

  2
COMPANY
 70
     8
  0
ATTDEF
  5
85
330
79
100
AcDbEntity
  8
ATTR
100
AcDbText
 10
-69.7650000000001
 20
39.82500000000001
 30
0.0
 40
0.5
  1
{$CADENAS_DATA\23d-libs\geberit\waste_fitting\fur_badewannen\common_parts_893\893_735_parts\893_735_scheibe.prj},179 {VTYP=3D},{NB=893.735_scheibe},{LINA=893.735_scheibe},{NN=893.735 Scheibe},{DATE=18.06.2021 09:34:54},{GEOMDATE=18.06.2021 09:34:00},{VERS
100
AcDbAttributeDefinition
  3

  2
PSOL_0
 70
     9
  0
ATTDEF
  5
86
330
79
100
AcDbEntity
  8
ATTR
100
AcDbText
 10
-69.7650000000001
 20
39.32500000000001
 30
0.0
 40
0.5
  1
ION=},{LINEID=10},{WBVAR=},{WBNUMERIC=}  {NB=893.735_scheibe},{LINA=893.735_scheibe},{KT=DUMMY},{ARTNRT=893.735}
100
AcDbAttributeDefinition
  3

  2
PSOL_1
 70
     9
  0
LINE
  5
89
330
79
100
AcDbEntity
  8
VER
100
AcDbLine
 10
-84.04899999999999
 20
18.03053743641333
 30
0.0
 11
-84.04899999999999
 21
13.76453169220331
 31
0.0
  0
LINE
  5
8A
330
79
100
AcDbEntity
  8
VER
100
AcDbLine
 10
-84.04899999999999
 20
-14.49646256358667
 30
0.0
 11
-84.04899999999999
 21
-18.76246830779669
 31
0.0
  0
LINE
  5
8B
330
79
100
AcDbEntity
  8
VER
100
AcDbLine
 10
-77.989
 20
15.16673275839322
 30
0.0
 11
-77.989
 21
17.06397781138051
 31
0.0
  0
LINE
  5
8C
330
79
100
AcDbEntity
  8
VER
100
AcDbLine
 10
-77.989
 20
-17.06397781138831
 30
0.0
 11
-77.989
 21
-15.16673275839321
 31
0.0
  0
LWPOLYLINE
  5
8D
330
79
100
AcDbEntity
  8
VER
100
AcDbPolyline
 90
        8
 70
     0
 43
0.0
 10
-77.98899999999993
 20
-15.51374426928679
 10
-78.00068146272855
 20
-15.81542745579525
 10
-78.01111551581789
 20
-16.17219443223652
 10
-78.01892232642838
 20
-16.53928457994497
 10
-78.02322100825748
 20
-16.87519181840672
 10
-78.02353088164969
 20
-17.1420848584269
 10
-78.01982099173493
 20
-17.31000789564109
 10
-78.013310606619
 20
-17.3606913438179
  0
LINE
  5
8E
330
79
100
AcDbEntity
  8
VER
100
AcDbLine
 10
-77.989
 20
-15.16673275839321
 30
0.0
 11
-85.049
 21
-15.04349999999999
 31
0.0
  0
LINE
  5
8F
330
79
100
AcDbEntity
  8
VER
100
AcDbLine
 10
-85.049
 20
-17.48349999999999
 30
0.0
 11
-78.01309843324302
 21
-17.36068788132371
 31
0.0
  0
LWPOLYLINE
  5
90
330
79
100
AcDbEntity
  8
VER
100
AcDbPolyline
 90
        5
 70
     0
 43
0.0
 10
-78.013310606619
 20
-17.3606913438179
 10
-78.01250985620072
 20
-17.36013153550828
 10
-78.00241807498433
 20
-17.28677936282895
 10
-77.99067931295397
 20
-17.09809177156273
 10
-77.9889999999999
 20
-17.06397781138831
  0
LWPOLYLINE
  5
91
330
79
100
AcDbEntity
  8
VER
100
AcDbPolyline
 90
        3
 70
     0
 43
0.0
 10
-77.98899999999985
 20
17.06397781138051
 10
-78.0006814627286
 20
17.26478751223273
 10
-78.01111551581799
 20
17.3568474240997
  0
LINE
  5
92
330
79
100
AcDbEntity
  8
VER
100
AcDbLine
 10
-78.01283500746236
 20
17.36068328320961
 30
0.0
 11
-85.049
 21
17.48350000000001
 31
0.0
  0
LINE
  5
93
330
79
100
AcDbEntity
  8
VER
100
AcDbLine
 10
-85.049
 20
15.04350000000001
 30
0.0
 11
-77.989
 21
15.16673275839322
 31
0.0
  0
LWPOLYLINE
  5
94
330
79
100
AcDbEntity
  8
VER
100
AcDbPolyline
 90
        9
 70
     0
 43
0.0
 10
-78.01330406086575
 20
17.36069100712575
 10
-78.01892232642858
 20
17.32556741553567
 10
-78.02322100825769
 20
17.17456647515452
 10
-78.02353088165002
 20
16.92100248700057
 10
-78.0198209917355
 20
16.5934999682224
 10
-78.01250985620139
 20
16.22888817965663
 10
-78.00241807498506
 20
15.86813746027075
 10
-77.99067931295474
 20
15.5518685954342
 10
-77.98900000000005
 20
15.51374426927921
  0
ELLIPSE
  5
95
330
79
100
AcDbEntity
  8
VER
100
AcDbEllipse
 10
-84.44899999999997
 20
-14.93060371746341
 30
0.0
 11
-0.6000000000000369
 21
4.963383462721888E-14
 31
0.0
210
0.0
220
0.0
230
1.0
 40
0.7071067811866062
 41
4.712388980384913
 42
6.118878596483975
  0
ARC
  5
96
330
79
100
AcDbEntity
  8
VER
100
AcDbCircle
 10
-84.44900000000001
 20
-18.14850000000001
 30
0.0
 40
0.5999999999999873
100
AcDbArc
 50
189.4140810685627
 51
269.9999999999945
  0
ELLIPSE
  5
97
330
79
100
AcDbEntity
  8
VER
100
AcDbEllipse
 10
-84.44899999999997
 20
17.5963962825366
 30
0.0
 11
-0.6000000000000227
 21
4.297249647946652E-14
 31
0.0
210
0.0
220
0.0
230
1.0
 40
0.70710678118662
 41
4.712388980384906
 42
6.118878596483982
  0
ARC
  5
98
330
79
100
AcDbEntity
  8
VER
100
AcDbCircle
 10
-84.44900000000001
 20
14.3785
 30
0.0
 40
0.599999999999987
100
AcDbArc
 50
189.4140810685626
 51
269.9999999999945
  0
ELLIPSE
  5
99
330
79
100
AcDbEntity
  8
VER
100
AcDbEllipse
 10
-84.449
 20
14.93060371746333
 30
0.0
 11
0.5999999999999801
 21
-1.826579737777963E-14
 31
0.0
210
0.0
220
0.0
230
1.0
 40
0.7071067811865281
 41
3.305899364285358
 42
4.712388980384592
  0
ELLIPSE
  5
9A
330
79
100
AcDbEntity
  8
VER
100
AcDbEllipse
 10
-84.44900000000001
 20
-17.59639628253668
 30
0.0
 11
0.5999999999999659
 21
-1.826579737777920E-14
 31
0.0
210
0.0
220
0.0
230
1.0
 40
0.7071067811865211
 41
3.305899364285366
 42
4.712388980384616
  0
LINE
  5
9B
330
79
100
AcDbEntity
  8
VER
100
AcDbLine
 10
-84.44900000000007
 20
-18.02066035124857
 30
0.0
 11
-84.04899999999999
 21
-18.03053743641331
 31
0.0
  0
LINE
  5
9C
330
79
100
AcDbEntity
  8
VER
100
AcDbLine
 10
-84.44900000000007
 20
-14.50633964875142
 30
0.0
 11
-84.44900000000007
 21
-18.74849999999999
 31
0.0
  0
LINE
  5
9D
330
79
100
AcDbEntity
  8
VER
100
AcDbLine
 10
-84.44900000000007
 20
-14.50633964875142
 30
0.0
 11
-84.04899999999999
 21
-14.49646256358667
 31
0.0
  0
LINE
  5
9E
330
79
100
AcDbEntity
  8
VER
100
AcDbLine
 10
-84.44900000000007
 20
-18.74849999999999
 30
0.0
 11
-84.04899999999999
 21
-18.76246830779669
 31
0.0
  0
LINE
  5
9F
330
79
100
AcDbEntity
  8
VER
100
AcDbLine
 10
-84.44900000000007
 20
14.50633964875143
 30
0.0
 11
-84.04899999999999
 21
14.49646256358669
 31
0.0
  0
LINE
  5
A0
330
79
100
AcDbEntity
  8
VER
100
AcDbLine
 10
-84.44900000000007
 20
18.02066035124859
 30
0.0
 11
-84.44900000000007
 21
13.7785
 31
0.0
  0
LINE
  5
A1
330
79
100
AcDbEntity
  8
VER
100
AcDbLine
 10
-84.44900000000007
 20
18.02066035124859
 30
0.0
 11
-84.04899999999999
 21
18.03053743641333
 31
0.0
  0
LINE
  5
A2
330
79
100
AcDbEntity
  8
VER
100
AcDbLine
 10
-84.44900000000007
 20
13.7785
 30
0.0
 11
-84.04899999999999
 21
13.76453169220331
 31
0.0
  0
LINE
  5
A3
330
79
100
AcDbEntity
  8
VER
100
AcDbLine
 10
-85.049
 20
-18.24649999999999
 30
0.0
 11
-85.049
 21
-14.28049999999999
 31
0.0
  0
LINE
  5
A4
330
79
100
AcDbEntity
  8
VER
100
AcDbLine
 10
-85.0409191955963
 20
-14.86120751481284
 30
0.0
 11
-85.04091919559467
 21
-18.24664105096556
 31
0.0
  0
LINE
  5
A5
330
79
100
AcDbEntity
  8
VER
100
AcDbLine
 10
-84.04899999999999
 20
-17.67803534186971
 30
0.0
 11
-85.0409191955963
 21
-17.66579248518715
 31
0.0
  0
LINE
  5
A6
330
79
100
AcDbEntity
  8
VER
100
AcDbLine
 10
-85.0409191955963
 20
-14.86120751481284
 30
0.0
 11
-84.04899999999999
 21
-14.84896465813027
 31
0.0
  0
LINE
  5
A7
330
79
100
AcDbEntity
  8
VER
100
AcDbLine
 10
-85.049
 20
-18.24649999999999
 30
0.0
 11
-85.04091919559467
 21
-18.24664105096556
 31
0.0
  0
LINE
  5
A8
330
79
100
AcDbEntity
  8
VER
100
AcDbLine
 10
-84.04899999999999
 20
-18.26395506492821
 30
0.0
 11
-78.03906909377599
 21
-18.36885879911045
 31
0.0
  0
LINE
  5
A9
330
79
100
AcDbEntity
  8
VER
100
AcDbLine
 10
-77.94220442329247
 20
-14.15645042177699
 30
0.0
 11
-85.049
 21
-14.28049999999999
 31
0.0
  0
LWPOLYLINE
  5
AA
330
79
100
AcDbEntity
  8
VER
100
AcDbPolyline
 90
        3
 70
     0
 43
0.0
 10
-77.94683076024438
 20
-14.16927295336639
 10
-77.94626526354389
 20
-14.16694883516291
 10
-77.94119552230936
 20
-14.15643354854546
  0
LWPOLYLINE
  5
AB
330
79
100
AcDbEntity
  8
VER
100
AcDbPolyline
 90
       11
 70
     0
 43
0.0
 10
-78.03907894706606
 20
-18.36885860829021
 10
-78.03931404833239
 20
-18.3688287135979
 10
-78.05266283866058
 20
-18.24627953613275
 10
-78.05895097316146
 20
-17.90010434810249
 10
-78.05747789132558
 20
-17.36955915663652
 10
-78.04841595418567
 20
-16.71445951732261
 10
-78.03278513871193
 20
-16.00843657179468
 10
-78.01233976967738
 20
-15.33084841115107
 10
-77.98937836234597
 20
-14.75805889992051
 10
-77.9664907848782
 20
-14.3548556873242
 10
-77.94683076024438
 20
-14.16927295336639
  0
LINE
  5
AC
330
79
100
AcDbEntity
  8
VER
100
AcDbLine
 10
-85.049
 20
14.28050000000001
 30
0.0
 11
-85.049
 21
18.24650000000001
 31
0.0
  0
LINE
  5
AD
330
79
100
AcDbEntity
  8
VER
100
AcDbLine
 10
-85.0409191955963
 20
17.66579248518716
 30
0.0
 11
-85.04091919559467
 21
14.28035894903444
 31
0.0
  0
LINE
  5
AE
330
79
100
AcDbEntity
  8
VER
100
AcDbLine
 10
-84.04899999999999
 20
14.84896465813029
 30
0.0
 11
-85.0409191955963
 21
14.86120751481286
 31
0.0
  0
LINE
  5
AF
330
79
100
AcDbEntity
  8
VER
100
AcDbLine
 10
-85.0409191955963
 20
17.66579248518716
 30
0.0
 11
-84.04899999999999
 21
17.67803534186973
 31
0.0
  0
LINE
  5
B0
330
79
100
AcDbEntity
  8
VER
100
AcDbLine
 10
-85.049
 20
14.28050000000001
 30
0.0
 11
-85.04091919559467
 21
14.28035894903444
 31
0.0
  0
LINE
  5
B1
330
79
100
AcDbEntity
  8
VER
100
AcDbLine
 10
-84.04899999999999
 20
14.26304493507179
 30
0.0
 11
-77.94219269225363
 21
14.15645021701096
 31
0.0
  0
LINE
  5
B2
330
79
100
AcDbEntity
  8
VER
100
AcDbLine
 10
-78.0388831200811
 20
18.36886204529339
 30
0.0
 11
-85.049
 21
18.24650000000001
 31
0.0
  0
LWPOLYLINE
  5
B3
330
79
100
AcDbEntity
  8
VER
100
AcDbPolyline
 90
       11
 70
     0
 43
0.0
 10
-77.9463262108265
 20
14.16718912100675
 10
-77.95336268273533
 20
14.21009654839236
 10
-77.97485742406795
 20
14.48212994923181
 10
-77.99807947603058
 20
14.95508333933823
 10
-78.02040708319046
 20
15.57572727199265
 10
-78.03931404833276
 20
16.27392482396966
 10
-78.05266283866094
 20
16.97069298821465
 10
-78.05895097316181
 20
17.58735826880712
 10
-78.05747789132604
 20
18.05453766069698
 10
-78.04841595418603
 20
18.31982785190903
 10
-78.03904172514011
 20
18.3688588631275
  0
LINE
  5
B4
330
79
100
AcDbEntity
  8
VER
100
AcDbLine
 10
-77.94111958436062
 20
14.15643202188337
 30
0.0
 11
-77.9463262108265
 21
14.16718912100675
 31
0.0
  0
LWPOLYLINE
  5
B5
330
79
100
AcDbEntity
  8
VER
100
AcDbPolyline
 90
        6
 70
     0
 43
0.0
 10
-77.94632621082646
 20
-16.47524380986907
 10
-77.953362682735
 20
-16.73506278021358
 10
-77.97485742406764
 20
-17.38776737174371
 10
-77.99807947603026
 20
-17.91383169279221
 10
-78.02040708319012
 20
-18.25369498559322
 10
-78.02756442218929
 20
-18.32102026656676
  0
LINE
  5
B6
330
79
100
AcDbEntity
  8
VER
100
AcDbLine
 10
-77.92085690276215
 20
-14.77332747114685
 30
0.0
 11
-77.94632621082646
 21
-16.47524380986907
 31
0.0
  0
LINE
  5
B7
330
79
100
AcDbEntity
  8
VER
100
AcDbLine
 10
-78.03614423916041
 20
18.36534609942733
 30
0.0
 11
-78.03907894706644
 21
18.36885860829021
 31
0.0
  0
ARC
  5
B8
330
79
100
AcDbEntity
  8
VER
100
AcDbCircle
 10
-777.6090000003487
 20
-0.0000000000038423
 30
0.0
 40
700.0000000003486
100
AcDbArc
 50
357.7493217552681
 51
2.25067824473187
  0
ARC
  5
B9
330
79
100
AcDbEntity
  8
VER
100
AcDbCircle
 10
-76.3241075512966
 20
43.59311591821211
 30
0.0
 40
0.1999999999999973
100
AcDbArc
 50
36.81851495759587
 51
89.00000000003239
  0
ARC
  5
BA
330
79
100
AcDbEntity
  8
VER
100
AcDbCircle
 10
-76.3241075512966
 20
-43.59311591821209
 30
0.0
 40
0.1999999999999921
100
AcDbArc
 50
270.9999999999676
 51
323.1814850424041
  0
LINE
  5
BB
330
79
100
AcDbEntity
  8
VER
100
AcDbLine
 10
-78.149
 20
-43.825
 30
0.0
 11
-78.149
 21
43.82500000000001
 31
0.0
  0
LINE
  5
BC
330
79
100
AcDbEntity
  8
VER
100
AcDbLine
 10
-76.32061707000926
 20
-43.79308545724336
 30
0.0
 11
-76.32061707000926
 21
43.79308545724338
 31
0.0
  0
LINE
  5
BD
330
79
100
AcDbEntity
  8
VER
100
AcDbLine
 10
-76.32061707000926
 20
43.79308545724338
 30
0.0
 11
-78.149
 21
43.82500000000001
 31
0.0
  0
LINE
  5
BE
330
79
100
AcDbEntity
  8
VER
100
AcDbLine
 10
-78.149
 20
-43.825
 30
0.0
 11
-76.32061707000926
 21
-43.79308545724336
 31
0.0
  0
LINE
  5
C1
330
79
100
AcDbEntity
  8
MITTE
100
AcDbLine
 10
-76.754
 20
16.2635
 30
0.0
 11
-85.444
 21
16.2635
 31
0.0
  0
LINE
  5
C2
330
79
100
AcDbEntity
  8
MITTE
100
AcDbLine
 10
-76.754
 20
-16.2635
 30
0.0
 11
-85.444
 21
-16.2635
 31
0.0
  0
ARC
  5
C4
330
79
100
AcDbEntity
  8
050
100
AcDbCircle
 10
-774.7650000000939
 20
-0.0000000000013394
 30
0.0
 40
700.0000000000938
100
AcDbArc
 50
356.4285227568481
 51
3.571477243151931
  0
LINE
  5
C5
330
79
100
AcDbEntity
  8
050
100
AcDbLine
 10
-76.12449597871904
 20
-43.60557465382744
 30
0.0
 11
-76.12449597871904
 21
43.60557465382745
 31
0.0
  0
ARC
  5
C6
330
79
100
AcDbEntity
  8
050
100
AcDbCircle
 10
-76.32410755129635
 20
43.5931159182122
 30
0.0
 40
0.1999999999997379
100
AcDbArc
 50
3.571477243121209
 51
36.8185149576186
  0
ARC
  5
C7
330
79
100
AcDbEntity
  8
050
100
AcDbCircle
 10
-76.32410755129635
 20
-43.59311591821218
 30
0.0
 40
0.1999999999997372
100
AcDbArc
 50
323.1814850423814
 51
356.4285227568788
  0
ENDBLK
  5
7C
330
79
100
AcDbEntity
  8
0
100
AcDbBlockEnd
  0
BLOCK
  5
CA
330
C8
100
AcDbEntity
  8
0
100
AcDbBlockBegin
  2
2_893_735_mitnehmer_0_in_150300_4
 70
     2
 10
0.0
 20
0.0
 30
0.0
  3
2_893_735_mitnehmer_0_in_150300_4
  1

  0
ATTDEF
  5
CC
330
C8
100
AcDbEntity
  8
ATTR
100
AcDbText
 10
-72.864
 20
31.25000000000001
 30
0.0
 40
0.5
  1
893.735_mitnehmer
100
AcDbAttributeDefinition
  3

  2
NB
 70
     8
  0
ATTDEF
  5
CD
330
C8
100
AcDbEntity
  8
ATTR
100
AcDbText
 10
-72.864
 20
30.75000000000001
 30
0.0
 40
0.5
  1
893.735 Mitnehmer
100
AcDbAttributeDefinition
  3

  2
NN
 70
     8
  0
ATTDEF
  5
CE
330
C8
100
AcDbEntity
  8
ATTR
100
AcDbText
 10
-72.864
 20
30.25000000000001
 30
0.0
 40
0.5
  1

100
AcDbAttributeDefinition
  3

  2
NT
 70
     8
  0
ATTDEF
  5
CF
330
C8
100
AcDbEntity
  8
ATTR
100
AcDbText
 10
-72.864
 20
29.75000000000001
 30
0.0
 40
0.5
  1
$ARTNRT._mitnehmer
100
AcDbAttributeDefinition
  3

  2
NBSYN
 70
     8
  0
ATTDEF
  5
D0
330
C8
100
AcDbEntity
  8
ATTR
100
AcDbText
 10
-72.864
 20
29.25000000000001
 30
0.0
 40
0.5
  1
893.735_mitnehmer
100
AcDbAttributeDefinition
  3

  2
LINA
 70
     8
  0
ATTDEF
  5
D1
330
C8
100
AcDbEntity
  8
ATTR
100
AcDbText
 10
-72.864
 20
28.75000000000001
 30
0.0
 40
0.5
  1
GEBERIT
100
AcDbAttributeDefinition
  3

  2
CATALOG
 70
     8
  0
ATTDEF
  5
D2
330
C8
100
AcDbEntity
  8
ATTR
100
AcDbText
 10
-72.864
 20
28.25000000000001
 30
0.0
 40
0.5
  1
893.735
100
AcDbAttributeDefinition
  3

  2
ARTNRT
 70
     8
  0
ATTDEF
  5
D3
330
C8
100
AcDbEntity
  8
ATTR
100
AcDbText
 10
-72.864
 20
27.75000000000001
 30
0.0
 40
0.5
  1
geberit
100
AcDbAttributeDefinition
  3

  2
COMPANY
 70
     8
  0
ATTDEF
  5
D4
330
C8
100
AcDbEntity
  8
ATTR
100
AcDbText
 10
-72.864
 20
27.25000000000001
 30
0.0
 40
0.5
  1
{$CADENAS_DATA\23d-libs\geberit\waste_fitting\fur_badewannen\common_parts_893\893_735_parts\893_735_mitnehmer.prj},185 {VTYP=3D},{NB=893.735_mitnehmer},{LINA=893.735_mitnehmer},{NN=893.735 Mitnehmer},{DATE=19.07.2021 12:56:56},{GEOMDATE=19.07.2021 12:56:0
100
AcDbAttributeDefinition
  3

  2
PSOL_0
 70
     9
  0
ATTDEF
  5
D5
330
C8
100
AcDbEntity
  8
ATTR
100
AcDbText
 10
-72.864
 20
26.75000000000001
 30
0.0
 40
0.5
  1
0},{VERSION=},{LINEID=10},{WBVAR=},{WBNUMERIC=}  {NB=893.735_mitnehmer},{LINA=893.735_mitnehmer},{KT=DUMMY},{ARTNRT=893.735}
100
AcDbAttributeDefinition
  3

  2
PSOL_1
 70
     9
  0
LINE
  5
D6
330
C8
100
AcDbEntity
  8
VER
100
AcDbLine
 10
-78.149
 20
12.79687767094121
 30
0.0
 11
-80.149
 21
12.79687767094121
 31
0.0
  0
LINE
  5
D7
330
C8
100
AcDbEntity
  8
VER
100
AcDbLine
 10
-80.149
 20
12.76100000000001
 30
0.0
 11
-78.149
 21
12.76100000000001
 31
0.0
  0
LINE
  5
D8
330
C8
100
AcDbEntity
  8
VER
100
AcDbLine
 10
-78.149
 20
19.72912232905881
 30
0.0
 11
-80.11427657310084
 21
19.72912232905881
 31
0.0
  0
LINE
  5
D9
330
C8
100
AcDbEntity
  8
VER
100
AcDbLine
 10
-78.149
 20
19.76500000000001
 30
0.0
 11
-80.14250255048263
 21
19.76500000000001
 31
0.0
  0
LINE
  5
DA
330
C8
100
AcDbEntity
  8
VER
100
AcDbLine
 10
-80.3184620269012
 20
18.76717569445415
 30
0.0
 11
-78.149
 21
19.16595879300282
 31
0.0
  0
LINE
  5
DB
330
C8
100
AcDbEntity
  8
VER
100
AcDbLine
 10
-78.149
 20
13.36096977449828
 30
0.0
 11
-81.99096211695723
 21
14.07175936104299
 31
0.0
  0
LINE
  5
DC
330
C8
100
AcDbEntity
  8
VER
100
AcDbLine
 10
-80.47613033582755
 20
15.66979619182371
 30
0.0
 11
-78.149
 21
15.71000537587567
 31
0.0
  0
LINE
  5
DD
330
C8
100
AcDbEntity
  8
VER
100
AcDbLine
 10
-78.149
 20
16.81597800454521
 30
0.0
 11
-81.99109681803199
 21
16.88274849563088
 31
0.0
  0
LINE
  5
DE
330
C8
100
AcDbEntity
  8
VER
100
AcDbLine
 10
-93.35249048128746
 20
-5.292199313306895
 30
0.0
 11
-93.35249048128746
 21
5.292199313306909
 31
0.0
  0
LINE
  5
DF
330
C8
100
AcDbEntity
  8
VER
100
AcDbLine
 10
-78.149
 20
16.76300000000001
 30
0.0
 11
-80.15193035252098
 21
16.76300000000001
 31
0.0
  0
LINE
  5
E0
330
C8
100
AcDbEntity
  8
VER
100
AcDbLine
 10
-78.149
 20
15.76300000000001
 30
0.0
 11
-80.15119138110086
 21
15.76300000000001
 31
0.0
  0
LINE
  5
E1
330
C8
100
AcDbEntity
  8
VER
100
AcDbLine
 10
-78.149
 20
5.633013661890605
 30
0.0
 11
-80.149
 21
5.633013661890605
 31
0.0
  0
LINE
  5
E2
330
C8
100
AcDbEntity
  8
VER
100
AcDbLine
 10
-78.149
 20
5.48360169767125
 30
0.0
 11
-80.149
 21
5.48360169767125
 31
0.0
  0
LINE
  5
E3
330
C8
100
AcDbEntity
  8
VER
100
AcDbLine
 10
-78.149
 20
5.65485850552057
 30
0.0
 11
-80.149
 21
5.65485850552057
 31
0.0
  0
LINE
  5
E4
330
C8
100
AcDbEntity
  8
VER
100
AcDbLine
 10
-78.149
 20
-5.633013661890595
 30
0.0
 11
-80.149
 21
-5.633013661890595
 31
0.0
  0
LINE
  5
E5
330
C8
100
AcDbEntity
  8
VER
100
AcDbLine
 10
-78.149
 20
-5.483601697671234
 30
0.0
 11
-80.149
 21
-5.483601697671234
 31
0.0
  0
LINE
  5
E6
330
C8
100
AcDbEntity
  8
VER
100
AcDbLine
 10
-80.149
 20
-5.654858505520558
 30
0.0
 11
-78.149
 21
-5.654858505520558
 31
0.0
  0
LINE
  5
E7
330
C8
100
AcDbEntity
  8
VER
100
AcDbLine
 10
-90.349
 20
-4.574189521029568
 30
0.0
 11
-90.349
 21
4.574189521029581
 31
0.0
  0
LINE
  5
E8
330
C8
100
AcDbEntity
  8
VER
100
AcDbLine
 10
-93.449
 20
-4.719991982520875
 30
0.0
 11
-93.449
 21
4.719991982520886
 31
0.0
  0
LWPOLYLINE
  5
E9
330
C8
100
AcDbEntity
  8
VER
100
AcDbPolyline
 90
        7
 70
     0
 43
0.0
 10
-93.549
 20
5.217284944524531
 10
-93.54724808666226
 20
5.227180376337406
 10
-93.52732744604504
 20
5.251207647227576
 10
-93.4872991131558
 20
5.27140989489545
 10
-93.4316782810792
 20
5.28550887569325
 10
-93.36673833111983
 20
5.291915452329548
 10
-93.35249048128746
 20
5.292199313306909
  0
LINE
  5
EA
330
C8
100
AcDbEntity
  8
VER
100
AcDbLine
 10
-93.549
 20
-5.217284944524517
 30
0.0
 11
-93.549
 21
5.217284944524531
 31
0.0
  0
LWPOLYLINE
  5
EB
330
C8
100
AcDbEntity
  8
VER
100
AcDbPolyline
 90
        5
 70
     0
 43
0.0
 10
-93.449
 20
4.719991982520886
 10
-93.50054447571112
 20
4.735984984430042
 10
-93.5352025915838
 20
4.757533238502337
 10
-93.54886865711639
 20
4.782165453618515
 10
-93.549
 20
4.784880444739509
  0
LINE
  5
EC
330
C8
100
AcDbEntity
  8
VER
100
AcDbLine
 10
-90.85515637224721
 20
4.158950997150693
 30
0.0
 11
-93.449
 21
4.719991982520886
 31
0.0
  0
LINE
  5
ED
330
C8
100
AcDbEntity
  8
VER
100
AcDbLine
 10
-90.349
 20
4.574189521029581
 30
0.0
 11
-90.42412505823216
 21
4.250125719627957
 31
0.0
  0
LINE
  5
EE
330
C8
100
AcDbEntity
  8
VER
100
AcDbLine
 10
-80.149
 20
4.640890228578169
 30
0.0
 11
-90.349
 21
4.574189521029581
 31
0.0
  0
LINE
  5
EF
330
C8
100
AcDbEntity
  8
VER
100
AcDbLine
 10
-93.35249048128746
 20
5.292199313306909
 30
0.0
 11
-80.149
 21
5.378539055899243
 31
0.0
  0
LINE
  5
F0
330
C8
100
AcDbEntity
  8
VER
100
AcDbLine
 10
-90.349
 20
-4.574189521029568
 30
0.0
 11
-80.149
 21
-4.640890228578156
 31
0.0
  0
LINE
  5
F1
330
C8
100
AcDbEntity
  8
VER
100
AcDbLine
 10
-90.42412505823216
 20
-4.250125719627945
 30
0.0
 11
-90.349
 21
-4.574189521029568
 31
0.0
  0
LINE
  5
F2
330
C8
100
AcDbEntity
  8
VER
100
AcDbLine
 10
-93.449
 20
-4.719991982520875
 30
0.0
 11
-90.85515637224721
 21
-4.158950997150681
 31
0.0
  0
LWPOLYLINE
  5
F3
330
C8
100
AcDbEntity
  8
VER
100
AcDbPolyline
 90
        5
 70
     0
 43
0.0
 10
-93.549
 20
-4.784880444739496
 10
-93.5399995414394
 20
-4.76265619934502
 10
-93.509593238747
 20
-4.740222278556031
 10
-93.4610791384565
 20
-4.722824245456336
 10
-93.449
 20
-4.719991982520875
  0
LWPOLYLINE
  5
F4
330
C8
100
AcDbEntity
  8
VER
100
AcDbPolyline
 90
        6
 70
     0
 43
0.0
 10
-93.35249048128746
 20
-5.292199313306895
 10
-93.41829430960654
 20
-5.287569861652559
 10
-93.4764857084665
 20
-5.275015979210806
 10
-93.52030601271026
 20
-5.255953940363304
 10
-93.54481533497272
 20
-5.232531727680839
 10
-93.549
 20
-5.217284944524517
  0
LINE
  5
F5
330
C8
100
AcDbEntity
  8
VER
100
AcDbLine
 10
-80.149
 20
-5.378539055899229
 30
0.0
 11
-93.35249048128746
 21
-5.292199313306895
 31
0.0
  0
LINE
  5
F6
330
C8
100
AcDbEntity
  8
VER
100
AcDbLine
 10
-90.42412505823216
 20
-4.250125719627945
 30
0.0
 11
-90.42412505823216
 21
4.250125719627957
 31
0.0
  0
LWPOLYLINE
  5
F7
330
C8
100
AcDbEntity
  8
VER
100
AcDbPolyline
 90
        7
 70
     0
 43
0.0
 10
-90.42412505823216
 20
4.250125719627957
 10
-90.44857908669601
 20
4.214438102394021
 10
-90.50417749492547
 20
4.182965177710457
 10
-90.5844492086822
 20
4.160162232778074
 10
-90.68033708762299
 20
4.148600278087172
 10
-90.78102807306469
 20
4.149580550696291
 10
-90.85515637224721
 20
4.158950997150693
  0
LINE
  5
F8
330
C8
100
AcDbEntity
  8
VER
100
AcDbLine
 10
-90.85515637224721
 20
-4.158950997150681
 30
0.0
 11
-90.85515637224721
 21
4.158950997150693
 31
0.0
  0
LWPOLYLINE
  5
F9
330
C8
100
AcDbEntity
  8
VER
100
AcDbPolyline
 90
        7
 70
     0
 43
0.0
 10
-90.85515637224721
 20
-4.158950997150681
 10
-90.75878909978498
 20
-4.148260620836783
 10
-90.65818673076386
 20
-4.150112292264032
 10
-90.56489292628498
 20
-4.164333645419444
 10
-90.48942007105487
 20
-4.189321832574783
 10
-90.44027479706868
 20
-4.22226195278131
 10
-90.42412505823216
 20
-4.250125719627945
  0
LINE
  5
FA
330
C8
100
AcDbEntity
  8
VER
100
AcDbLine
 10
-78.149
 20
-4.815362957518577
 30
0.0
 11
-80.149
 21
-4.815362957518577
 31
0.0
  0
LINE
  5
FB
330
C8
100
AcDbEntity
  8
VER
100
AcDbLine
 10
-78.149
 20
4.815362957518589
 30
0.0
 11
-80.149
 21
4.815362957518589
 31
0.0
  0
LINE
  5
FC
330
C8
100
AcDbEntity
  8
VER
100
AcDbLine
 10
-78.149
 20
4.405056117619953
 30
0.0
 11
-80.149
 21
4.405056117619953
 31
0.0
  0
LINE
  5
FD
330
C8
100
AcDbEntity
  8
VER
100
AcDbLine
 10
-78.149
 20
-4.405056117619949
 30
0.0
 11
-80.149
 21
-4.405056117619949
 31
0.0
  0
LINE
  5
FE
330
C8
100
AcDbEntity
  8
VER
100
AcDbLine
 10
-96.14900000000002
 20
4.54952162160639
 30
0.0
 11
-78.149
 21
4.54952162160639
 31
0.0
  0
LINE
  5
FF
330
C8
100
AcDbEntity
  8
VER
100
AcDbLine
 10
-78.149
 20
6.151633369868306
 30
0.0
 11
-96.14900000000002
 21
6.151633369868306
 31
0.0
  0
LINE
  5
100
330
C8
100
AcDbEntity
  8
VER
100
AcDbLine
 10
-96.14900000000002
 20
-4.549521621606381
 30
0.0
 11
-78.149
 21
-4.549521621606381
 31
0.0
  0
LINE
  5
101
330
C8
100
AcDbEntity
  8
VER
100
AcDbLine
 10
-96.14900000000002
 20
-6.151633369868295
 30
0.0
 11
-78.149
 21
-6.151633369868295
 31
0.0
  0
LINE
  5
102
330
C8
100
AcDbEntity
  8
VER
100
AcDbLine
 10
-96.14900000000002
 20
6.991711759886374
 30
0.0
 11
-78.149
 21
6.991711759886374
 31
0.0
  0
LINE
  5
103
330
C8
100
AcDbEntity
  8
VER
100
AcDbLine
 10
-96.14900000000002
 20
5.938046018223171
 30
0.0
 11
-78.149
 21
5.938046018223171
 31
0.0
  0
LINE
  5
104
330
C8
100
AcDbEntity
  8
VER
100
AcDbLine
 10
-96.14900000000002
 20
-6.991711759886361
 30
0.0
 11
-78.149
 21
-6.991711759886361
 31
0.0
  0
LINE
  5
105
330
C8
100
AcDbEntity
  8
VER
100
AcDbLine
 10
-96.14900000000002
 20
-5.938046018223161
 30
0.0
 11
-78.149
 21
-5.938046018223161
 31
0.0
  0
LINE
  5
106
330
C8
100
AcDbEntity
  8
VER
100
AcDbLine
 10
-78.149
 20
-10.31833991094746
 30
0.0
 11
-80.149
 21
-10.31833991094746
 31
0.0
  0
LINE
  5
107
330
C8
100
AcDbEntity
  8
VER
100
AcDbLine
 10
-78.149
 20
10.31833991094747
 30
0.0
 11
-80.149
 21
10.31833991094747
 31
0.0
  0
LINE
  5
108
330
C8
100
AcDbEntity
  8
VER
100
AcDbLine
 10
-80.149
 20
8.774000000000006
 30
0.0
 11
-96.14900000000002
 21
8.774000000000006
 31
0.0
  0
LINE
  5
109
330
C8
100
AcDbEntity
  8
VER
100
AcDbLine
 10
-96.14900000000002
 20
-8.773999999999992
 30
0.0
 11
-80.149
 21
-8.773999999999992
 31
0.0
  0
LINE
  5
10A
330
C8
100
AcDbEntity
  8
VER
100
AcDbLine
 10
-78.149
 20
12.73707709894362
 30
0.0
 11
-80.149
 21
12.73707709894362
 31
0.0
  0
LINE
  5
10B
330
C8
100
AcDbEntity
  8
VER
100
AcDbLine
 10
-78.149
 20
12.47978981106893
 30
0.0
 11
-80.149
 21
12.47978981106893
 31
0.0
  0
LINE
  5
10C
330
C8
100
AcDbEntity
  8
VER
100
AcDbLine
 10
-78.149
 20
12.73803788078091
 30
0.0
 11
-80.149
 21
12.73803788078091
 31
0.0
  0
LINE
  5
10D
330
C8
100
AcDbEntity
  8
VER
100
AcDbLine
 10
-78.149
 20
-12.73707709894361
 30
0.0
 11
-80.149
 21
-12.73707709894361
 31
0.0
  0
LINE
  5
10E
330
C8
100
AcDbEntity
  8
VER
100
AcDbLine
 10
-78.149
 20
-12.47978981106892
 30
0.0
 11
-80.149
 21
-12.47978981106892
 31
0.0
  0
LINE
  5
10F
330
C8
100
AcDbEntity
  8
VER
100
AcDbLine
 10
-80.149
 20
-12.7380378807809
 30
0.0
 11
-78.149
 21
-12.7380378807809
 31
0.0
  0
LINE
  5
110
330
C8
100
AcDbEntity
  8
VER
100
AcDbLine
 10
-93.449
 20
12.84095789539045
 30
0.0
 11
-90.85515637224721
 21
11.35785257262865
 31
0.0
  0
LINE
  5
111
330
C8
100
AcDbEntity
  8
VER
100
AcDbLine
 10
-90.349
 20
12.45553078701767
 30
0.0
 11
-80.149
 21
12.63185333065283
 31
0.0
  0
LINE
  5
112
330
C8
100
AcDbEntity
  8
VER
100
AcDbLine
 10
-90.42412505823216
 20
11.59887189435932
 30
0.0
 11
-90.349
 21
12.45553078701767
 31
0.0
  0
LINE
  5
113
330
C8
100
AcDbEntity
  8
VER
100
AcDbLine
 10
-90.85515637224721
 20
-11.35785257262864
 30
0.0
 11
-93.449
 21
-12.84095789539044
 31
0.0
  0
LINE
  5
114
330
C8
100
AcDbEntity
  8
VER
100
AcDbLine
 10
-80.149
 20
-12.63185333065281
 30
0.0
 11
-90.349
 21
-12.45553078701766
 31
0.0
  0
LINE
  5
115
330
C8
100
AcDbEntity
  8
VER
100
AcDbLine
 10
-90.349
 20
-12.45553078701766
 30
0.0
 11
-90.42412505823216
 21
-11.59887189435931
 31
0.0
  0
LINE
  5
116
330
C8
100
AcDbEntity
  8
VER
100
AcDbLine
 10
-80.149
 20
25.3646583063916
 30
0.0
 11
-78.149
 21
25.3646583063916
 31
0.0
  0
LINE
  5
117
330
C8
100
AcDbEntity
  8
VER
100
AcDbLine
 10
-78.149
 20
25.55400000000001
 30
0.0
 11
-80.149
 21
25.55400000000001
 31
0.0
  0
LINE
  5
118
330
C8
100
AcDbEntity
  8
VER
100
AcDbLine
 10
-80.649
 20
-30.34868685106413
 30
0.0
 11
-80.649
 21
-28.35196784372532
 31
0.0
  0
LINE
  5
119
330
C8
100
AcDbEntity
  8
VER
100
AcDbLine
 10
-80.649
 20
28.35196784372533
 30
0.0
 11
-80.649
 21
30.34868685106414
 31
0.0
  0
LINE
  5
11A
330
C8
100
AcDbEntity
  8
VER
100
AcDbLine
 10
-80.149
 20
-25.36465830639158
 30
0.0
 11
-78.149
 21
-25.36465830639158
 31
0.0
  0
LINE
  5
11B
330
C8
100
AcDbEntity
  8
VER
100
AcDbLine
 10
-80.149
 20
-25.55399999999999
 30
0.0
 11
-78.149
 21
-25.55399999999999
 31
0.0
  0
LINE
  5
11C
330
C8
100
AcDbEntity
  8
VER
100
AcDbLine
 10
-80.149
 20
24.31056912180581
 30
0.0
 11
-85.37337386868103
 21
24.95204157326442
 31
0.0
  0
ARC
  5
11D
330
C8
100
AcDbEntity
  8
VER
100
AcDbCircle
 10
-85.34899999999999
 20
25.15055080359269
 30
0.0
 40
0.2000000000000171
100
AcDbArc
 50
180.000000000002
 51
262.9999999999976
  0
LINE
  5
11E
330
C8
100
AcDbEntity
  8
VER
100
AcDbLine
 10
-85.37337386868103
 20
24.95204157326442
 30
0.0
 11
-85.37337386868103
 21
24.75684054304822
 31
0.0
  0
LWPOLYLINE
  5
11F
330
C8
100
AcDbEntity
  8
VER
100
AcDbPolyline
 90
        7
 70
     0
 43
0.0
 10
-85.5490000000326
 20
24.95690246653907
 10
-85.54544587010022
 20
24.91907384875628
 10
-85.52165509923154
 20
24.85516939377842
 10
-85.47808306001717
 20
24.80294340635533
 10
-85.44262754124553
 20
24.77879023139234
 10
-85.3793168456469
 20
24.75766737263374
 10
-85.37337386868103
 20
24.75684054304822
  0
LINE
  5
120
330
C8
100
AcDbEntity
  8
VER
100
AcDbLine
 10
-85.37337386868103
 20
24.75684054304822
 30
0.0
 11
-80.149
 21
24.11017515544211
 31
0.0
  0
LINE
  5
121
330
C8
100
AcDbEntity
  8
VER
100
AcDbLine
 10
-80.149
 20
25.61082860570575
 30
0.0
 11
-85.549
 21
26.27862778221118
 31
0.0
  0
LINE
  5
122
330
C8
100
AcDbEntity
  8
VER
100
AcDbLine
 10
-80.149
 20
25.79956912180581
 30
0.0
 11
-85.549
 21
26.4626057506815
 31
0.0
  0
LINE
  5
123
330
C8
100
AcDbEntity
  8
VER
100
AcDbLine
 10
-85.549
 20
26.4626057506815
 30
0.0
 11
-85.5490000000326
 21
24.95690246653907
 31
0.0
  0
ARC
  5
124
330
C8
100
AcDbEntity
  8
VER
100
AcDbCircle
 10
-85.34899999999999
 20
-25.15055080359268
 30
0.0
 40
0.2000000000000065
100
AcDbArc
 50
97.00000000000247
 51
179.999999999998
  0
LINE
  5
125
330
C8
100
AcDbEntity
  8
VER
100
AcDbLine
 10
-85.549
 20
-26.46260575068148
 30
0.0
 11
-80.149
 21
-25.7995691218058
 31
0.0
  0
LINE
  5
126
330
C8
100
AcDbEntity
  8
VER
100
AcDbLine
 10
-85.37337386868103
 20
-24.7568405430482
 30
0.0
 11
-85.37337386868103
 21
-24.95204157326441
 31
0.0
  0
LINE
  5
127
330
C8
100
AcDbEntity
  8
VER
100
AcDbLine
 10
-85.37337386868103
 20
-24.95204157326441
 30
0.0
 11
-80.149
 21
-24.3105691218058
 31
0.0
  0
LINE
  5
128
330
C8
100
AcDbEntity
  8
VER
100
AcDbLine
 10
-85.549
 20
-24.9569024665341
 30
0.0
 11
-85.549
 21
-26.46260575068148
 31
0.0
  0
LINE
  5
129
330
C8
100
AcDbEntity
  8
VER
100
AcDbLine
 10
-85.549
 20
-26.27862778221117
 30
0.0
 11
-80.149
 21
-25.61082860570573
 31
0.0
  0
LINE
  5
12A
330
C8
100
AcDbEntity
  8
VER
100
AcDbLine
 10
-80.149
 20
-24.1101751554421
 30
0.0
 11
-85.37337386868103
 21
-24.7568405430482
 31
0.0
  0
LWPOLYLINE
  5
12B
330
C8
100
AcDbEntity
  8
VER
100
AcDbPolyline
 90
        7
 70
     0
 43
0.0
 10
-85.37337386868103
 20
-24.7568405430482
 10
-85.39004004511015
 20
-24.75962757103946
 10
-85.45201255042979
 20
-24.78413255320327
 10
-85.50260195306747
 20
-24.82781582134123
 10
-85.53624959265258
 20
-24.88608770258698
 10
-85.54895610278237
 20
-24.95267984611464
 10
-85.549
 20
-24.9569024665341
  0
LINE
  5
12C
330
C8
100
AcDbEntity
  8
VER
100
AcDbLine
 10
-96.14900000000002
 20
-3.495855879943177
 30
0.0
 11
-78.149
 21
-3.495855879943177
 31
0.0
  0
LINE
  5
12D
330
C8
100
AcDbEntity
  8
VER
100
AcDbLine
 10
-96.14900000000002
 20
-1.388524396616777
 30
0.0
 11
-78.149
 21
-1.388524396616777
 31
0.0
  0
LINE
  5
12E
330
C8
100
AcDbEntity
  8
VER
100
AcDbLine
 10
-96.14900000000002
 20
-2.124002840932014
 30
0.0
 11
-78.149
 21
-2.124002840932014
 31
0.0
  0
LINE
  5
12F
330
C8
100
AcDbEntity
  8
VER
100
AcDbLine
 10
-96.14900000000002
 20
2.124002840932027
 30
0.0
 11
-78.149
 21
2.124002840932027
 31
0.0
  0
LINE
  5
130
330
C8
100
AcDbEntity
  8
VER
100
AcDbLine
 10
-96.14900000000002
 20
2.475997159067986
 30
0.0
 11
-78.149
 21
2.475997159067986
 31
0.0
  0
LINE
  5
131
330
C8
100
AcDbEntity
  8
VER
100
AcDbLine
 10
-96.14900000000002
 20
3.49585587994319
 30
0.0
 11
-78.149
 21
3.49585587994319
 31
0.0
  0
LINE
  5
132
330
C8
100
AcDbEntity
  8
VER
100
AcDbLine
 10
-96.14900000000002
 20
-2.475997159067973
 30
0.0
 11
-78.149
 21
-2.475997159067973
 31
0.0
  0
LINE
  5
133
330
C8
100
AcDbEntity
  8
VER
100
AcDbLine
 10
-96.14900000000002
 20
1.38852439661679
 30
0.0
 11
-78.149
 21
1.38852439661679
 31
0.0
  0
LINE
  5
134
330
C8
100
AcDbEntity
  8
VER
100
AcDbLine
 10
-96.14900000000002
 20
-8.723706127470011
 30
0.0
 11
-80.149
 21
-8.723706127470011
 31
0.0
  0
LINE
  5
135
330
C8
100
AcDbEntity
  8
VER
100
AcDbLine
 10
-96.14900000000002
 20
8.723706127470022
 30
0.0
 11
-80.149
 21
8.723706127470022
 31
0.0
  0
LWPOLYLINE
  5
136
330
C8
100
AcDbEntity
  8
VER
100
AcDbPolyline
 90
        6
 70
     0
 43
0.0
 10
-80.149
 20
27.84892449681053
 10
-80.17449683995717
 20
28.00752421998357
 10
-80.2541582049987
 20
28.15756164952063
 10
-80.37872566212789
 20
28.27214848159378
 10
-80.53343717861678
 20
28.33834881629762
 10
-80.649
 20
28.35196784372533
  0
LINE
  5
137
330
C8
100
AcDbEntity
  8
VER
100
AcDbLine
 10
-80.649
 20
28.52148498258174
 30
0.0
 11
-80.6516179819157
 21
28.52147812870545
 31
0.0
  0
LWPOLYLINE
  5
138
330
C8
100
AcDbEntity
  8
VER
100
AcDbPolyline
 90
        7
 70
     0
 43
0.0
 10
-80.649
 20
-28.35196784372532
 10
-80.62729317458107
 20
-28.35149361661916
 10
-80.52487786103032
 20
-28.33622294499655
 10
-80.37190784405726
 20
-28.26766228667303
 10
-80.25022553328868
 20
-28.15240051330937
 10
-80.17299617900358
 20
-28.00290469097985
 10
-80.149
 20
-27.84892449681052
  0
LINE
  5
139
330
C8
100
AcDbEntity
  8
VER
100
AcDbLine
 10
-80.6516179819157
 20
-28.52147812870544
 30
0.0
 11
-80.649
 21
-28.52148498258172
 31
0.0
  0
ELLIPSE
  5
13A
330
C8
100
AcDbEntity
  8
VER
100
AcDbEllipse
 10
-80.64900000000002
 20
27.06667603564694
 30
0.0
 11
-0.5000000000000568
 21
2.493022809156371E-14
 31
0.0
210
0.0
220
0.0
230
1.0
 40
0.9659258262890558
 41
3.141592653589933
 42
4.717624968140682
  0
ELLIPSE
  5
13B
330
C8
100
AcDbEntity
  8
VER
100
AcDbEllipse
 10
-80.64900000000004
 20
-27.06667603564695
 30
0.0
 11
0.5000000000000426
 21
4.618527782440651E-14
 31
0.0
210
0.0
220
0.0
230
1.0
 40
0.9659258262890688
 41
4.707152992628712
 42
6.283185307179461
  0
LINE
  5
13C
330
C8
100
AcDbEntity
  8
VER
100
AcDbLine
 10
-96.14900000000002
 20
-3.549436575007356
 30
0.0
 11
-80.149
 21
-3.549436575007356
 31
0.0
  0
LINE
  5
13D
330
C8
100
AcDbEntity
  8
VER
100
AcDbLine
 10
-96.14900000000002
 20
8.774000000000006
 30
0.0
 11
-96.14900000000002
 21
-8.773999999999992
 31
0.0
  0
LINE
  5
13E
330
C8
100
AcDbEntity
  8
VER
100
AcDbLine
 10
-96.14900000000002
 20
-5.174269552462645
 30
0.0
 11
-80.149
 21
-5.174269552462644
 31
0.0
  0
LINE
  5
13F
330
C8
100
AcDbEntity
  8
VER
100
AcDbLine
 10
-96.14900000000002
 20
5.174269552462661
 30
0.0
 11
-80.149
 21
5.174269552462661
 31
0.0
  0
LINE
  5
140
330
C8
100
AcDbEntity
  8
VER
100
AcDbLine
 10
-96.14900000000002
 20
3.549436575007369
 30
0.0
 11
-80.149
 21
3.549436575007369
 31
0.0
  0
LINE
  5
141
330
C8
100
AcDbEntity
  8
VER
100
AcDbLine
 10
-78.149
 20
-9.977269885781507
 30
0.0
 11
-80.149
 21
-9.977269885781507
 31
0.0
  0
LINE
  5
142
330
C8
100
AcDbEntity
  8
VER
100
AcDbLine
 10
-78.149
 20
9.97726988413539
 30
0.0
 11
-80.149
 21
9.97726988413539
 31
0.0
  0
LINE
  5
143
330
C8
100
AcDbEntity
  8
VER
100
AcDbLine
 10
-78.149
 20
-5.502976953428877
 30
0.0
 11
-80.149
 21
-5.502976953428877
 31
0.0
  0
LINE
  5
144
330
C8
100
AcDbEntity
  8
VER
100
AcDbLine
 10
-78.149
 20
-5.572213766515432
 30
0.0
 11
-80.149
 21
-5.572213766515432
 31
0.0
  0
LINE
  5
145
330
C8
100
AcDbEntity
  8
VER
100
AcDbLine
 10
-78.149
 20
-5.439380179510896
 30
0.0
 11
-80.149
 21
-5.439380179510896
 31
0.0
  0
LINE
  5
146
330
C8
100
AcDbEntity
  8
VER
100
AcDbLine
 10
-78.149
 20
5.502976953428892
 30
0.0
 11
-80.149
 21
5.502976953428892
 31
0.0
  0
LINE
  5
147
330
C8
100
AcDbEntity
  8
VER
100
AcDbLine
 10
-78.149
 20
5.572213766515446
 30
0.0
 11
-80.149
 21
5.572213766515446
 31
0.0
  0
LINE
  5
148
330
C8
100
AcDbEntity
  8
VER
100
AcDbLine
 10
-80.149
 20
5.439380179510906
 30
0.0
 11
-78.149
 21
5.439380179510906
 31
0.0
  0
LINE
  5
149
330
C8
100
AcDbEntity
  8
VER
100
AcDbLine
 10
-90.85515637224721
 20
-7.198468234246914
 30
0.0
 11
-90.85515637224721
 21
-11.35785257262864
 31
0.0
  0
LINE
  5
14A
330
C8
100
AcDbEntity
  8
VER
100
AcDbLine
 10
-90.42412505823216
 20
-7.34831270442066
 30
0.0
 11
-90.42412505823216
 21
-11.59887189435931
 31
0.0
  0
LWPOLYLINE
  5
14B
330
C8
100
AcDbEntity
  8
VER
100
AcDbPolyline
 90
        7
 70
     0
 43
0.0
 10
-90.42412505823216
 20
-11.59887189435931
 10
-90.44857909006835
 20
-11.50453208456782
 10
-90.50417750840803
 20
-11.42133376638213
 10
-90.58444923428232
 20
-11.36105444677243
 10
-90.68033711678156
 20
-11.33049056257148
 10
-90.78102809368329
 20
-11.33308191003034
 10
-90.85515637224721
 20
-11.35785257262864
  0
LINE
  5
14C
330
C8
100
AcDbEntity
  8
VER
100
AcDbLine
 10
-90.85515637224721
 20
11.35785257262865
 30
0.0
 11
-90.85515637224721
 21
7.198468234246922
 31
0.0
  0
LINE
  5
14D
330
C8
100
AcDbEntity
  8
VER
100
AcDbLine
 10
-90.42412505823216
 20
11.59887189435932
 30
0.0
 11
-90.42412505823216
 21
7.348312704420668
 31
0.0
  0
LWPOLYLINE
  5
14E
330
C8
100
AcDbEntity
  8
VER
100
AcDbPolyline
 90
        7
 70
     0
 43
0.0
 10
-90.85515637224721
 20
11.35785257262865
 10
-90.7587891109078
 20
11.32959268803794
 10
-90.65818675157031
 20
11.33448755411837
 10
-90.56489295618844
 20
11.37208152258541
 10
-90.48942010096471
 20
11.43813748731402
 10
-90.44027481484066
 20
11.52521430030037
 10
-90.42412505823216
 20
11.59887189435932
  0
LINE
  5
14F
330
C8
100
AcDbEntity
  8
VER
100
AcDbLine
 10
-90.349
 20
-7.880907377248576
 30
0.0
 11
-90.349
 21
-12.45553078701766
 31
0.0
  0
LINE
  5
150
330
C8
100
AcDbEntity
  8
VER
100
AcDbLine
 10
-90.349
 20
12.45553078701767
 30
0.0
 11
-90.349
 21
7.880907377248584
 31
0.0
  0
LINE
  5
151
330
C8
100
AcDbEntity
  8
VER
100
AcDbLine
 10
-93.449
 20
12.84095789539045
 30
0.0
 11
-93.449
 21
8.120531854049956
 31
0.0
  0
LWPOLYLINE
  5
152
330
C8
100
AcDbEntity
  8
VER
100
AcDbPolyline
 90
        5
 70
     0
 43
0.0
 10
-93.54900000002269
 20
13.01248978860331
 10
-93.54692973989809
 20
12.98406484821951
 10
-93.52626921467376
 20
12.92077973152692
 10
-93.48561977938944
 20
12.86783564556988
 10
-93.449
 20
12.84095789539045
  0
LINE
  5
153
330
C8
100
AcDbEntity
  8
VER
100
AcDbLine
 10
-93.449
 20
-8.120531854049947
 30
0.0
 11
-93.449
 21
-12.84095789539044
 31
0.0
  0
LWPOLYLINE
  5
154
330
C8
100
AcDbEntity
  8
VER
100
AcDbPolyline
 90
        5
 70
     0
 43
0.0
 10
-93.449
 20
-12.84095789539044
 10
-93.50054447608136
 20
-12.88323520990964
 10
-93.53520259118433
 20
-12.94019776685472
 10
-93.54886865712939
 20
-13.00531274160124
 10
-93.549
 20
-13.01248978860658
  0
LINE
  5
155
330
C8
100
AcDbEntity
  8
VER
100
AcDbLine
 10
-78.149
 20
6.84677614917833
 30
0.0
 11
-80.149
 21
6.84677614917833
 31
0.0
  0
LINE
  5
156
330
C8
100
AcDbEntity
  8
VER
100
AcDbLine
 10
-78.149
 20
-6.846776149178317
 30
0.0
 11
-80.149
 21
-6.846776149178317
 31
0.0
  0
LINE
  5
157
330
C8
100
AcDbEntity
  8
VER
100
AcDbLine
 10
-78.149
 20
7.253475401272376
 30
0.0
 11
-80.149
 21
7.253475401272377
 31
0.0
  0
LINE
  5
158
330
C8
100
AcDbEntity
  8
VER
100
AcDbLine
 10
-78.149
 20
-7.253475375248764
 30
0.0
 11
-80.149
 21
-7.253475375248764
 31
0.0
  0
LINE
  5
159
330
C8
100
AcDbEntity
  8
VER
100
AcDbLine
 10
-93.549
 20
-8.227175212588755
 30
0.0
 11
-93.549
 21
-14.15554603163506
 31
0.0
  0
LWPOLYLINE
  5
15A
330
C8
100
AcDbEntity
  8
VER
100
AcDbPolyline
 90
        7
 70
     0
 43
0.0
 10
-93.549
 20
-14.15554603163506
 10
-93.54724808821129
 20
-14.18170447831898
 10
-93.52732744877487
 20
-14.24522029390036
 10
-93.4872991133631
 20
-14.29862470426446
 10
-93.43167827832227
 20
-14.33589519638852
 10
-93.36673832859485
 20
-14.35283090570565
 10
-93.35249048128746
 20
-14.35358128865331
  0
LINE
  5
15B
330
C8
100
AcDbEntity
  8
VER
100
AcDbLine
 10
-93.549
 20
14.15554603163508
 30
0.0
 11
-93.549
 21
8.227175212588763
 31
0.0
  0
LWPOLYLINE
  5
15C
330
C8
100
AcDbEntity
  8
VER
100
AcDbPolyline
 90
        6
 70
     0
 43
0.0
 10
-93.35249048128746
 20
14.35358128865333
 10
-93.41829430593263
 20
14.34134338874792
 10
-93.47648570150483
 20
14.30815735183866
 10
-93.52030600576954
 20
14.25776708098236
 10
-93.54481533203132
 20
14.19585073849798
 10
-93.549
 20
14.15554603163508
  0
LWPOLYLINE
  5
15D
330
C8
100
AcDbEntity
  8
VER
100
AcDbPolyline
 90
        7
 70
     0
 43
0.0
 10
-93.549
 20
8.937826517752775
 10
-93.54724807791034
 20
8.954089575380769
 10
-93.52732743062164
 20
8.993578069942217
 10
-93.48729911198454
 20
9.026780190987553
 10
-93.43167829665548
 20
9.049951682995609
 10
-93.36673834538557
 20
9.060480814453697
 10
-93.35249048128746
 20
9.060947337171575
  0
LWPOLYLINE
  5
15E
330
C8
100
AcDbEntity
  8
VER
100
AcDbPolyline
 90
        5
 70
     0
 43
0.0
 10
-93.449
 20
8.120531854049956
 10
-93.50054447350632
 20
8.146816146620324
 10
-93.53520259377756
 20
8.182230431832483
 10
-93.5488686570366
 20
8.22271315798821
 10
-93.549
 20
8.227175212588763
  0
LINE
  5
15F
330
C8
100
AcDbEntity
  8
VER
100
AcDbLine
 10
-90.85515637224721
 20
7.198468234246922
 30
0.0
 11
-93.449
 21
8.120531854049956
 31
0.0
  0
LWPOLYLINE
  5
160
330
C8
100
AcDbEntity
  8
VER
100
AcDbPolyline
 90
        6
 70
     0
 43
0.0
 10
-90.4488838496836
 20
7.289237187829904
 10
-90.50417741875886
 20
7.237935277157523
 10
-90.58444906405515
 20
7.200458930581457
 10
-90.68033692289232
 20
7.181456976974611
 10
-90.7810279565838
 20
7.183068013514383
 10
-90.85515637224721
 20
7.198468234246922
  0
LWPOLYLINE
  5
161
330
C8
100
AcDbEntity
  8
VER
100
AcDbPolyline
 90
        3
 70
     0
 43
0.0
 10
-90.42412505823216
 20
7.348312704420668
 10
-90.44857906764757
 20
7.289660595857822
 10
-90.4488838496836
 20
7.289237187829904
  0
LINE
  5
162
330
C8
100
AcDbEntity
  8
VER
100
AcDbLine
 10
-90.349
 20
7.880907377248584
 30
0.0
 11
-90.42412505823216
 21
7.348312704420668
 31
0.0
  0
LINE
  5
163
330
C8
100
AcDbEntity
  8
VER
100
AcDbLine
 10
-80.149
 20
7.990529134242308
 30
0.0
 11
-90.349
 21
7.880907377248584
 31
0.0
  0
LINE
  5
164
330
C8
100
AcDbEntity
  8
VER
100
AcDbLine
 10
-93.35249048128746
 20
14.35358128865333
 30
0.0
 11
-93.35249048128746
 21
9.060947337171575
 31
0.0
  0
LINE
  5
165
330
C8
100
AcDbEntity
  8
VER
100
AcDbLine
 10
-93.35249048128746
 20
9.060947337171575
 30
0.0
 11
-80.149
 21
9.202845616021877
 31
0.0
  0
LINE
  5
166
330
C8
100
AcDbEntity
  8
VER
100
AcDbLine
 10
-80.149
 20
14.58181938709341
 30
0.0
 11
-93.35249048128746
 21
14.35358128865333
 31
0.0
  0
LINE
  5
167
330
C8
100
AcDbEntity
  8
VER
100
AcDbLine
 10
-90.349
 20
-7.880907377248576
 30
0.0
 11
-80.149
 21
-7.990529134242299
 31
0.0
  0
LINE
  5
168
330
C8
100
AcDbEntity
  8
VER
100
AcDbLine
 10
-90.42412505823216
 20
-7.34831270442066
 30
0.0
 11
-90.349
 21
-7.880907377248576
 31
0.0
  0
LWPOLYLINE
  5
169
330
C8
100
AcDbEntity
  8
VER
100
AcDbPolyline
 90
        3
 70
     0
 43
0.0
 10
-90.44671650647648
 20
-7.292312812080746
 10
-90.44027469664834
 20
-7.302519139914028
 10
-90.42412505823216
 20
-7.348312704420662
  0
LWPOLYLINE
  5
16A
330
C8
100
AcDbEntity
  8
VER
100
AcDbPolyline
 90
        6
 70
     0
 43
0.0
 10
-90.85515637224721
 20
-7.198468234246914
 10
-90.75878903691087
 20
-7.180898735488795
 10
-90.65818661317874
 20
-7.183941954007177
 10
-90.56489275730672
 20
-7.207314611049236
 10
-90.48941990204757
 20
-7.248382435775079
 10
-90.44671650647648
 20
-7.292312812080746
  0
LINE
  5
16B
330
C8
100
AcDbEntity
  8
VER
100
AcDbLine
 10
-93.449
 20
-8.120531854049947
 30
0.0
 11
-90.85515637224721
 21
-7.198468234246914
 31
0.0
  0
LWPOLYLINE
  5
16C
330
C8
100
AcDbEntity
  8
VER
100
AcDbPolyline
 90
        5
 70
     0
 43
0.0
 10
-93.549
 20
-8.227175212588755
 10
-93.5399995501014
 20
-8.190649966258368
 10
-93.50959328029214
 20
-8.153780121389696
 10
-93.46107922374972
 20
-8.125186677496773
 10
-93.449
 20
-8.120531854049947
  0
LWPOLYLINE
  5
16D
330
C8
100
AcDbEntity
  8
VER
100
AcDbPolyline
 90
        6
 70
     0
 43
0.0
 10
-93.35249048128746
 20
-9.060947337171566
 10
-93.41829433036352
 20
-9.05333888705404
 10
-93.47648574779909
 20
-9.032706724331845
 10
-93.52030605192468
 20
-9.001378484023073
 10
-93.54481535159131
 20
-8.96288436405246
 10
-93.549
 20
-8.937826517752766
  0
LINE
  5
16E
330
C8
100
AcDbEntity
  8
VER
100
AcDbLine
 10
-80.149
 20
-9.202845616021868
 30
0.0
 11
-93.35249048128746
 21
-9.060947337171566
 31
0.0
  0
LINE
  5
16F
330
C8
100
AcDbEntity
  8
VER
100
AcDbLine
 10
-93.35249048128746
 20
-9.060947337171566
 30
0.0
 11
-93.35249048128746
 21
-14.35358128865331
 31
0.0
  0
LINE
  5
170
330
C8
100
AcDbEntity
  8
VER
100
AcDbLine
 10
-93.35249048128746
 20
-14.35358128865331
 30
0.0
 11
-80.149
 21
-14.5818193870934
 31
0.0
  0
LINE
  5
171
330
C8
100
AcDbEntity
  8
VER
100
AcDbLine
 10
-80.149
 20
16.76303716338535
 30
0.0
 11
-83.849
 21
16.82619686156483
 31
0.0
  0
LINE
  5
172
330
C8
100
AcDbEntity
  8
VER
100
AcDbLine
 10
-83.849
 20
15.69978553401816
 30
0.0
 11
-80.149
 21
15.762950307035
 31
0.0
  0
LINE
  5
173
330
C8
100
AcDbEntity
  8
VER
100
AcDbLine
 10
-83.849
 20
-13.46975311217974
 30
0.0
 11
-80.149
 21
-12.79740661910581
 31
0.0
  0
LINE
  5
174
330
C8
100
AcDbEntity
  8
VER
100
AcDbLine
 10
-80.149
 20
12.79740661910583
 30
0.0
 11
-83.849
 21
13.46975311217976
 31
0.0
  0
LINE
  5
175
330
C8
100
AcDbEntity
  8
VER
100
AcDbLine
 10
-83.849
 20
19.05717644078112
 30
0.0
 11
-80.15119138110083
 21
19.72912232905881
 31
0.0
  0
LINE
  5
176
330
C8
100
AcDbEntity
  8
VER
100
AcDbLine
 10
-80.15119138110084
 20
19.72912232905881
 30
0.0
 11
-80.15155966455517
 21
19.76480133839862
 31
0.0
  0
LINE
  5
177
330
C8
100
AcDbEntity
  8
VER
100
AcDbLine
 10
-80.15193035252098
 20
19.72912232905881
 30
0.0
 11
-80.149
 21
19.72912232905881
 31
0.0
  0
LINE
  5
178
330
C8
100
AcDbEntity
  8
VER
100
AcDbLine
 10
-80.15161479377709
 20
19.76480133881783
 30
0.0
 11
-80.15193035252098
 21
19.72912232905881
 31
0.0
  0
LINE
  5
179
330
C8
100
AcDbEntity
  8
VER
100
AcDbLine
 10
-80.15193035252099
 20
-19.72912232905879
 30
0.0
 11
-80.149
 21
-19.72912232905879
 31
0.0
  0
LINE
  5
17A
330
C8
100
AcDbEntity
  8
VER
100
AcDbLine
 10
-80.1515596645552
 20
-19.76480133839861
 30
0.0
 11
-80.15119138110086
 21
-19.72912232905879
 31
0.0
  0
LINE
  5
17B
330
C8
100
AcDbEntity
  8
VER
100
AcDbLine
 10
-80.15193035252098
 20
19.72912232905881
 30
0.0
 11
-83.849
 21
19.05736379713188
 31
0.0
  0
LINE
  5
17C
330
C8
100
AcDbEntity
  8
VER
100
AcDbLine
 10
-83.849
 20
13.46956572500988
 30
0.0
 11
-80.149
 21
12.7972732501638
 31
0.0
  0
LINE
  5
17D
330
C8
100
AcDbEntity
  8
VER
100
AcDbLine
 10
-83.849
 20
13.46956572500988
 30
0.0
 11
-83.849
 21
15.69987286250486
 31
0.0
  0
LINE
  5
17E
330
C8
100
AcDbEntity
  8
VER
100
AcDbLine
 10
-83.849
 20
16.82610953597349
 30
0.0
 11
-83.849
 21
19.05736379713188
 31
0.0
  0
LINE
  5
17F
330
C8
100
AcDbEntity
  8
VER
100
AcDbLine
 10
-80.149
 20
-16.85040555694131
 30
0.0
 11
-83.849
 21
-16.91591619818256
 31
0.0
  0
LINE
  5
180
330
C8
100
AcDbEntity
  8
VER
100
AcDbLine
 10
-83.849
 20
-18.10143232604342
 30
0.0
 11
-80.149
 21
-18.79874900738156
 31
0.0
  0
LINE
  5
181
330
C8
100
AcDbEntity
  8
VER
100
AcDbLine
 10
-80.149
 20
-13.72818320416924
 30
0.0
 11
-83.849
 21
-14.42551107331866
 31
0.0
  0
LINE
  5
182
330
C8
100
AcDbEntity
  8
VER
100
AcDbLine
 10
-80.149
 20
-15.67548656886348
 30
0.0
 11
-83.849
 21
-15.60996367873216
 31
0.0
  0
LINE
  5
183
330
C8
100
AcDbEntity
  8
VER
100
AcDbLine
 10
-80.149
 20
-18.79853300542275
 30
0.0
 11
-83.849
 21
-18.1010971490289
 31
0.0
  0
LINE
  5
184
330
C8
100
AcDbEntity
  8
VER
100
AcDbLine
 10
-80.149
 20
-18.86580502533889
 30
0.0
 11
-78.149
 21
-19.21823745777132
 31
0.0
  0
LINE
  5
185
330
C8
100
AcDbEntity
  8
VER
100
AcDbLine
 10
-78.149
 20
-13.30867447680985
 30
0.0
 11
-80.149
 21
-13.66110690924228
 31
0.0
  0
LINE
  5
186
330
C8
100
AcDbEntity
  8
VER
100
AcDbLine
 10
-80.149
 20
15.67557415037503
 30
0.0
 11
-83.849
 21
15.61005231302371
 31
0.0
  0
LINE
  5
187
330
C8
100
AcDbEntity
  8
VER
100
AcDbLine
 10
-80.149
 20
18.79874900738158
 30
0.0
 11
-83.849
 21
18.10143232604344
 31
0.0
  0
LINE
  5
188
330
C8
100
AcDbEntity
  8
VER
100
AcDbLine
 10
-80.149
 20
16.85049313519393
 30
0.0
 11
-83.849
 21
16.91600482749378
 31
0.0
  0
LINE
  5
189
330
C8
100
AcDbEntity
  8
VER
100
AcDbLine
 10
-80.149
 20
13.72839924081718
 30
0.0
 11
-83.849
 21
14.42584630334546
 31
0.0
  0
LINE
  5
18A
330
C8
100
AcDbEntity
  8
VER
100
AcDbLine
 10
-83.849
 20
14.42551107331868
 30
0.0
 11
-80.149
 21
13.72818320416926
 31
0.0
  0
LINE
  5
18B
330
C8
100
AcDbEntity
  8
VER
100
AcDbLine
 10
-80.149
 20
13.6611069092423
 30
0.0
 11
-78.149
 21
13.30867447680987
 31
0.0
  0
LINE
  5
18C
330
C8
100
AcDbEntity
  8
VER
100
AcDbLine
 10
-78.149
 20
19.21823745777134
 30
0.0
 11
-80.149
 21
18.86580502533891
 31
0.0
  0
LINE
  5
18D
330
C8
100
AcDbEntity
  8
VER
100
AcDbLine
 10
-83.849
 20
16.82610953597349
 30
0.0
 11
-80.15193035252098
 21
16.76300000000001
 31
0.0
  0
LINE
  5
18E
330
C8
100
AcDbEntity
  8
VER
100
AcDbLine
 10
-80.15119138110086
 20
15.76300000000001
 30
0.0
 11
-83.849
 21
15.69987286250486
 31
0.0
  0
LINE
  5
18F
330
C8
100
AcDbEntity
  8
VER
100
AcDbLine
 10
-80.15119138110083
 20
-15.76299999999999
 30
0.0
 11
-80.149
 21
-15.76299999999999
 31
0.0
  0
LINE
  5
190
330
C8
100
AcDbEntity
  8
VER
100
AcDbLine
 10
-80.151930352521
 20
-16.763
 30
0.0
 11
-80.149
 21
-16.763
 31
0.0
  0
LINE
  5
191
330
C8
100
AcDbEntity
  8
VER
100
AcDbLine
 10
-80.15193035252098
 20
16.76300000000001
 30
0.0
 11
-80.15119138110086
 21
15.76300000000001
 31
0.0
  0
LINE
  5
192
330
C8
100
AcDbEntity
  8
VER
100
AcDbLine
 10
-80.149
 20
-12.79727325016379
 30
0.0
 11
-83.849
 21
-13.46956572500986
 31
0.0
  0
LINE
  5
193
330
C8
100
AcDbEntity
  8
VER
100
AcDbLine
 10
-83.849
 20
-15.69987286250484
 30
0.0
 11
-83.849
 21
-13.46956572500986
 31
0.0
  0
LINE
  5
194
330
C8
100
AcDbEntity
  8
VER
100
AcDbLine
 10
-80.29903082536619
 20
-15.76049258255925
 30
0.0
 11
-80.15119138110083
 21
-15.76299999999999
 31
0.0
  0
LINE
  5
195
330
C8
100
AcDbEntity
  8
VER
100
AcDbLine
 10
-83.849
 20
-15.69987286250484
 30
0.0
 11
-80.149
 21
-15.76295030703499
 31
0.0
  0
LINE
  5
196
330
C8
100
AcDbEntity
  8
VER
100
AcDbLine
 10
-80.15119138110083
 20
-15.76299999999999
 30
0.0
 11
-80.151930352521
 21
-16.763
 31
0.0
  0
LINE
  5
197
330
C8
100
AcDbEntity
  8
VER
100
AcDbLine
 10
-80.151930352521
 20
-16.763
 30
0.0
 11
-83.849
 21
-16.82610953597347
 31
0.0
  0
LINE
  5
198
330
C8
100
AcDbEntity
  8
VER
100
AcDbLine
 10
-83.849
 20
-19.05736379713187
 30
0.0
 11
-83.849
 21
-16.82610953597347
 31
0.0
  0
LINE
  5
199
330
C8
100
AcDbEntity
  8
VER
100
AcDbLine
 10
-83.849
 20
-19.05736379713187
 30
0.0
 11
-80.15193035252099
 21
-19.72912232905879
 31
0.0
  0
LINE
  5
19A
330
C8
100
AcDbEntity
  8
VER
100
AcDbLine
 10
-80.15193035252099
 20
-19.72912232905879
 30
0.0
 11
-80.15161479377711
 21
-19.76480133881781
 31
0.0
  0
LINE
  5
19B
330
C8
100
AcDbEntity
  8
VER
100
AcDbLine
 10
-80.15119138110086
 20
-19.72912232905879
 30
0.0
 11
-83.849
 21
-19.05717644078111
 31
0.0
  0
LINE
  5
19C
330
C8
100
AcDbEntity
  8
VER
100
AcDbLine
 10
-83.849
 20
-16.82619686156482
 30
0.0
 11
-80.149
 21
-16.76303716338534
 31
0.0
  0
LINE
  5
19D
330
C8
100
AcDbEntity
  8
VER
100
AcDbLine
 10
-85.37337386868103
 20
3.115000000000012
 30
0.0
 11
-85.37337386868103
 21
-3.114999999999988
 31
0.0
  0
LINE
  5
19E
330
C8
100
AcDbEntity
  8
VER
100
AcDbLine
 10
-85.549
 20
3.115000000000016
 30
0.0
 11
-80.149
 21
3.115000000000012
 31
0.0
  0
LINE
  5
19F
330
C8
100
AcDbEntity
  8
VER
100
AcDbLine
 10
-85.549
 20
3.055254629277029
 30
0.0
 11
-85.549
 21
-3.055073566572474
 31
0.0
  0
LINE
  5
1A0
330
C8
100
AcDbEntity
  8
VER
100
AcDbLine
 10
-80.149
 20
-3.114999999999986
 30
0.0
 11
-85.549
 21
-3.114999999999988
 31
0.0
  0
LINE
  5
1A1
330
C8
100
AcDbEntity
  8
VER
100
AcDbLine
 10
-78.149
 20
-7.117523740319308
 30
0.0
 11
-80.149
 21
-7.117523740319308
 31
0.0
  0
LINE
  5
1A2
330
C8
100
AcDbEntity
  8
VER
100
AcDbLine
 10
-78.14938715591244
 20
-26.56296022294936
 30
0.0
 11
-80.149
 21
-26.56296022294936
 31
0.0
  0
LINE
  5
1A3
330
C8
100
AcDbEntity
  8
VER
100
AcDbLine
 10
-78.149
 20
7.117523740319326
 30
0.0
 11
-80.149
 21
7.117523740319326
 31
0.0
  0
LINE
  5
1A4
330
C8
100
AcDbEntity
  8
VER
100
AcDbLine
 10
-80.149
 20
-27.84892449681052
 30
0.0
 11
-80.149
 21
27.84892449681053
 31
0.0
  0
LINE
  5
1A5
330
C8
100
AcDbEntity
  8
VER
100
AcDbLine
 10
-78.1493871559131
 20
26.56296022294939
 30
0.0
 11
-80.149
 21
26.56296022294939
 31
0.0
  0
ELLIPSE
  5
1A6
330
C8
100
AcDbEntity
  8
VER
100
AcDbEllipse
 10
-80.649
 20
7.252493985546441
 30
0.0
 11
0.5
 21
-6.339713617815612E-15
 31
0.0
210
0.0
220
0.0
230
1.0
 40
0.2588190451025145
 41
0.0000000000000078
 42
1.576032314550873
  0
ELLIPSE
  5
1A7
330
C8
100
AcDbEntity
  8
VER
100
AcDbEllipse
 10
-80.64900000000002
 20
-7.252493985546412
 30
0.0
 11
-0.5000000000000142
 21
-5.045793573318496E-15
 31
0.0
210
0.0
220
0.0
230
1.0
 40
0.258819045102509
 41
1.565560339038949
 42
3.141592653589761
  0
LINE
  5
1A8
330
C8
100
AcDbEntity
  8
VER
100
AcDbLine
 10
-88.149
 20
7.371741389018807
 30
0.0
 11
-80.6516179819157
 21
7.381901734183986
 31
0.0
  0
LINE
  5
1A9
330
C8
100
AcDbEntity
  8
VER
100
AcDbLine
 10
-80.6516179819157
 20
-7.381901734183957
 30
0.0
 11
-88.149
 21
-7.371741389018784
 31
0.0
  0
LINE
  5
1AA
330
C8
100
AcDbEntity
  8
VER
100
AcDbLine
 10
-80.6516179819157
 20
27.54963232845541
 30
0.0
 11
-80.6516179819157
 21
28.52147812870545
 31
0.0
  0
LINE
  5
1AB
330
C8
100
AcDbEntity
  8
VER
100
AcDbLine
 10
-80.6516179819157
 20
27.54963232845541
 30
0.0
 11
-88.149
 21
27.51171340407653
 31
0.0
  0
LINE
  5
1AC
330
C8
100
AcDbEntity
  8
VER
100
AcDbLine
 10
-80.6516179819157
 20
-7.381901734183957
 30
0.0
 11
-80.6516179819157
 21
7.381901734183986
 31
0.0
  0
LINE
  5
1AD
330
C8
100
AcDbEntity
  8
VER
100
AcDbLine
 10
-88.149
 20
-27.51171340407651
 30
0.0
 11
-80.6516179819157
 21
-27.54963232845538
 31
0.0
  0
LINE
  5
1AE
330
C8
100
AcDbEntity
  8
VER
100
AcDbLine
 10
-92.01100000000001
 20
-28.462
 30
0.0
 11
-80.6516179819157
 21
-28.52147812870544
 31
0.0
  0
LINE
  5
1AF
330
C8
100
AcDbEntity
  8
VER
100
AcDbLine
 10
-80.6516179819157
 20
28.52147812870545
 30
0.0
 11
-92.01100000000001
 21
28.46200000000001
 31
0.0
  0
LINE
  5
1B0
330
C8
100
AcDbEntity
  8
VER
100
AcDbLine
 10
-80.6516179819157
 20
-28.52147812870544
 30
0.0
 11
-80.6516179819157
 21
-27.54963232845538
 31
0.0
  0
LINE
  5
1B1
330
C8
100
AcDbEntity
  8
VER
100
AcDbLine
 10
-88.149
 20
-29.35251258854417
 30
0.0
 11
-88.149
 21
-7.371741389018784
 31
0.0
  0
LINE
  5
1B2
330
C8
100
AcDbEntity
  8
VER
100
AcDbLine
 10
-88.149
 20
7.371741389018807
 30
0.0
 11
-88.149
 21
9.217679810274479
 31
0.0
  0
LINE
  5
1B3
330
C8
100
AcDbEntity
  8
VER
100
AcDbLine
 10
-92.01100000000001
 20
-28.462
 30
0.0
 11
-92.01100000000001
 21
28.46200000000001
 31
0.0
  0
LINE
  5
1B4
330
C8
100
AcDbEntity
  8
VER
100
AcDbLine
 10
-92.01100000000001
 20
28.46200000000001
 30
0.0
 11
-92.949
 21
29.40000000000001
 31
0.0
  0
LINE
  5
1B5
330
C8
100
AcDbEntity
  8
VER
100
AcDbLine
 10
-92.949
 20
-29.4
 30
0.0
 11
-92.01100000000001
 21
-28.462
 31
0.0
  0
LINE
  5
1B6
330
C8
100
AcDbEntity
  8
VER
100
AcDbLine
 10
-80.649
 20
30.18943140544308
 30
0.0
 11
-78.149
 21
30.17627223348987
 31
0.0
  0
LINE
  5
1B7
330
C8
100
AcDbEntity
  8
VER
100
AcDbLine
 10
-78.149
 20
-30.17627223348985
 30
0.0
 11
-80.649
 21
-30.18943140544307
 31
0.0
  0
LINE
  5
1B8
330
C8
100
AcDbEntity
  8
VER
100
AcDbLine
 10
-78.14899999999986
 20
-29.30193636835501
 30
0.0
 11
-88.149
 21
-29.35251258854417
 31
0.0
  0
LINE
  5
1B9
330
C8
100
AcDbEntity
  8
VER
100
AcDbLine
 10
-88.149
 20
-7.864982043924759
 30
0.0
 11
-78.14899999999986
 21
-7.851430186568857
 31
0.0
  0
LINE
  5
1BA
330
C8
100
AcDbEntity
  8
VER
100
AcDbLine
 10
-80.649
 20
-3.104999999999988
 30
0.0
 11
-78.149
 21
-3.104999999999988
 31
0.0
  0
LINE
  5
1BB
330
C8
100
AcDbEntity
  8
VER
100
AcDbLine
 10
-80.649
 20
3.105000000000013
 30
0.0
 11
-80.649
 21
-3.104999999999988
 31
0.0
  0
LINE
  5
1BC
330
C8
100
AcDbEntity
  8
VER
100
AcDbLine
 10
-78.149
 20
3.105000000000013
 30
0.0
 11
-80.649
 21
3.105000000000013
 31
0.0
  0
LINE
  5
1BD
330
C8
100
AcDbEntity
  8
VER
100
AcDbLine
 10
-78.14899999999986
 20
7.851430186568882
 30
0.0
 11
-88.149
 21
7.864982043924785
 31
0.0
  0
LINE
  5
1BE
330
C8
100
AcDbEntity
  8
VER
100
AcDbLine
 10
-88.149
 20
29.35251258854418
 30
0.0
 11
-88.149
 21
21.41025235735469
 31
0.0
  0
LINE
  5
1BF
330
C8
100
AcDbEntity
  8
VER
100
AcDbLine
 10
-88.149
 20
29.35251258854418
 30
0.0
 11
-78.14899999999986
 21
29.30193636835502
 31
0.0
  0
LINE
  5
1C0
330
C8
100
AcDbEntity
  8
VER
100
AcDbLine
 10
-80.649
 20
30.34868685106414
 30
0.0
 11
-90.449
 21
30.40000000000001
 31
0.0
  0
LINE
  5
1C1
330
C8
100
AcDbEntity
  8
VER
100
AcDbLine
 10
-90.449
 20
-30.39999999999999
 30
0.0
 11
-80.649
 21
-30.34868685106413
 31
0.0
  0
LINE
  5
1C2
330
C8
100
AcDbEntity
  8
VER
100
AcDbLine
 10
-92.949
 20
-30.17365886979041
 30
0.0
 11
-91.468
 21
-31.24966835376635
 31
0.0
  0
LINE
  5
1C3
330
C8
100
AcDbEntity
  8
VER
100
AcDbLine
 10
-91.468
 20
31.24966835376637
 30
0.0
 11
-92.949
 21
30.17365886979043
 31
0.0
  0
LINE
  5
1C4
330
C8
100
AcDbEntity
  8
VER
100
AcDbLine
 10
-92.949
 20
-30.17365886979041
 30
0.0
 11
-92.949
 21
30.17365886979043
 31
0.0
  0
LINE
  5
1C5
330
C8
100
AcDbEntity
  8
VER
100
AcDbLine
 10
-91.468
 20
-31.24966835376635
 30
0.0
 11
-91.449
 21
-31.24999999999999
 31
0.0
  0
LINE
  5
1C6
330
C8
100
AcDbEntity
  8
VER
100
AcDbLine
 10
-91.449
 20
31.25000000000001
 30
0.0
 11
-91.468
 21
31.24966835376637
 31
0.0
  0
LINE
  5
1C7
330
C8
100
AcDbEntity
  8
VER
100
AcDbLine
 10
-91.468
 20
-30.20271680211281
 30
0.0
 11
-91.468
 21
31.24966835376637
 31
0.0
  0
LINE
  5
1C8
330
C8
100
AcDbEntity
  8
VER
100
AcDbLine
 10
-91.468
 20
-31.24966835376635
 30
0.0
 11
-91.468
 21
-30.21726966771174
 31
0.0
  0
LINE
  5
1C9
330
C8
100
AcDbEntity
  8
VER
100
AcDbLine
 10
-90.449
 20
31.23254493507179
 30
0.0
 11
-91.449
 21
31.25000000000001
 31
0.0
  0
LINE
  5
1CA
330
C8
100
AcDbEntity
  8
VER
100
AcDbLine
 10
-91.449
 20
-31.24999999999999
 30
0.0
 11
-90.449
 21
-31.23254493507178
 31
0.0
  0
LINE
  5
1CB
330
C8
100
AcDbEntity
  8
VER
100
AcDbLine
 10
-91.449
 20
-30.20267420078896
 30
0.0
 11
-91.449
 21
31.25000000000001
 31
0.0
  0
LINE
  5
1CC
330
C8
100
AcDbEntity
  8
VER
100
AcDbLine
 10
-91.449
 20
-31.24999999999999
 30
0.0
 11
-91.449
 21
-30.21735514615522
 31
0.0
  0
LINE
  5
1CD
330
C8
100
AcDbEntity
  8
VER
100
AcDbLine
 10
-90.449
 20
-31.23254493507178
 30
0.0
 11
-90.449
 21
31.23254493507179
 31
0.0
  0
LINE
  5
1CE
330
C8
100
AcDbEntity
  8
MITTE
100
AcDbLine
 10
-77.864
 20
16.2634559672906
 30
0.0
 11
-84.134
 21
16.2634559672906
 31
0.0
  0
LINE
  5
1CF
330
C8
100
AcDbEntity
  8
MITTE
100
AcDbLine
 10
-77.864
 20
-16.26345596729059
 30
0.0
 11
-84.134
 21
-16.26345596729059
 31
0.0
  0
ENDBLK
  5
CB
330
C8
100
AcDbEntity
  8
0
100
AcDbBlockEnd
  0
BLOCK
  5
1D2
330
1D0
100
AcDbEntity
  8
0
100
AcDbBlockBegin
  2
3_893_735_metallrosette_0_in_150300_4
 70
     2
 10
0.0
 20
0.0
 30
0.0
  3
3_893_735_metallrosette_0_in_150300_4
  1

  0
ATTDEF
  5
1D4
330
1D0
100
AcDbEntity
  8
ATTR
100
AcDbText
 10
-71.16400000000002
 20
46.00000000000001
 30
0.0
 40
0.5
  1
893.735_metallrosette
100
AcDbAttributeDefinition
  3

  2
NB
 70
     8
  0
ATTDEF
  5
1D5
330
1D0
100
AcDbEntity
  8
ATTR
100
AcDbText
 10
-71.16400000000002
 20
45.50000000000001
 30
0.0
 40
0.5
  1
893.735 Metallrosette
100
AcDbAttributeDefinition
  3

  2
NN
 70
     8
  0
ATTDEF
  5
1D6
330
1D0
100
AcDbEntity
  8
ATTR
100
AcDbText
 10
-71.16400000000002
 20
45.00000000000001
 30
0.0
 40
0.5
  1

100
AcDbAttributeDefinition
  3

  2
NT
 70
     8
  0
ATTDEF
  5
1D7
330
1D0
100
AcDbEntity
  8
ATTR
100
AcDbText
 10
-71.16400000000002
 20
44.50000000000001
 30
0.0
 40
0.5
  1
$ARTNRT._metallrosette
100
AcDbAttributeDefinition
  3

  2
NBSYN
 70
     8
  0
ATTDEF
  5
1D8
330
1D0
100
AcDbEntity
  8
ATTR
100
AcDbText
 10
-71.16400000000002
 20
44.00000000000001
 30
0.0
 40
0.5
  1
893.735_metallrosette
100
AcDbAttributeDefinition
  3

  2
LINA
 70
     8
  0
ATTDEF
  5
1D9
330
1D0
100
AcDbEntity
  8
ATTR
100
AcDbText
 10
-71.16400000000002
 20
43.50000000000001
 30
0.0
 40
0.5
  1
GEBERIT
100
AcDbAttributeDefinition
  3

  2
CATALOG
 70
     8
  0
ATTDEF
  5
1DA
330
1D0
100
AcDbEntity
  8
ATTR
100
AcDbText
 10
-71.16400000000002
 20
43.00000000000001
 30
0.0
 40
0.5
  1
893.735
100
AcDbAttributeDefinition
  3

  2
ARTNRT
 70
     8
  0
ATTDEF
  5
1DB
330
1D0
100
AcDbEntity
  8
ATTR
100
AcDbText
 10
-71.16400000000002
 20
42.50000000000001
 30
0.0
 40
0.5
  1
geberit
100
AcDbAttributeDefinition
  3

  2
COMPANY
 70
     8
  0
ATTDEF
  5
1DC
330
1D0
100
AcDbEntity
  8
ATTR
100
AcDbText
 10
-71.16400000000002
 20
42.00000000000001
 30
0.0
 40
0.5
  1
{$CADENAS_DATA\23d-libs\geberit\waste_fitting\fur_badewannen\common_parts_893\893_735_parts\893_735_metallrosette.prj},197 {VTYP=3D},{NB=893.735_metallrosette},{LINA=893.735_metallrosette},{NN=893.735 Metallrosette},{DATE=18.06.2021 06:30:38},{GEOMDATE=18
100
AcDbAttributeDefinition
  3

  2
PSOL_0
 70
     9
  0
ATTDEF
  5
1DD
330
1D0
100
AcDbEntity
  8
ATTR
100
AcDbText
 10
-71.16400000000002
 20
41.50000000000001
 30
0.0
 40
0.5
  1
.06.2021 06:30:00},{VERSION=},{LINEID=10},{WBVAR=},{WBNUMERIC=}  {NB=893.735_metallrosette},{LINA=893.735_metallrosette},{KT=DUMMY},{ARTNRT=893.735}
100
AcDbAttributeDefinition
  3

  2
PSOL_1
 70
     9
  0
LINE
  5
1DE
330
1D0
100
AcDbEntity
  8
VER
100
AcDbLine
 10
-85.649
 20
26.55102816633112
 30
0.0
 11
-85.649
 21
25.81989494556476
 31
0.0
  0
LWPOLYLINE
  5
1DF
330
1D0
100
AcDbEntity
  8
VER
100
AcDbPolyline
 90
        4
 70
     0
 43
0.0
 10
-86.53980892972027
 20
25.81989494556476
 10
-86.62493658844988
 20
25.83231221923973
 10
-86.68187343675649
 20
25.85591376198026
 10
-86.73264521262611
 20
25.89056986347689
  0
ARC
  5
1E0
330
1D0
100
AcDbEntity
  8
VER
100
AcDbCircle
 10
-86.53980892972017
 20
26.30000000000003
 30
0.0
 40
0.300000000000006
100
AcDbArc
 50
230.0000000000055
 51
270.0000000000055
  0
LINE
  5
1E1
330
1D0
100
AcDbEntity
  8
VER
100
AcDbLine
 10
-86.73264521262611
 20
25.89056986347689
 30
0.0
 11
-86.73264521262611
 21
26.07018666706431
 31
0.0
  0
LINE
  5
1E2
330
1D0
100
AcDbEntity
  8
VER
100
AcDbLine
 10
-86.73264521262611
 20
25.89056986347689
 30
0.0
 11
-88.04183628290596
 21
26.99642158667914
 31
0.0
  0
LINE
  5
1E3
330
1D0
100
AcDbEntity
  8
VER
100
AcDbLine
 10
-86.73264521262611
 20
26.07018666706431
 30
0.0
 11
-88.04183628290596
 21
27.16872841127673
 31
0.0
  0
LINE
  5
1E4
330
1D0
100
AcDbEntity
  8
VER
100
AcDbLine
 10
-88.04183628290596
 20
26.99642158667914
 30
0.0
 11
-88.04183628290596
 21
27.16872841127673
 31
0.0
  0
LWPOLYLINE
  5
1E5
330
1D0
100
AcDbEntity
  8
VER
100
AcDbPolyline
 90
        4
 70
     0
 43
0.0
 10
-88.04183628290596
 20
26.99642158667914
 10
-88.10006301225224
 20
27.0624351440178
 10
-88.1402680136041
 20
27.15538359608946
 10
-88.149
 20
27.22768930168976
  0
ARC
  5
1E6
330
1D0
100
AcDbEntity
  8
VER
100
AcDbCircle
 10
-87.849
 20
27.39854174421242
 30
0.0
 40
0.2999999999999972
100
AcDbArc
 50
179.9999999999994
 51
230.0000000000003
  0
LINE
  5
1E7
330
1D0
100
AcDbEntity
  8
VER
100
AcDbLine
 10
-85.649
 20
25.81989494556476
 30
0.0
 11
-86.53980892972027
 21
25.81989494556476
 31
0.0
  0
LINE
  5
1E8
330
1D0
100
AcDbEntity
  8
VER
100
AcDbLine
 10
-86.53980892972027
 20
25.81989494556476
 30
0.0
 11
-86.53980892972014
 21
26.00000000000001
 31
0.0
  0
LINE
  5
1E9
330
1D0
100
AcDbEntity
  8
VER
100
AcDbLine
 10
-85.649
 20
26.00000000000001
 30
0.0
 11
-86.53980892972027
 21
26.00000000000001
 31
0.0
  0
LINE
  5
1EA
330
1D0
100
AcDbEntity
  8
VER
100
AcDbLine
 10
-78.299
 20
26.45217115852687
 30
0.0
 11
-85.649
 21
26.37468619129541
 31
0.0
  0
LINE
  5
1EB
330
1D0
100
AcDbEntity
  8
VER
100
AcDbLine
 10
-78.299
 20
26.62800000000001
 30
0.0
 11
-85.649
 21
26.55102816633112
 31
0.0
  0
LWPOLYLINE
  5
1EC
330
1D0
100
AcDbEntity
  8
VER
100
AcDbPolyline
 90
        7
 70
     0
 43
0.0
 10
-88.14900000003958
 20
27.85393825675863
 10
-88.14576821507407
 20
27.89811732738243
 10
-88.11419368833
 20
27.9950331321335
 10
-88.05233538454527
 20
28.0758287471504
 10
-87.96752441620539
 20
28.13116853280965
 10
-87.86969981811845
 20
28.15499888199018
 10
-87.85214153523488
 20
28.15570152231848
  0
ARC
  5
1ED
330
1D0
100
AcDbEntity
  8
VER
100
AcDbCircle
 10
-87.849
 20
28.02097252792976
 30
0.0
 40
0.2999999999999959
100
AcDbArc
 50
90.60000000000015
 51
180.0000000000014
  0
LINE
  5
1EE
330
1D0
100
AcDbEntity
  8
VER
100
AcDbLine
 10
-87.85214153523488
 20
28.15570152231848
 30
0.0
 11
-87.85214153523488
 21
28.32095607873941
 31
0.0
  0
LINE
  5
1EF
330
1D0
100
AcDbEntity
  8
VER
100
AcDbLine
 10
-87.85214153523488
 20
28.15570152231848
 30
0.0
 11
-80.29899999999999
 21
28.2352636803279
 31
0.0
  0
LINE
  5
1F0
330
1D0
100
AcDbEntity
  8
VER
100
AcDbLine
 10
-80.29899999999999
 20
28.40005528335541
 30
0.0
 11
-87.85214153523488
 21
28.32095607873941
 31
0.0
  0
ARC
  5
1F1
330
1D0
100
AcDbEntity
  8
VER
100
AcDbCircle
 10
-87.849
 20
-27.39854174421241
 30
0.0
 40
0.2999999999999961
100
AcDbArc
 50
129.9999999999997
 51
180.0000000000007
  0
LINE
  5
1F2
330
1D0
100
AcDbEntity
  8
VER
100
AcDbLine
 10
-85.649
 20
-26.55102816633111
 30
0.0
 11
-78.29899999999998
 21
-26.628
 31
0.0
  0
LINE
  5
1F3
330
1D0
100
AcDbEntity
  8
VER
100
AcDbLine
 10
-85.649
 20
-26.55102816633111
 30
0.0
 11
-85.649
 21
-25.81989494556474
 31
0.0
  0
LINE
  5
1F4
330
1D0
100
AcDbEntity
  8
VER
100
AcDbLine
 10
-87.85214153523488
 20
-28.3209560787394
 30
0.0
 11
-80.29899999999999
 21
-28.4000552833554
 31
0.0
  0
LINE
  5
1F5
330
1D0
100
AcDbEntity
  8
VER
100
AcDbLine
 10
-87.94813447714826
 20
-26.91729313417888
 30
0.0
 11
-88.04183628290598
 21
-26.99642158667911
 31
0.0
  0
LINE
  5
1F6
330
1D0
100
AcDbEntity
  8
VER
100
AcDbLine
 10
-88.04183628290596
 20
-27.16872841127671
 30
0.0
 11
-86.73264521262611
 21
-26.0701866670643
 31
0.0
  0
LINE
  5
1F7
330
1D0
100
AcDbEntity
  8
VER
100
AcDbLine
 10
-88.04183628290596
 20
-27.16872841127671
 30
0.0
 11
-88.04183628292324
 21
-26.99642158666418
 31
0.0
  0
LINE
  5
1F8
330
1D0
100
AcDbEntity
  8
VER
100
AcDbLine
 10
-86.53980892971954
 20
-26.0
 30
0.0
 11
-85.649
 21
-26.0
 31
0.0
  0
ARC
  5
1F9
330
1D0
100
AcDbEntity
  8
VER
100
AcDbCircle
 10
-87.849
 20
-28.02097252792975
 30
0.0
 40
0.2999999999999972
100
AcDbArc
 50
179.9999999999987
 51
269.3999999999999
  0
LINE
  5
1FA
330
1D0
100
AcDbEntity
  8
VER
100
AcDbLine
 10
-87.85214153523488
 20
-28.3209560787394
 30
0.0
 11
-87.85214153523488
 21
-28.15570152231846
 31
0.0
  0
ARC
  5
1FB
330
1D0
100
AcDbEntity
  8
VER
100
AcDbCircle
 10
-86.53980892972017
 20
-26.30000000000001
 30
0.0
 40
0.3000000000000185
100
AcDbArc
 50
89.99999999999459
 51
129.9999999999946
  0
LINE
  5
1FC
330
1D0
100
AcDbEntity
  8
VER
100
AcDbLine
 10
-86.73264521262611
 20
-26.0701866670643
 30
0.0
 11
-86.73264521262611
 21
-25.89056986347688
 31
0.0
  0
LINE
  5
1FD
330
1D0
100
AcDbEntity
  8
VER
100
AcDbLine
 10
-86.53980892972014
 20
-26.0
 30
0.0
 11
-86.53980892972014
 21
-25.81989494556474
 31
0.0
  0
LINE
  5
1FE
330
1D0
100
AcDbEntity
  8
VER
100
AcDbLine
 10
-85.649
 20
-26.37468619129539
 30
0.0
 11
-78.29899999999998
 21
-26.45217115852684
 31
0.0
  0
LINE
  5
1FF
330
1D0
100
AcDbEntity
  8
VER
100
AcDbLine
 10
-85.649
 20
-25.81989494556474
 30
0.0
 11
-86.53980892972014
 21
-25.81989494556474
 31
0.0
  0
LWPOLYLINE
  5
200
330
1D0
100
AcDbEntity
  8
VER
100
AcDbPolyline
 90
        4
 70
     0
 43
0.0
 10
-86.73264521262611
 20
-25.89056986347688
 10
-86.71199904481833
 20
-25.87460964918144
 10
-86.62150318981352
 20
-25.83131147912127
 10
-86.53980892972014
 20
-25.81989494556474
  0
LINE
  5
201
330
1D0
100
AcDbEntity
  8
VER
100
AcDbLine
 10
-88.04183628292324
 20
-26.99642158666418
 30
0.0
 11
-86.73264521262611
 21
-25.89056986347688
 31
0.0
  0
LWPOLYLINE
  5
202
330
1D0
100
AcDbEntity
  8
VER
100
AcDbPolyline
 90
        5
 70
     0
 43
0.0
 10
-88.149
 20
-27.22768930168974
 10
-88.1485200226376
 20
-27.2106194173084
 10
-88.12577982930804
 20
-27.11123219534297
 10
-88.07138339558145
 20
-27.02505689381582
 10
-88.04183628292324
 20
-26.99642158666418
  0
LWPOLYLINE
  5
203
330
1D0
100
AcDbEntity
  8
VER
100
AcDbPolyline
 90
        7
 70
     0
 43
0.0
 10
-87.85214153523488
 20
-28.15570152231846
 10
-87.89838365890651
 20
-28.1516015540751
 10
-87.95809826135095
 20
-28.13505684437503
 10
-88.04435911851718
 20
-28.08296506451052
 10
-88.10853952863104
 20
-28.00529908660769
 10
-88.14369681621838
 20
-27.91043293203152
 10
-88.149
 20
-27.85393825675273
  0
LINE
  5
204
330
1D0
100
AcDbEntity
  8
VER
100
AcDbLine
 10
-80.29899999999999
 20
-28.23526368032788
 30
0.0
 11
-87.85214153523488
 21
-28.15570152231846
 31
0.0
  0
LINE
  5
205
330
1D0
100
AcDbEntity
  8
VER
100
AcDbLine
 10
-78.299
 20
30.36152347833719
 30
0.0
 11
-80.29899999999999
 21
30.36152347833719
 31
0.0
  0
LINE
  5
206
330
1D0
100
AcDbEntity
  8
VER
100
AcDbLine
 10
-78.299
 20
30.06337431161047
 30
0.0
 11
-80.29899999999999
 21
30.06337431161047
 31
0.0
  0
LINE
  5
207
330
1D0
100
AcDbEntity
  8
VER
100
AcDbLine
 10
-78.299
 20
30.36337431161048
 30
0.0
 11
-80.29899999999999
 21
30.36337431161048
 31
0.0
  0
LINE
  5
208
330
1D0
100
AcDbEntity
  8
VER
100
AcDbLine
 10
-78.299
 20
-30.36152347833718
 30
0.0
 11
-80.29899999999999
 21
-30.36152347833718
 31
0.0
  0
LINE
  5
209
330
1D0
100
AcDbEntity
  8
VER
100
AcDbLine
 10
-78.299
 20
-30.06337431161046
 30
0.0
 11
-80.29899999999999
 21
-30.06337431161046
 31
0.0
  0
LINE
  5
20A
330
1D0
100
AcDbEntity
  8
VER
100
AcDbLine
 10
-80.29899999999999
 20
-30.36337431161046
 30
0.0
 11
-78.299
 21
-30.36337431161046
 31
0.0
  0
LINE
  5
20B
330
1D0
100
AcDbEntity
  8
VER
100
AcDbLine
 10
-86.53980892971954
 20
-3.054999999999983
 30
0.0
 11
-86.53980892972014
 21
3.055000000000013
 31
0.0
  0
LINE
  5
20C
330
1D0
100
AcDbEntity
  8
VER
100
AcDbLine
 10
-86.73264521262611
 20
-3.054999999999987
 30
0.0
 11
-86.73264521262611
 21
3.055000000000013
 31
0.0
  0
LINE
  5
20D
330
1D0
100
AcDbEntity
  8
VER
100
AcDbLine
 10
-85.649
 20
-3.054999999999987
 30
0.0
 11
-85.649
 21
3.055000000000013
 31
0.0
  0
LINE
  5
20E
330
1D0
100
AcDbEntity
  8
VER
100
AcDbLine
 10
-88.04183628290598
 20
-3.054999999999987
 30
0.0
 11
-88.04183628292324
 21
3.055000000000013
 31
0.0
  0
LINE
  5
20F
330
1D0
100
AcDbEntity
  8
VER
100
AcDbLine
 10
-88.149
 20
-3.054999999999987
 30
0.0
 11
-78.299
 21
-3.054999999999987
 31
0.0
  0
LINE
  5
210
330
1D0
100
AcDbEntity
  8
VER
100
AcDbLine
 10
-88.149
 20
-3.054999999999987
 30
0.0
 11
-88.149
 21
3.055000000000013
 31
0.0
  0
LINE
  5
211
330
1D0
100
AcDbEntity
  8
VER
100
AcDbLine
 10
-87.85214153523488
 20
-3.054999999999987
 30
0.0
 11
-87.85214153523488
 21
3.055000000000013
 31
0.0
  0
LINE
  5
212
330
1D0
100
AcDbEntity
  8
VER
100
AcDbLine
 10
-78.299
 20
3.38827272727274
 30
0.0
 11
-80.29899999999999
 21
3.38827272727274
 31
0.0
  0
LINE
  5
213
330
1D0
100
AcDbEntity
  8
VER
100
AcDbLine
 10
-78.299
 20
3.055000000000014
 30
0.0
 11
-88.149
 21
3.055000000000013
 31
0.0
  0
LINE
  5
214
330
1D0
100
AcDbEntity
  8
VER
100
AcDbLine
 10
-78.299
 20
-3.388272727272715
 30
0.0
 11
-80.29899999999999
 21
-3.388272727272715
 31
0.0
  0
LINE
  5
215
330
1D0
100
AcDbEntity
  8
VER
100
AcDbLine
 10
-78.299
 20
-40.73999999999999
 30
0.0
 11
-78.299
 21
40.74000000000001
 31
0.0
  0
ARC
  5
216
330
1D0
100
AcDbEntity
  8
VER
100
AcDbCircle
 10
-77.99899999999998
 20
40.73999999999999
 30
0.0
 40
0.3000000000000253
100
AcDbArc
 50
133.7645434161464
 51
179.9999999999959
  0
ARC
  5
217
330
1D0
100
AcDbEntity
  8
VER
100
AcDbCircle
 10
-77.99899999999998
 20
-40.73999999999997
 30
0.0
 40
0.3000000000000256
100
AcDbArc
 50
180.0000000000041
 51
226.2354565838536
  0
LINE
  5
218
330
1D0
100
AcDbEntity
  8
VER
100
AcDbLine
 10
-78.20650891745186
 20
-40.95665652350657
 30
0.0
 11
-78.20650891745186
 21
40.95665652350659
 31
0.0
  0
ARC
  5
219
330
1D0
100
AcDbEntity
  8
VER
100
AcDbCircle
 10
-78.34900000000012
 20
41.09700000000005
 30
0.0
 40
0.2000000000001165
100
AcDbArc
 50
315.4350472539969
 51
359.9999999999878
  0
ARC
  5
21A
330
1D0
100
AcDbEntity
  8
VER
100
AcDbCircle
 10
-78.34900000000012
 20
-41.09700000000004
 30
0.0
 40
0.2000000000001165
100
AcDbArc
 50
0.0000000000122133
 51
44.56495274600316
  0
LINE
  5
21B
330
1D0
100
AcDbEntity
  8
VER
100
AcDbLine
 10
-80.29899999999999
 20
-42.29599999999999
 30
0.0
 11
-80.29899999999999
 21
42.29600000000001
 31
0.0
  0
ARC
  5
21C
330
1D0
100
AcDbEntity
  8
VER
100
AcDbCircle
 10
-80.09900000000003
 20
42.29600000000003
 30
0.0
 40
0.1999999999999635
100
AcDbArc
 50
106.6657785619686
 51
180.0000000000081
  0
ARC
  5
21D
330
1D0
100
AcDbEntity
  8
VER
100
AcDbCircle
 10
-80.09900000000003
 20
-42.29600000000002
 30
0.0
 40
0.1999999999999602
100
AcDbArc
 50
179.9999999999919
 51
253.3342214380314
  0
LINE
  5
21E
330
1D0
100
AcDbEntity
  8
VER
100
AcDbLine
 10
-80.1563576767006
 20
-42.48759879155023
 30
0.0
 11
-80.1563576767006
 21
42.48759879155024
 31
0.0
  0
ARC
  5
21F
330
1D0
100
AcDbEntity
  8
VER
100
AcDbCircle
 10
-80.19899999999997
 20
42.68299999999999
 30
0.0
 40
0.1999999999999729
100
AcDbArc
 50
282.3106278940826
 51
0.0000000000061067
  0
ARC
  5
220
330
1D0
100
AcDbEntity
  8
VER
100
AcDbCircle
 10
-80.19899999999997
 20
-42.68299999999997
 30
0.0
 40
0.1999999999999744
100
AcDbArc
 50
359.9999999999939
 51
77.68937210591739
  0
LINE
  5
221
330
1D0
100
AcDbEntity
  8
VER
100
AcDbLine
 10
-76.36609435682325
 20
44.00902226499373
 30
0.0
 11
-77.94690564317676
 21
44.02557708722436
 31
0.0
  0
LINE
  5
222
330
1D0
100
AcDbEntity
  8
VER
100
AcDbLine
 10
-77.94690564317676
 20
-44.02557708722434
 30
0.0
 11
-76.36609435682325
 21
-44.00902226499372
 31
0.0
  0
LINE
  5
223
330
1D0
100
AcDbEntity
  8
VER
100
AcDbLine
 10
-77.94690564317676
 20
-44.02557708722434
 30
0.0
 11
-77.94690564317676
 21
44.02557708722436
 31
0.0
  0
LINE
  5
224
330
1D0
100
AcDbEntity
  8
VER
100
AcDbLine
 10
-78.149
 20
-43.825
 30
0.0
 11
-78.149
 21
43.82500000000001
 31
0.0
  0
ARC
  5
225
330
1D0
100
AcDbEntity
  8
VER
100
AcDbCircle
 10
-77.949
 20
43.82558805335125
 30
0.0
 40
0.1999999999999995
100
AcDbArc
 50
89.40000000000393
 51
180.0
  0
ARC
  5
226
330
1D0
100
AcDbEntity
  8
VER
100
AcDbCircle
 10
-77.949
 20
-43.82558805335124
 30
0.0
 40
0.2000000000000028
100
AcDbArc
 50
180.0
 51
270.599999999996
  0
LINE
  5
227
330
1D0
100
AcDbEntity
  8
VER
100
AcDbLine
 10
-79.999
 20
-43.84915085957641
 30
0.0
 11
-79.999
 21
43.84915085957643
 31
0.0
  0
ARC
  5
228
330
1D0
100
AcDbEntity
  8
VER
100
AcDbCircle
 10
-80.19900000000001
 20
43.8491508595764
 30
0.0
 40
0.2000000000000171
100
AcDbArc
 50
0.0000000000061067
 51
89.39999999999586
  0
ARC
  5
229
330
1D0
100
AcDbEntity
  8
VER
100
AcDbCircle
 10
-80.19900000000001
 20
-43.84915085957639
 30
0.0
 40
0.2000000000000211
100
AcDbArc
 50
270.6000000000042
 51
359.9999999999939
  0
LINE
  5
22A
330
1D0
100
AcDbEntity
  8
VER
100
AcDbLine
 10
-80.19690564317675
 20
-44.04913989344951
 30
0.0
 11
-80.19690564317675
 21
44.04913989344953
 31
0.0
  0
LINE
  5
22B
330
1D0
100
AcDbEntity
  8
VER
100
AcDbLine
 10
-80.19690564317675
 20
44.04913989344953
 30
0.0
 11
-84.85214153523488
 21
44.09789119178598
 31
0.0
  0
LINE
  5
22C
330
1D0
100
AcDbEntity
  8
VER
100
AcDbLine
 10
-84.85214153523488
 20
-44.09789119178596
 30
0.0
 11
-80.19690564317675
 21
-44.04913989344951
 31
0.0
  0
LINE
  5
22D
330
1D0
100
AcDbEntity
  8
VER
100
AcDbLine
 10
-76.36609435682325
 20
-44.00902226499372
 30
0.0
 11
-76.36609435682325
 21
44.00902226499373
 31
0.0
  0
ARC
  5
22E
330
1D0
100
AcDbEntity
  8
VER
100
AcDbCircle
 10
-76.36400000000002
 20
44.20901129886683
 30
0.0
 40
0.1999999999999995
100
AcDbArc
 50
269.400000000004
 51
0.0
  0
ARC
  5
22F
330
1D0
100
AcDbEntity
  8
VER
100
AcDbCircle
 10
-76.36400000000002
 20
-44.20901129886682
 30
0.0
 40
0.2000000000000028
100
AcDbArc
 50
0.0
 51
90.59999999999607
  0
LINE
  5
230
330
1D0
100
AcDbEntity
  8
VER
100
AcDbLine
 10
-84.85214153523488
 20
-44.09789119178596
 30
0.0
 11
-84.85214153523488
 21
44.09789119178598
 31
0.0
  0
ARC
  5
231
330
1D0
100
AcDbEntity
  8
VER
100
AcDbCircle
 10
-84.849
 20
44.39787474259563
 30
0.0
 40
0.2999999999999972
100
AcDbArc
 50
179.9999999999987
 51
269.3999999999999
  0
ARC
  5
232
330
1D0
100
AcDbEntity
  8
VER
100
AcDbCircle
 10
-84.849
 20
-44.39787474259562
 30
0.0
 40
0.300000000000003
100
AcDbArc
 50
90.60000000000014
 51
180.0000000000014
  0
LINE
  5
233
330
1D0
100
AcDbEntity
  8
VER
100
AcDbLine
 10
-85.128013669614
 20
45.99978022362833
 30
0.0
 11
-85.149
 21
46.00000000000001
 31
0.0
  0
LINE
  5
234
330
1D0
100
AcDbEntity
  8
VER
100
AcDbLine
 10
-85.149
 20
-45.99999999999999
 30
0.0
 11
-85.128013669614
 21
-45.99978022362832
 31
0.0
  0
LINE
  5
235
330
1D0
100
AcDbEntity
  8
050
100
AcDbLine
 10
-76.16400000000002
 20
-44.2276293621983
 30
0.0
 11
-76.16400000000002
 21
44.22762936219831
 31
0.0
  0
ARC
  5
236
330
1D0
100
AcDbEntity
  8
050
100
AcDbCircle
 10
-76.36399999996941
 20
44.22762936220067
 30
0.0
 40
0.1999999999693927
100
AcDbArc
 50
359.9999999993241
 51
3.62353029224329
  0
ARC
  5
237
330
1D0
100
AcDbEntity
  8
050
100
AcDbCircle
 10
-76.36399999996941
 20
-44.22762936220066
 30
0.0
 40
0.1999999999693924
100
AcDbArc
 50
356.3764697077567
 51
0.0000000006758043
  0
LINE
  5
238
330
1D0
100
AcDbEntity
  8
050
100
AcDbLine
 10
-76.16439982852238
 20
-44.2402694535556
 30
0.0
 11
-76.16439982852238
 21
44.2402694391811
 31
0.0
  0
LINE
  5
239
330
1D0
100
AcDbEntity
  8
050
100
AcDbLine
 10
-76.2266670424829
 20
-45.21280116220317
 30
0.0
 11
-76.2266670424829
 21
45.21280116220318
 31
0.0
  0
ARC
  5
23A
330
1D0
100
AcDbEntity
  8
050
100
AcDbCircle
 10
-76.97510097065161
 20
45.16435887524362
 30
0.0
 40
0.7499999999999866
100
AcDbArc
 50
3.703296094967937
 51
89.40000000001072
  0
ARC
  5
23B
330
1D0
100
AcDbEntity
  8
050
100
AcDbCircle
 10
-76.97510097065161
 20
-45.16435887524361
 30
0.0
 40
0.7499999999999848
100
AcDbArc
 50
270.5999999999893
 51
356.2967039050321
  0
LINE
  5
23C
330
1D0
100
AcDbEntity
  8
050
100
AcDbLine
 10
-85.149
 20
-45.99999999999999
 30
0.0
 11
-85.149
 21
46.00000000000001
 31
0.0
  0
LINE
  5
23D
330
1D0
100
AcDbEntity
  8
050
100
AcDbLine
 10
-76.96724713256457
 20
-45.91431775226773
 30
0.0
 11
-76.96724713256457
 21
45.91431775226774
 31
0.0
  0
LINE
  5
23E
330
1D0
100
AcDbEntity
  8
050
100
AcDbLine
 10
-76.96724713256457
 20
45.91431775226774
 30
0.0
 11
-85.128013669614
 21
45.99978022362833
 31
0.0
  0
LINE
  5
23F
330
1D0
100
AcDbEntity
  8
050
100
AcDbLine
 10
-85.128013669614
 20
-45.99978022362832
 30
0.0
 11
-76.96724713256457
 21
-45.91431775226773
 31
0.0
  0
ENDBLK
  5
1D3
330
1D0
100
AcDbEntity
  8
0
100
AcDbBlockEnd
  0
BLOCK
  5
242
330
240
100
AcDbEntity
  8
0
100
AcDbBlockBegin
  2
4_893_743_0_in_150300_4
 70
     2
 10
0.0
 20
0.0
 30
0.0
  3
4_893_743_0_in_150300_4
  1

  0
ATTDEF
  5
244
330
240
100
AcDbEntity
  8
ATTR
100
AcDbText
 10
-69.59580000000005
 20
46.13100000000001
 30
0.0
 40
0.5
  1
893.743
100
AcDbAttributeDefinition
  3

  2
NB
 70
     8
  0
ATTDEF
  5
245
330
240
100
AcDbEntity
  8
ATTR
100
AcDbText
 10
-69.59580000000005
 20
45.63100000000001
 30
0.0
 40
0.5
  1
893.743
100
AcDbAttributeDefinition
  3

  2
NN
 70
     8
  0
ATTDEF
  5
246
330
240
100
AcDbEntity
  8
ATTR
100
AcDbText
 10
-69.59580000000005
 20
45.13100000000001
 30
0.0
 40
0.5
  1

100
AcDbAttributeDefinition
  3

  2
NT
 70
     8
  0
ATTDEF
  5
247
330
240
100
AcDbEntity
  8
ATTR
100
AcDbText
 10
-69.59580000000005
 20
44.63100000000001
 30
0.0
 40
0.5
  1
$ARTNRT.
100
AcDbAttributeDefinition
  3

  2
NBSYN
 70
     8
  0
ATTDEF
  5
248
330
240
100
AcDbEntity
  8
ATTR
100
AcDbText
 10
-69.59580000000005
 20
44.13100000000001
 30
0.0
 40
0.5
  1
893.743
100
AcDbAttributeDefinition
  3

  2
LINA
 70
     8
  0
ATTDEF
  5
249
330
240
100
AcDbEntity
  8
ATTR
100
AcDbText
 10
-69.59580000000005
 20
43.63100000000001
 30
0.0
 40
0.5
  1
GEBERIT
100
AcDbAttributeDefinition
  3

  2
CATALOG
 70
     8
  0
ATTDEF
  5
24A
330
240
100
AcDbEntity
  8
ATTR
100
AcDbText
 10
-69.59580000000005
 20
43.13100000000001
 30
0.0
 40
0.5
  1
893.743
100
AcDbAttributeDefinition
  3

  2
ARTNRT
 70
     8
  0
ATTDEF
  5
24B
330
240
100
AcDbEntity
  8
ATTR
100
AcDbText
 10
-69.59580000000005
 20
42.63100000000001
 30
0.0
 40
0.5
  1
geberit
100
AcDbAttributeDefinition
  3

  2
COMPANY
 70
     8
  0
ATTDEF
  5
24C
330
240
100
AcDbEntity
  8
ATTR
100
AcDbText
 10
-69.59580000000005
 20
42.13100000000001
 30
0.0
 40
0.5
  1
{$CADENAS_DATA\23d-libs\geberit\waste_fitting\fur_badewannen\common_parts_893\893_743.prj},155 {VTYP=3D},{NB=893.743},{LINA=893.743},{NN=893.743},{DATE=19.07.2021 13:04:56},{GEOMDATE=19.07.2021 13:04:00},{VERSION=},{LINEID=10},{WBVAR=},{WBNUMERIC=}  {NB=8
100
AcDbAttributeDefinition
  3

  2
PSOL_0
 70
     9
  0
ATTDEF
  5
24D
330
240
100
AcDbEntity
  8
ATTR
100
AcDbText
 10
-69.59580000000005
 20
41.63100000000001
 30
0.0
 40
0.5
  1
93.743},{LINA=893.743},{KT=DUMMY},{ARTNRT=893.743}
100
AcDbAttributeDefinition
  3

  2
PSOL_1
 70
     9
  0
LINE
  5
24E
330
240
100
AcDbEntity
  8
VER
100
AcDbLine
 10
-94.0
 20
26.80257429037134
 30
0.0
 11
-81.0
 21
27.13325893062464
 31
0.0
  0
LINE
  5
24F
330
240
100
AcDbEntity
  8
VER
100
AcDbLine
 10
-94.0
 20
13.98106818734272
 30
0.0
 11
-81.0
 21
13.99738560602227
 31
0.0
  0
LINE
  5
250
330
240
100
AcDbEntity
  8
VER
100
AcDbLine
 10
-83.65249006532436
 20
8.607454726728744
 30
0.0
 11
-81.0
 21
8.379465105641511
 31
0.0
  0
LINE
  5
251
330
240
100
AcDbEntity
  8
VER
100
AcDbLine
 10
-89.9
 20
9.1483900173911
 30
0.0
 11
-89.62163352833305
 21
9.12439846205203
 31
0.0
  0
LINE
  5
252
330
240
100
AcDbEntity
  8
VER
100
AcDbLine
 10
-100.0
 20
10.14384160134099
 30
0.0
 11
-98.3
 21
10.60367777614409
 31
0.0
  0
LINE
  5
253
330
240
100
AcDbEntity
  8
VER
100
AcDbLine
 10
-80.99999999957637
 20
21.85221295496576
 30
0.0
 11
-82.33291634282789
 21
21.76333666424477
 31
0.0
  0
LINE
  5
254
330
240
100
AcDbEntity
  8
VER
100
AcDbLine
 10
-100.0
 20
21.86563701722659
 30
0.0
 11
-82.33291634282789
 21
21.76333666424476
 31
0.0
  0
LINE
  5
255
330
240
100
AcDbEntity
  8
VER
100
AcDbLine
 10
-81.0
 20
-30.21543078801756
 30
0.0
 11
-100.0
 21
-30.1902081627492
 31
0.0
  0
LINE
  5
256
330
240
100
AcDbEntity
  8
VER
100
AcDbLine
 10
-80.99999999957637
 20
-30.23166869435006
 30
0.0
 11
-82.33291543214467
 21
-30.25586064797215
 31
0.0
  0
LINE
  5
257
330
240
100
AcDbEntity
  8
VER
100
AcDbLine
 10
-85.0
 20
43.89473845462575
 30
0.0
 11
-87.11644808641289
 21
43.89473845462575
 31
0.0
  0
LINE
  5
258
330
240
100
AcDbEntity
  8
VER
100
AcDbLine
 10
-85.0
 20
43.98300000000001
 30
0.0
 11
-87.11644808641289
 21
43.98300000000001
 31
0.0
  0
LINE
  5
259
330
240
100
AcDbEntity
  8
VER
100
AcDbLine
 10
-81.0
 20
41.57482410065015
 30
0.0
 11
-86.8052353896617
 21
41.72717898786147
 31
0.0
  0
LINE
  5
25A
330
240
100
AcDbEntity
  8
VER
100
AcDbLine
 10
-95.5
 20
-30.73131889872787
 30
0.0
 11
-95.5
 21
-33.49999999999999
 31
0.0
  0
LINE
  5
25B
330
240
100
AcDbEntity
  8
VER
100
AcDbLine
 10
-95.5
 20
-33.1237067823032
 30
0.0
 11
-98.3
 21
-33.1237067823032
 31
0.0
  0
LINE
  5
25C
330
240
100
AcDbEntity
  8
VER
100
AcDbLine
 10
-98.3
 20
-33.49999999999999
 30
0.0
 11
-95.5
 21
-33.49999999999999
 31
0.0
  0
LINE
  5
25D
330
240
100
AcDbEntity
  8
VER
100
AcDbLine
 10
-100.0
 20
-33.81329731037773
 30
0.0
 11
-98.3
 21
-33.1237067823032
 31
0.0
  0
LWPOLYLINE
  5
25E
330
240
100
AcDbEntity
  8
VER
100
AcDbPolyline
 90
        4
 70
     0
 43
0.0
 10
-98.3
 20
-33.1237067823032
 10
-98.3
 20
-33.40579423698198
 10
-98.3
 20
-33.49999999999999
 10
-98.3
 20
-33.49999999999392
  0
LINE
  5
25F
330
240
100
AcDbEntity
  8
VER
100
AcDbLine
 10
-100.0
 20
-34.18141018176871
 30
0.0
 11
-98.3
 21
-33.49937595156452
 31
0.0
  0
LINE
  5
260
330
240
100
AcDbEntity
  8
VER
100
AcDbLine
 10
-95.5
 20
-31.65299999999999
 30
0.0
 11
-98.3
 21
-31.65299999999999
 31
0.0
  0
LINE
  5
261
330
240
100
AcDbEntity
  8
VER
100
AcDbLine
 10
-100.0
 20
-30.97999999999999
 30
0.0
 11
-98.3
 21
-31.65299999999999
 31
0.0
  0
LINE
  5
262
330
240
100
AcDbEntity
  8
VER
100
AcDbLine
 10
-89.9
 20
-29.792
 30
0.0
 11
-89.44500000000001
 21
-29.792
 31
0.0
  0
LINE
  5
263
330
240
100
AcDbEntity
  8
VER
100
AcDbLine
 10
-95.5
 20
-31.75113277100262
 30
0.0
 11
-98.3
 21
-31.75113277100262
 31
0.0
  0
LINE
  5
264
330
240
100
AcDbEntity
  8
VER
100
AcDbLine
 10
-89.44500000000001
 20
-29.792
 30
0.0
 11
-88.2
 21
-30.51080108514108
 31
0.0
  0
LINE
  5
265
330
240
100
AcDbEntity
  8
VER
100
AcDbLine
 10
-89.44500000000001
 20
-29.792
 30
0.0
 11
-89.44500000000001
 21
-29.05164956347134
 31
0.0
  0
LINE
  5
266
330
240
100
AcDbEntity
  8
VER
100
AcDbLine
 10
-98.3
 20
-30.73363499424588
 30
0.0
 11
-98.3
 21
-33.1237067823032
 31
0.0
  0
LINE
  5
267
330
240
100
AcDbEntity
  8
VER
100
AcDbLine
 10
-95.5
 20
-32.32190049209572
 30
0.0
 11
-98.3
 21
-32.32190049209572
 31
0.0
  0
LINE
  5
268
330
240
100
AcDbEntity
  8
VER
100
AcDbLine
 10
-88.2
 20
-29.7525879775208
 30
0.0
 11
-89.44500000000001
 21
-29.05164956347134
 31
0.0
  0
LINE
  5
269
330
240
100
AcDbEntity
  8
VER
100
AcDbLine
 10
-89.44500000000001
 20
-29.05164956347134
 30
0.0
 11
-89.9
 21
-29.05164956347134
 31
0.0
  0
LINE
  5
26A
330
240
100
AcDbEntity
  8
VER
100
AcDbLine
 10
-89.9
 20
-29.05164956347134
 30
0.0
 11
-89.9
 21
-30.50721226202093
 31
0.0
  0
LINE
  5
26B
330
240
100
AcDbEntity
  8
VER
100
AcDbLine
 10
-98.5
 20
-34.49175895413278
 30
0.0
 11
-94.0
 21
-34.39748855294525
 31
0.0
  0
LINE
  5
26C
330
240
100
AcDbEntity
  8
VER
100
AcDbLine
 10
-98.5
 20
-35.26174266107142
 30
0.0
 11
-94.0
 21
-35.18265730055647
 31
0.0
  0
LINE
  5
26D
330
240
100
AcDbEntity
  8
VER
100
AcDbLine
 10
-94.0
 20
-40.78364247771403
 30
0.0
 11
-81.0
 21
-41.12047592137036
 31
0.0
  0
LINE
  5
26E
330
240
100
AcDbEntity
  8
VER
100
AcDbLine
 10
-94.0
 20
-41.44849147240242
 30
0.0
 11
-81.0
 21
-41.81238798669769
 31
0.0
  0
LINE
  5
26F
330
240
100
AcDbEntity
  8
VER
100
AcDbLine
 10
-94.0
 20
-32.97943289006042
 30
0.0
 11
-81.00000000000001
 21
-32.7513796350627
 31
0.0
  0
LINE
  5
270
330
240
100
AcDbEntity
  8
VER
100
AcDbLine
 10
-94.0
 20
-33.7973958811107
 30
0.0
 11
-81.0
 21
-33.6151171303569
 31
0.0
  0
LINE
  5
271
330
240
100
AcDbEntity
  8
VER
100
AcDbLine
 10
-89.9
 20
-30.50721226202092
 30
0.0
 11
-81.00000000000001
 21
-30.54926371862339
 31
0.0
  0
LINE
  5
272
330
240
100
AcDbEntity
  8
VER
100
AcDbLine
 10
-88.2
 20
-30.56262599498852
 30
0.0
 11
-89.9
 21
-30.52217389773555
 31
0.0
  0
LINE
  5
273
330
240
100
AcDbEntity
  8
VER
100
AcDbLine
 10
-88.20023519354328
 20
-31.33996444030775
 30
0.0
 11
-81.0
 21
-31.52027344028744
 31
0.0
  0
LINE
  5
274
330
240
100
AcDbEntity
  8
VER
100
AcDbLine
 10
-88.2
 20
-31.33997032876209
 30
0.0
 11
-88.2
 21
-29.7525879775208
 31
0.0
  0
LINE
  5
275
330
240
100
AcDbEntity
  8
VER
100
AcDbLine
 10
-100.0
 20
-43.4032110188866
 30
0.0
 11
-94.0
 21
-43.32101106853347
 31
0.0
  0
LINE
  5
276
330
240
100
AcDbEntity
  8
VER
100
AcDbLine
 10
-94.0
 20
-32.97943289006042
 30
0.0
 11
-94.0
 21
-43.99999999979121
 31
0.0
  0
LINE
  5
277
330
240
100
AcDbEntity
  8
VER
100
AcDbLine
 10
-100.0
 20
-44.11139195910848
 30
0.0
 11
-94.0
 21
-43.99851541890672
 31
0.0
  0
LINE
  5
278
330
240
100
AcDbEntity
  8
VER
100
AcDbLine
 10
-100.0
 20
-40.05087662898278
 30
0.0
 11
-94.0
 21
-40.7794065675311
 31
0.0
  0
LINE
  5
279
330
240
100
AcDbEntity
  8
VER
100
AcDbLine
 10
-98.5
 20
-34.49175895413278
 30
0.0
 11
-98.5
 21
-40.98732685818155
 31
0.0
  0
LINE
  5
27A
330
240
100
AcDbEntity
  8
VER
100
AcDbLine
 10
-98.5
 20
-40.32656134677857
 30
0.0
 11
-94.00000000000666
 21
-40.83444816212717
 31
0.0
  0
LINE
  5
27B
330
240
100
AcDbEntity
  8
VER
100
AcDbLine
 10
-100.0
 20
-40.81701604603634
 30
0.0
 11
-98.50151014860224
 21
-40.98715539515946
 31
0.0
  0
LINE
  5
27C
330
240
100
AcDbEntity
  8
VER
100
AcDbLine
 10
-99.80174530709968
 20
-43.03975926838894
 30
0.0
 11
-87.19825469290032
 21
-42.96248030532848
 31
0.0
  0
LINE
  5
27D
330
240
100
AcDbEntity
  8
VER
100
AcDbLine
 10
-86.80523538966159
 20
-40.72677052387829
 30
0.0
 11
-81.0
 21
-40.58772378133565
 31
0.0
  0
LINE
  5
27E
330
240
100
AcDbEntity
  8
VER
100
AcDbLine
 10
-89.9
 20
-30.4211356877556
 30
0.0
 11
-81.0
 21
-30.23168741792299
 31
0.0
  0
LINE
  5
27F
330
240
100
AcDbEntity
  8
VER
100
AcDbLine
 10
-100.0
 20
-30.23568496707537
 30
0.0
 11
-82.33291543214453
 21
-30.25586064797215
 31
0.0
  0
LINE
  5
280
330
240
100
AcDbEntity
  8
VER
100
AcDbLine
 10
-95.5
 20
-30.73131889872787
 30
0.0
 11
-98.3
 21
-30.73363499424588
 31
0.0
  0
LINE
  5
281
330
240
100
AcDbEntity
  8
VER
100
AcDbLine
 10
-100.0
 20
-30.64534703221864
 30
0.0
 11
-98.3
 21
-30.73363499424402
 31
0.0
  0
LINE
  5
282
330
240
100
AcDbEntity
  8
VER
100
AcDbLine
 10
-95.4999965281678
 20
-31.21736304047823
 30
0.0
 11
-89.89998756680512
 21
-31.2111477844537
 31
0.0
  0
LINE
  5
283
330
240
100
AcDbEntity
  8
VER
100
AcDbLine
 10
-81.0
 20
-30.21511056822866
 30
0.0
 11
-100.0
 21
-30.19025556278241
 31
0.0
  0
LINE
  5
284
330
240
100
AcDbEntity
  8
VER
100
AcDbLine
 10
-89.9
 20
-31.21114888448214
 30
0.0
 11
-89.9
 21
-30.61426920523736
 31
0.0
  0
LINE
  5
285
330
240
100
AcDbEntity
  8
VER
100
AcDbLine
 10
-89.9
 20
21.27274567036719
 30
0.0
 11
-81.0
 21
21.85222231228401
 31
0.0
  0
LINE
  5
286
330
240
100
AcDbEntity
  8
VER
100
AcDbLine
 10
-89.9
 20
21.31578395750155
 30
0.0
 11
-81.00000000000001
 21
22.01101046264898
 31
0.0
  0
LINE
  5
287
330
240
100
AcDbEntity
  8
VER
100
AcDbLine
 10
-89.9
 20
9.330598369493005
 30
0.0
 11
-89.9
 21
21.26651220185907
 31
0.0
  0
LINE
  5
288
330
240
100
AcDbEntity
  8
VER
100
AcDbLine
 10
-88.2
 20
21.29469744917153
 30
0.0
 11
-89.9
 21
21.26651220185907
 31
0.0
  0
LINE
  5
289
330
240
100
AcDbEntity
  8
VER
100
AcDbLine
 10
-88.2
 20
20.73029848335195
 30
0.0
 11
-89.44500000000001
 21
20.2419153365591
 31
0.0
  0
LINE
  5
28A
330
240
100
AcDbEntity
  8
VER
100
AcDbLine
 10
-89.44500000000001
 20
20.2419153365591
 30
0.0
 11
-89.9
 21
20.2419153365591
 31
0.0
  0
LINE
  5
28B
330
240
100
AcDbEntity
  8
VER
100
AcDbLine
 10
-95.5
 20
21.98650220771004
 30
0.0
 11
-98.3
 21
21.98650220771004
 31
0.0
  0
LINE
  5
28C
330
240
100
AcDbEntity
  8
VER
100
AcDbLine
 10
-95.5
 20
22.04076766497737
 30
0.0
 11
-98.30000000000001
 21
22.04076766497737
 31
0.0
  0
LINE
  5
28D
330
240
100
AcDbEntity
  8
VER
100
AcDbLine
 10
-100.0
 20
20.50150543081281
 30
0.0
 11
-98.3
 21
20.12995721802358
 31
0.0
  0
LINE
  5
28E
330
240
100
AcDbEntity
  8
VER
100
AcDbLine
 10
-95.5
 20
20.12879917023334
 30
0.0
 11
-98.3
 21
20.12995721802269
 31
0.0
  0
LINE
  5
28F
330
240
100
AcDbEntity
  8
VER
100
AcDbLine
 10
-95.5
 20
20.58963972081444
 30
0.0
 11
-98.3
 21
20.58963972081444
 31
0.0
  0
LINE
  5
290
330
240
100
AcDbEntity
  8
VER
100
AcDbLine
 10
-95.5
 20
21.61389030401458
 30
0.0
 11
-98.3
 21
21.61389030401458
 31
0.0
  0
LINE
  5
291
330
240
100
AcDbEntity
  8
VER
100
AcDbLine
 10
-95.5
 20
20.89804258790033
 30
0.0
 11
-98.3
 21
20.89804258790033
 31
0.0
  0
LINE
  5
292
330
240
100
AcDbEntity
  8
VER
100
AcDbLine
 10
-100.0
 20
21.24283785193769
 30
0.0
 11
-98.3
 21
20.8980425879003
 31
0.0
  0
LINE
  5
293
330
240
100
AcDbEntity
  8
VER
100
AcDbLine
 10
-100.0
 20
20.66883191463096
 30
0.0
 11
-98.30000000000001
 21
20.58963972081442
 31
0.0
  0
LINE
  5
294
330
240
100
AcDbEntity
  8
VER
100
AcDbLine
 10
-98.3
 20
22.04076614515771
 30
0.0
 11
-100.0
 21
22.72272466236396
 31
0.0
  0
LINE
  5
295
330
240
100
AcDbEntity
  8
VER
100
AcDbLine
 10
-89.44500000000001
 20
8.80973422691224
 30
0.0
 11
-89.44500000000001
 21
20.2419153365591
 31
0.0
  0
LINE
  5
296
330
240
100
AcDbEntity
  8
VER
100
AcDbLine
 10
-88.2
 20
9.022289494168854
 30
0.0
 11
-88.2
 21
21.29469744917153
 31
0.0
  0
LINE
  5
297
330
240
100
AcDbEntity
  8
VER
100
AcDbLine
 10
-88.2
 20
9.267928545817016
 30
0.0
 11
-89.9
 21
9.255661695876476
 31
0.0
  0
LINE
  5
298
330
240
100
AcDbEntity
  8
VER
100
AcDbLine
 10
-89.9
 20
8.80973422691224
 30
0.0
 11
-89.9
 21
9.191428304519418
 31
0.0
  0
LINE
  5
299
330
240
100
AcDbEntity
  8
VER
100
AcDbLine
 10
-89.44500000000001
 20
8.80973422691224
 30
0.0
 11
-89.9
 21
8.80973422691224
 31
0.0
  0
LINE
  5
29A
330
240
100
AcDbEntity
  8
VER
100
AcDbLine
 10
-88.2
 20
9.022289494168854
 30
0.0
 11
-89.44500000000001
 21
8.80973422691224
 31
0.0
  0
LINE
  5
29B
330
240
100
AcDbEntity
  8
VER
100
AcDbLine
 10
-98.3
 20
10.60365604623201
 30
0.0
 11
-95.5
 21
10.60249794246666
 31
0.0
  0
LINE
  5
29C
330
240
100
AcDbEntity
  8
VER
100
AcDbLine
 10
-80.99999999957637
 20
8.379455739567517
 30
0.0
 11
-89.9
 21
9.148383558513776
 31
0.0
  0
LINE
  5
29D
330
240
100
AcDbEntity
  8
VER
100
AcDbLine
 10
-89.9
 20
9.191428304519428
 30
0.0
 11
-81.00000000000001
 21
8.538253255974482
 31
0.0
  0
LINE
  5
29E
330
240
100
AcDbEntity
  8
VER
100
AcDbLine
 10
-86.80523538966159
 20
28.59034645580337
 30
0.0
 11
-81.0
 21
28.45745035944185
 31
0.0
  0
LWPOLYLINE
  5
29F
330
240
100
AcDbEntity
  8
VER
100
AcDbPolyline
 90
        6
 70
     0
 43
0.0
 10
-87.0
 20
28.69482353994887
 10
-86.98828254697354
 20
28.66008877914773
 10
-86.95420517463666
 20
28.62901167305236
 10
-86.90213779962748
 20
28.60562635862346
 10
-86.83934702208838
 20
28.59264029128342
 10
-86.80523538966159
 20
28.59034645580331
  0
LWPOLYLINE
  5
2A0
330
240
100
AcDbEntity
  8
VER
100
AcDbPolyline
 90
        7
 70
     0
 43
0.0
 10
-87.0
 20
41.92755314565015
 10
-86.99921349013968
 20
41.90979444954576
 10
-86.98205630102463
 20
41.84457235977099
 10
-86.9442707911059
 20
41.78873358113286
 10
-86.89019200174165
 20
41.74864925916962
 10
-86.82601864190377
 20
41.72881372799345
 10
-86.8052353896617
 20
41.72717898786147
  0
LINE
  5
2A1
330
240
100
AcDbEntity
  8
VER
100
AcDbLine
 10
-86.80523538966158
 20
28.59034645580337
 30
0.0
 11
-86.8052353896617
 21
41.72717898786147
 31
0.0
  0
LINE
  5
2A2
330
240
100
AcDbEntity
  8
VER
100
AcDbLine
 10
-95.5
 20
11.06336027918561
 30
0.0
 11
-98.3
 21
11.06336027918561
 31
0.0
  0
LINE
  5
2A3
330
240
100
AcDbEntity
  8
VER
100
AcDbLine
 10
-95.5
 20
12.22566419440294
 30
0.0
 11
-98.3
 21
12.22566419440294
 31
0.0
  0
LINE
  5
2A4
330
240
100
AcDbEntity
  8
VER
100
AcDbLine
 10
-95.5
 20
10.33539828438572
 30
0.0
 11
-98.3
 21
10.33539828438572
 31
0.0
  0
LINE
  5
2A5
330
240
100
AcDbEntity
  8
VER
100
AcDbLine
 10
-95.5
 20
22.04076766497737
 30
0.0
 11
-95.5
 21
10.00923233502273
 31
0.0
  0
LINE
  5
2A6
330
240
100
AcDbEntity
  8
VER
100
AcDbLine
 10
-95.5
 20
10.1372424669881
 30
0.0
 11
-98.3
 21
10.1372424669881
 31
0.0
  0
LINE
  5
2A7
330
240
100
AcDbEntity
  8
VER
100
AcDbLine
 10
-98.3
 20
10.00923233502273
 30
0.0
 11
-95.5
 21
10.00923233502273
 31
0.0
  0
LINE
  5
2A8
330
240
100
AcDbEntity
  8
VER
100
AcDbLine
 10
-94.0
 20
26.80257429037134
 30
0.0
 11
-81.0
 21
27.12817462298638
 31
0.0
  0
LINE
  5
2A9
330
240
100
AcDbEntity
  8
VER
100
AcDbLine
 10
-100.0
 20
10.31116808536905
 30
0.0
 11
-98.3
 21
11.06336027918559
 31
0.0
  0
LINE
  5
2AA
330
240
100
AcDbEntity
  8
VER
100
AcDbLine
 10
-100.0
 20
12.57045945844022
 30
0.0
 11
-98.3
 21
12.22566419440293
 31
0.0
  0
LINE
  5
2AB
330
240
100
AcDbEntity
  8
VER
100
AcDbLine
 10
-98.30000000000001
 20
21.98650220770929
 30
0.0
 11
-98.3
 21
10.00923989892321
 31
0.0
  0
LINE
  5
2AC
330
240
100
AcDbEntity
  8
VER
100
AcDbLine
 10
-100.0
 20
9.328724016748675
 30
0.0
 11
-98.3
 21
10.0090446685917
 31
0.0
  0
LINE
  5
2AD
330
240
100
AcDbEntity
  8
VER
100
AcDbLine
 10
-87.00000000000001
 20
43.7126600335696
 30
0.0
 11
-87.0
 21
28.69482353994545
 31
0.0
  0
LINE
  5
2AE
330
240
100
AcDbEntity
  8
VER
100
AcDbLine
 10
-94.0
 20
10.07896339351593
 30
0.0
 11
-81.00000000000001
 21
9.807753155230186
 31
0.0
  0
LINE
  5
2AF
330
240
100
AcDbEntity
  8
VER
100
AcDbLine
 10
-94.0
 20
22.90046949654454
 30
0.0
 11
-81.0
 21
22.94362647983255
 31
0.0
  0
LINE
  5
2B0
330
240
100
AcDbEntity
  8
VER
100
AcDbLine
 10
-99.80174530709968
 20
29.8887169441584
 30
0.0
 11
-87.19825469290032
 21
29.7124917331515
 31
0.0
  0
LINE
  5
2B1
330
240
100
AcDbEntity
  8
VER
100
AcDbLine
 10
-87.19825469290032
 20
44.00128086121398
 30
0.0
 11
-99.80174530709968
 21
44.11126985750617
 31
0.0
  0
LWPOLYLINE
  5
2B2
330
240
100
AcDbEntity
  8
VER
100
AcDbPolyline
 90
        6
 70
     0
 43
0.0
 10
-87.00000000000001
 20
29.60817973908364
 10
-87.0116733389315
 20
29.64277482221885
 10
-87.04560843005092
 20
29.67372740532265
 10
-87.09748797420016
 20
29.69705933822519
 10
-87.16020118915723
 20
29.71008499409293
 10
-87.19825469290029
 20
29.71249173315168
  0
LINE
  5
2B3
330
240
100
AcDbEntity
  8
VER
100
AcDbLine
 10
-87.11644808641289
 20
43.89473845462575
 30
0.0
 11
-87.11644808641039
 21
43.98299999999885
 31
0.0
  0
LWPOLYLINE
  5
2B4
330
240
100
AcDbEntity
  8
VER
100
AcDbPolyline
 90
        5
 70
     0
 43
0.0
 10
-87.00000000000001
 20
43.7126600335696
 10
-87.01009570907101
 20
43.77552747861937
 10
-87.04166444221455
 20
43.83509485089412
 10
-87.07090568293388
 20
43.86572552883635
 10
-87.11644808641289
 20
43.89473845462575
  0
LINE
  5
2B5
330
240
100
AcDbEntity
  8
VER
100
AcDbLine
 10
-87.19825469290032
 20
29.71249173315147
 30
0.0
 11
-87.19825469290032
 21
44.00128086121398
 31
0.0
  0
ARC
  5
2B6
330
240
100
AcDbEntity
  8
VER
100
AcDbCircle
 10
-87.2
 20
43.80128847660117
 30
0.0
 40
0.1999999999999815
100
AcDbArc
 50
65.30677975630685
 51
89.49999999999781
  0
LWPOLYLINE
  5
2B7
330
240
100
AcDbEntity
  8
VER
100
AcDbPolyline
 90
        6
 70
     0
 43
0.0
 10
-100.0
 20
29.99307595328851
 10
-99.98831696523361
 20
29.958454952474
 10
-99.9543559571071
 20
29.92747934741434
 10
-99.90243410571952
 20
29.90413251951811
 10
-99.83969802501223
 20
29.89111289068148
 10
-99.80174530709972
 20
29.88871694415824
  0
LINE
  5
2B8
330
240
100
AcDbEntity
  8
VER
100
AcDbLine
 10
-99.80174530709968
 20
29.8887169441584
 30
0.0
 11
-99.80174530709968
 21
44.11126985750617
 31
0.0
  0
ARC
  5
2B9
330
240
100
AcDbEntity
  8
VER
100
AcDbCircle
 10
-99.80000000000001
 20
44.31126224211899
 30
0.0
 40
0.1999999999999886
100
AcDbArc
 50
179.9999999999939
 51
269.5000000000019
  0
LINE
  5
2BA
330
240
100
AcDbEntity
  8
VER
100
AcDbLine
 10
-98.5
 20
10.88968602599053
 30
0.0
 11
-94.0
 21
10.78799122495834
 31
0.0
  0
LINE
  5
2BB
330
240
100
AcDbEntity
  8
VER
100
AcDbLine
 10
-98.5
 20
23.60207292814233
 30
0.0
 11
-94.0
 21
23.60949732798694
 31
0.0
  0
LINE
  5
2BC
330
240
100
AcDbEntity
  8
VER
100
AcDbLine
 10
-100.0
 20
28.52718472937037
 30
0.0
 11
-94.0
 21
28.32890114340693
 31
0.0
  0
LINE
  5
2BD
330
240
100
AcDbEntity
  8
VER
100
AcDbLine
 10
-100.0
 20
13.19985909456435
 30
0.0
 11
-94.0
 21
13.72130767462539
 31
0.0
  0
LINE
  5
2BE
330
240
100
AcDbEntity
  8
VER
100
AcDbLine
 10
-93.99999999999268
 20
14.00647102900202
 30
0.0
 11
-98.5
 21
13.80708722231341
 31
0.0
  0
LINE
  5
2BF
330
240
100
AcDbEntity
  8
VER
100
AcDbLine
 10
-98.5
 20
26.5194741244652
 30
0.0
 11
-98.5
 21
10.88968602599053
 31
0.0
  0
LINE
  5
2C0
330
240
100
AcDbEntity
  8
VER
100
AcDbLine
 10
-98.5
 20
26.5194741244652
 30
0.0
 11
-94.00000000000666
 21
26.82797713257784
 31
0.0
  0
LINE
  5
2C1
330
240
100
AcDbEntity
  8
VER
100
AcDbLine
 10
-100.0
 20
26.85101753441849
 30
0.0
 11
-94.00000000000001
 21
27.05809889290576
 31
0.0
  0
LINE
  5
2C2
330
240
100
AcDbEntity
  8
VER
100
AcDbLine
 10
-94.0
 20
13.98106818734272
 30
0.0
 11
-81.00000000000001
 21
13.99230129838402
 31
0.0
  0
LINE
  5
2C3
330
240
100
AcDbEntity
  8
VER
100
AcDbLine
 10
-94.0
 20
28.32890114340693
 30
0.0
 11
-94.0
 21
10.07896339351592
 31
0.0
  0
LINE
  5
2C4
330
240
100
AcDbEntity
  8
VER
100
AcDbLine
 10
-100.0
 20
14.87602628951626
 30
0.0
 11
-94.0
 21
14.99210992512656
 31
0.0
  0
LWPOLYLINE
  5
2C5
330
240
100
AcDbEntity
  8
VER
100
AcDbPolyline
 90
        6
 70
     0
 43
0.0
 10
-87.0
 20
-40.93147240495618
 10
-86.98828254697355
 20
-40.86225870999299
 10
-86.95420517463664
 20
-40.80084850758099
 10
-86.90213779962748
 20
-40.75521466344287
 10
-86.83934702208838
 20
-40.73061343706058
 10
-86.80523538966159
 20
-40.72677052387824
  0
LINE
  5
2C6
330
240
100
AcDbEntity
  8
VER
100
AcDbLine
 10
-86.80523538966158
 20
-40.72677052387829
 30
0.0
 11
-86.80523538966158
 21
12.13642406807499
 31
0.0
  0
LINE
  5
2C7
330
240
100
AcDbEntity
  8
VER
100
AcDbLine
 10
-87.19825469290032
 20
13.24998857217703
 30
0.0
 11
-99.80174530709968
 21
13.15104232423057
 31
0.0
  0
LINE
  5
2C8
330
240
100
AcDbEntity
  8
VER
100
AcDbLine
 10
-81.0
 20
12.13027342189383
 30
0.0
 11
-86.80523538966159
 21
12.13642406807499
 31
0.0
  0
LWPOLYLINE
  5
2C9
330
240
100
AcDbEntity
  8
VER
100
AcDbPolyline
 90
        6
 70
     0
 43
0.0
 10
-86.80523538966158
 20
12.136424068075
 10
-86.86978319012255
 20
12.14204262478155
 10
-86.9265159497965
 20
12.15804194700972
 10
-86.96980705421764
 20
12.18278047300249
 10
-86.99509472534808
 20
12.21411197890833
 10
-87.00000000000132
 20
12.23664886500727
  0
LINE
  5
2CA
330
240
100
AcDbEntity
  8
VER
100
AcDbLine
 10
-100.0
 20
8.370048119891036
 30
0.0
 11
-82.33291550611165
 21
8.492523931587897
 31
0.0
  0
LINE
  5
2CB
330
240
100
AcDbEntity
  8
VER
100
AcDbLine
 10
-100.0
 20
7.274886903019481
 30
0.0
 11
-81.0
 21
7.46711502510288
 31
0.0
  0
LWPOLYLINE
  5
2CC
330
240
100
AcDbEntity
  8
VER
100
AcDbPolyline
 90
        7
 70
     0
 43
0.0
 10
-81.19672590857921
 20
43.58083433389067
 10
-81.14938091439429
 20
43.57433616861643
 10
-81.1103140829193
 20
43.55958148304843
 10
-81.0562005185606
 20
43.51973914364053
 10
-81.01831854245277
 20
43.46424042740311
 10
-81.00088141985302
 20
43.39924603740666
 10
-81.0
 20
43.38045134820076
  0
LINE
  5
2CD
330
240
100
AcDbEntity
  8
VER
100
AcDbLine
 10
-81.0
 20
-43.46975712117117
 30
0.0
 11
-81.0
 21
43.38045134820076
 31
0.0
  0
ARC
  5
2CE
330
240
100
AcDbEntity
  8
VER
100
AcDbCircle
 10
-81.20000000000006
 20
-43.46975712117113
 30
0.0
 40
0.2000000000000456
100
AcDbArc
 50
270.9380000000162
 51
359.9999999999898
  0
LINE
  5
2CF
330
240
100
AcDbEntity
  8
VER
100
AcDbLine
 10
-81.19672590857921
 20
43.58083433389067
 30
0.0
 11
-85.0
 21
43.64323084969765
 31
0.0
  0
LINE
  5
2D0
330
240
100
AcDbEntity
  8
VER
100
AcDbLine
 10
-85.0
 20
-43.73199999999999
 30
0.0
 11
-81.19672590857921
 21
-43.66973032018887
 31
0.0
  0
LINE
  5
2D1
330
240
100
AcDbEntity
  8
VER
100
AcDbLine
 10
-81.19672590857921
 20
-43.66973032018887
 30
0.0
 11
-81.19672590857921
 21
43.58083433389067
 31
0.0
  0
LINE
  5
2D2
330
240
100
AcDbEntity
  8
VER
100
AcDbLine
 10
-87.19825469290032
 20
-42.96248030532848
 30
0.0
 11
-87.19825469290032
 21
13.24998857217703
 31
0.0
  0
LINE
  5
2D3
330
240
100
AcDbEntity
  8
VER
100
AcDbLine
 10
-87.00000000000001
 20
-42.75818480322572
 30
0.0
 11
-87.00000000000001
 21
13.15000506414212
 31
0.0
  0
LWPOLYLINE
  5
2D4
330
240
100
AcDbEntity
  8
VER
100
AcDbPolyline
 90
        6
 70
     0
 43
0.0
 10
-87.00000000000001
 20
-42.75818480322574
 10
-87.0116733389315
 20
-42.82712010599817
 10
-87.0456084300509
 20
-42.88828436884661
 10
-87.09748797420013
 20
-42.93381555083498
 10
-87.1602011891572
 20
-42.95849764769311
 10
-87.19825469290029
 20
-42.96248030532877
  0
LWPOLYLINE
  5
2D5
330
240
100
AcDbEntity
  8
VER
100
AcDbPolyline
 90
        6
 70
     0
 43
0.0
 10
-87.19825469290032
 20
13.24998857217705
 10
-87.13340152027286
 20
13.244945809743
 10
-87.07600410579329
 20
13.22943813390915
 10
-87.03186754756251
 20
13.20508641621899
 10
-87.00562670913743
 20
13.17406297741644
 10
-86.99999999999638
 20
13.15000506414236
  0
LWPOLYLINE
  5
2D6
330
240
100
AcDbEntity
  8
VER
100
AcDbPolyline
 90
        6
 70
     0
 43
0.0
 10
-100.0
 20
-43.24414880061637
 10
-99.98831696523362
 20
-43.17516187417392
 10
-99.95435595710708
 20
-43.11395213325864
 10
-99.90243410571952
 20
-43.06839208497495
 10
-99.83969802501223
 20
-43.04372254140603
 10
-99.80174530709972
 20
-43.03975926838867
  0
LWPOLYLINE
  5
2D7
330
240
100
AcDbEntity
  8
VER
100
AcDbPolyline
 90
        6
 70
     0
 43
0.0
 10
-99.80174530709968
 20
13.1510423242306
 10
-99.8665660162448
 20
13.15608232037789
 10
-99.92393505663401
 20
13.17158103426963
 10
-99.96807335056317
 20
13.19592373380672
 10
-99.99434862792383
 20
13.22695531826836
 10
-100.0
 20
13.25107284732755
  0
LINE
  5
2D8
330
240
100
AcDbEntity
  8
VER
100
AcDbLine
 10
-99.80174530709968
 20
-43.03975926838894
 30
0.0
 11
-99.80174530709968
 21
13.15104232423059
 31
0.0
  0
LINE
  5
2D9
330
240
100
AcDbEntity
  8
VER
100
AcDbLine
 10
-85.0
 20
-45.85140030154936
 30
0.0
 11
-85.0
 21
45.85140030154938
 31
0.0
  0
ARC
  5
2DA
330
240
100
AcDbEntity
  8
VER
100
AcDbCircle
 10
-85.15
 20
45.85140030154938
 30
0.0
 40
0.1500000000000057
100
AcDbArc
 50
0.0000000000027141
 51
81.57147435568253
  0
ARC
  5
2DB
330
240
100
AcDbEntity
  8
VER
100
AcDbCircle
 10
-85.15
 20
-45.85140030154936
 30
0.0
 40
0.1500000000000011
100
AcDbArc
 50
278.4285256443175
 51
359.9999999999972
  0
LINE
  5
2DC
330
240
100
AcDbEntity
  8
MITTE
100
AcDbLine
 10
-74.59580000000005
 20
0.0000000000000061
 30
0.0
 11
-101.0
 21
0.0000000000000061
 31
0.0
  0
ARC
  5
2DD
330
240
100
AcDbEntity
  8
050
100
AcDbCircle
 10
-85.14999999999984
 20
45.8514003015514
 30
0.0
 40
0.1499999999979729
100
AcDbArc
 50
81.57147435563357
 51
89.50000000005488
  0
ARC
  5
2DE
330
240
100
AcDbEntity
  8
050
100
AcDbCircle
 10
-85.14999999999984
 20
-45.85140030155139
 30
0.0
 40
0.1499999999979716
100
AcDbArc
 50
270.499999999945
 51
278.4285256443665
  0
LINE
  5
2DF
330
240
100
AcDbEntity
  8
050
100
AcDbLine
 10
-85.14869101967524
 20
46.001394590009
 30
0.0
 11
-100.0
 21
46.13100000000001
 31
0.0
  0
LINE
  5
2E0
330
240
100
AcDbEntity
  8
050
100
AcDbLine
 10
-100.0
 20
-46.13099999999999
 30
0.0
 11
-85.14869101967524
 21
-46.00139459000899
 31
0.0
  0
LINE
  5
2E1
330
240
100
AcDbEntity
  8
050
100
AcDbLine
 10
-100.0
 20
-46.13099999999999
 30
0.0
 11
-100.0
 21
46.13100000000001
 31
0.0
  0
LINE
  5
2E2
330
240
100
AcDbEntity
  8
050
100
AcDbLine
 10
-85.14869101967524
 20
-46.00139459000899
 30
0.0
 11
-85.14869101967524
 21
46.001394590009
 31
0.0
  0
ENDBLK
  5
243
330
240
100
AcDbEntity
  8
0
100
AcDbBlockEnd
  0
BLOCK
  5
2E5
330
2E3
100
AcDbEntity
  8
0
100
AcDbBlockBegin
  2
5_893_741_0_in_150300_4
 70
     2
 10
0.0
 20
0.0
 30
0.0
  3
5_893_741_0_in_150300_4
  1

  0
ATTDEF
  5
2E7
330
2E3
100
AcDbEntity
  8
ATTR
100
AcDbText
 10
42.80000000000001
 20
37.80000000000001
 30
0.0
 40
0.5
  1
893.741
100
AcDbAttributeDefinition
  3

  2
NB
 70
     8
  0
ATTDEF
  5
2E8
330
2E3
100
AcDbEntity
  8
ATTR
100
AcDbText
 10
42.80000000000001
 20
37.30000000000001
 30
0.0
 40
0.5
  1
893.741
100
AcDbAttributeDefinition
  3

  2
NN
 70
     8
  0
ATTDEF
  5
2E9
330
2E3
100
AcDbEntity
  8
ATTR
100
AcDbText
 10
42.80000000000001
 20
36.80000000000001
 30
0.0
 40
0.5
  1

100
AcDbAttributeDefinition
  3

  2
NT
 70
     8
  0
ATTDEF
  5
2EA
330
2E3
100
AcDbEntity
  8
ATTR
100
AcDbText
 10
42.80000000000001
 20
36.30000000000001
 30
0.0
 40
0.5
  1
$ARTNRT.
100
AcDbAttributeDefinition
  3

  2
NBSYN
 70
     8
  0
ATTDEF
  5
2EB
330
2E3
100
AcDbEntity
  8
ATTR
100
AcDbText
 10
42.80000000000001
 20
35.80000000000001
 30
0.0
 40
0.5
  1
893.741
100
AcDbAttributeDefinition
  3

  2
LINA
 70
     8
  0
ATTDEF
  5
2EC
330
2E3
100
AcDbEntity
  8
ATTR
100
AcDbText
 10
42.80000000000001
 20
35.30000000000001
 30
0.0
 40
0.5
  1
GEBERIT
100
AcDbAttributeDefinition
  3

  2
CATALOG
 70
     8
  0
ATTDEF
  5
2ED
330
2E3
100
AcDbEntity
  8
ATTR
100
AcDbText
 10
42.80000000000001
 20
34.80000000000001
 30
0.0
 40
0.5
  1
893.741
100
AcDbAttributeDefinition
  3

  2
ARTNRT
 70
     8
  0
ATTDEF
  5
2EE
330
2E3
100
AcDbEntity
  8
ATTR
100
AcDbText
 10
42.80000000000001
 20
34.30000000000001
 30
0.0
 40
0.5
  1
geberit
100
AcDbAttributeDefinition
  3

  2
COMPANY
 70
     8
  0
ATTDEF
  5
2EF
330
2E3
100
AcDbEntity
  8
ATTR
100
AcDbText
 10
42.80000000000001
 20
33.80000000000001
 30
0.0
 40
0.5
  1
{$CADENAS_DATA\23d-libs\geberit\waste_fitting\fur_badewannen\common_parts_893\893_741.prj},155 {VTYP=3D},{NB=893.741},{LINA=893.741},{NN=893.741},{DATE=19.07.2021 10:05:11},{GEOMDATE=19.07.2021 09:31:00},{VERSION=},{LINEID=10},{WBVAR=},{WBNUMERIC=}  {NB=8
100
AcDbAttributeDefinition
  3

  2
PSOL_0
 70
     9
  0
ATTDEF
  5
2F0
330
2E3
100
AcDbEntity
  8
ATTR
100
AcDbText
 10
42.80000000000001
 20
33.30000000000001
 30
0.0
 40
0.5
  1
93.741},{LINA=893.741},{KT=DUMMY},{ARTNRT=893.741}
100
AcDbAttributeDefinition
  3

  2
PSOL_1
 70
     9
  0
LINE
  5
2F1
330
2E3
100
AcDbEntity
  8
VER
100
AcDbLine
 10
3.16227766016838
 20
0.7499999999999956
 30
0.0
 11
-3.16227766016838
 21
0.7499999999999956
 31
0.0
  0
LINE
  5
2F2
330
2E3
100
AcDbEntity
  8
VER
100
AcDbLine
 10
-3.16227766016838
 20
-0.7500000000000044
 30
0.0
 11
3.16227766016838
 21
-0.7500000000000044
 31
0.0
  0
CIRCLE
  5
2F3
330
2E3
100
AcDbEntity
  8
VER
100
AcDbCircle
 10
0.0
 20
-0.0000000000000044
 30
0.0
 40
3.25
  0
CIRCLE
  5
2F4
330
2E3
100
AcDbEntity
  8
VER
100
AcDbCircle
 10
0.0
 20
-0.0000000000000037
 30
0.0
 40
2.0
  0
CIRCLE
  5
2F5
330
2E3
100
AcDbEntity
  8
VER
100
AcDbCircle
 10
0.0
 20
-0.0000000000000035
 30
0.0
 40
3.310000000000002
  0
LINE
  5
2F6
330
2E3
100
AcDbEntity
  8
VER
100
AcDbLine
 10
0.0
 20
4.041451884327377
 30
0.0
 11
3.5
 21
2.020725942163687
 31
0.0
  0
LINE
  5
2F7
330
2E3
100
AcDbEntity
  8
VER
100
AcDbLine
 10
-3.5
 20
2.020725942163687
 30
0.0
 11
0.0
 21
4.041451884327377
 31
0.0
  0
LINE
  5
2F8
330
2E3
100
AcDbEntity
  8
VER
100
AcDbLine
 10
-3.5
 20
-2.020725942163694
 30
0.0
 11
-3.5
 21
2.020725942163687
 31
0.0
  0
LINE
  5
2F9
330
2E3
100
AcDbEntity
  8
VER
100
AcDbLine
 10
0.0
 20
-4.041451884327383
 30
0.0
 11
-3.5
 21
-2.020725942163694
 31
0.0
  0
LINE
  5
2FA
330
2E3
100
AcDbEntity
  8
VER
100
AcDbLine
 10
3.5
 20
-2.020725942163694
 30
0.0
 11
0.0
 21
-4.041451884327383
 31
0.0
  0
LINE
  5
2FB
330
2E3
100
AcDbEntity
  8
VER
100
AcDbLine
 10
3.5
 20
2.020725942163687
 30
0.0
 11
3.5
 21
-2.020725942163694
 31
0.0
  0
CIRCLE
  5
2FC
330
2E3
100
AcDbEntity
  8
VER
100
AcDbCircle
 10
0.0
 20
-0.0000000000000006
 30
0.0
 40
3.9
  0
CIRCLE
  5
2FD
330
2E3
100
AcDbEntity
  8
VER
100
AcDbCircle
 10
0.0
 20
-0.0000000000000006
 30
0.0
 40
5.587
  0
CIRCLE
  5
2FE
330
2E3
100
AcDbEntity
  8
VER
100
AcDbCircle
 10
0.0
 20
-0.0000000000000005
 30
0.0
 40
17.65243934902617
  0
CIRCLE
  5
2FF
330
2E3
100
AcDbEntity
  8
VER
100
AcDbCircle
 10
0.0
 20
-0.0000000000000005
 30
0.0
 40
18.10915728752538
  0
CIRCLE
  5
300
330
2E3
100
AcDbEntity
  8
VER
100
AcDbCircle
 10
0.0
 20
-0.0000000000000005
 30
0.0
 40
18.2505786437627
  0
CIRCLE
  5
301
330
2E3
100
AcDbEntity
  8
VER
100
AcDbCircle
 10
0.0
 20
-0.0000000000000005
 30
0.0
 40
17.49192245098671
  0
ARC
  5
302
330
2E3
100
AcDbEntity
  8
VER
100
AcDbCircle
 10
0.0000000000000934
 20
-0.0000000000010356
 30
0.0
 40
5.621910129857474
100
AcDbArc
 50
92.62743660666288
 51
97.66649223656309
  0
ARC
  5
303
330
2E3
100
AcDbEntity
  8
VER
100
AcDbCircle
 10
0.0000000000012248
 20
-0.000000000000556
 30
0.0
 40
5.621910129857779
100
AcDbArc
 50
152.6274366066632
 51
157.666492236563
  0
ARC
  5
304
330
2E3
100
AcDbEntity
  8
VER
100
AcDbCircle
 10
-0.0000000000000403
 20
-0.0000000000005249
 30
0.0
 40
5.62191012985591
100
AcDbArc
 50
262.3335077634362
 51
267.3725633933372
  0
ARC
  5
305
330
2E3
100
AcDbEntity
  8
VER
100
AcDbCircle
 10
0.0000000000000254
 20
-0.0000000000003615
 30
0.0
 40
5.621910129856074
100
AcDbArc
 50
272.6274366066629
 51
277.6664922365638
  0
ARC
  5
306
330
2E3
100
AcDbEntity
  8
VER
100
AcDbCircle
 10
0.0000000000003011
 20
0.0000000000001279
 30
0.0
 40
5.621910129856108
100
AcDbArc
 50
22.33350776343642
 51
27.37256339333786
  0
ARC
  5
307
330
2E3
100
AcDbEntity
  8
VER
100
AcDbCircle
 10
0.0000000000008376
 20
-0.0000000000003926
 30
0.0
 40
5.621910129855512
100
AcDbArc
 50
332.6274366066625
 51
337.666492236564
  0
ARC
  5
308
330
2E3
100
AcDbEntity
  8
VER
100
AcDbCircle
 10
-0.0000000000003437
 20
0.000000000000262
 30
0.0
 40
5.621910129856868
100
AcDbArc
 50
322.3335077634366
 51
327.3725633933366
  0
ARC
  5
309
330
2E3
100
AcDbEntity
  8
VER
100
AcDbCircle
 10
0.0000000000002949
 20
-0.0000000000002105
 30
0.0
 40
5.621910129856797
100
AcDbArc
 50
142.3335077634366
 51
147.3725633933377
  0
ARC
  5
30A
330
2E3
100
AcDbEntity
  8
VER
100
AcDbCircle
 10
-0.0000000000000803
 20
-0.0000000000008686
 30
0.0
 40
5.621910129857307
100
AcDbArc
 50
82.33350776343683
 51
87.37256339333713
  0
ARC
  5
30B
330
2E3
100
AcDbEntity
  8
VER
100
AcDbCircle
 10
-0.0000000000010774
 20
-0.0000000000007607
 30
0.0
 40
5.621910129857753
100
AcDbArc
 50
32.62743660666298
 51
37.66649223656297
  0
ARC
  5
30C
330
2E3
100
AcDbEntity
  8
VER
100
AcDbCircle
 10
0.0000000000005071
 20
0.0000000000002371
 30
0.0
 40
5.621910129856995
100
AcDbArc
 50
202.3335077634368
 51
207.372563393337
  0
ARC
  5
30D
330
2E3
100
AcDbEntity
  8
VER
100
AcDbCircle
 10
0.0000000000010436
 20
0.0000000000007381
 30
0.0
 40
5.621910129857714
100
AcDbArc
 50
212.6274366066633
 51
217.666492236563
  0
CIRCLE
  5
30E
330
2E3
100
AcDbEntity
  8
VER
100
AcDbCircle
 10
0.0
 20
-0.0000000000000005
 30
0.0
 40
19.0312586714815
  0
CIRCLE
  5
30F
330
2E3
100
AcDbEntity
  8
VER
100
AcDbCircle
 10
0.0
 20
-0.0000000000000005
 30
0.0
 40
19.08768084963581
  0
ARC
  5
310
330
2E3
100
AcDbEntity
  8
VER
100
AcDbCircle
 10
-0.0000000000000115
 20
0.000000000000032
 30
0.0
 40
16.03373172087034
100
AcDbArc
 50
272.6810677292355
 51
327.3189322707644
  0
LWPOLYLINE
  5
311
330
2E3
100
AcDbEntity
  8
VER
100
AcDbPolyline
 90
        4
 70
     0
 43
0.0
 10
13.96704225502598
 20
-8.063875605722133
 10
13.95345774691686
 20
-8.084101548026466
 10
13.72769525849472
 20
-8.413777077874938
 10
13.53796168348009
 20
-8.682171226020513
  0
LWPOLYLINE
  5
312
330
2E3
100
AcDbEntity
  8
VER
100
AcDbPolyline
 90
        4
 70
     0
 43
0.0
 10
0.75
 20
-16.06530434634282
 10
0.4226970619737925
 20
-16.09542136820489
 10
0.0243084339078646
 20
-16.12609965347589
 10
0.0
 20
-16.12775121144426
  0
ARC
  5
313
330
2E3
100
AcDbEntity
  8
VER
100
AcDbCircle
 10
0.0000000000000142
 20
0.0
 30
0.0
 40
16.03373172087032
100
AcDbArc
 50
152.6810677292355
 51
207.3189322707645
  0
LWPOLYLINE
  5
314
330
2E3
100
AcDbEntity
  8
VER
100
AcDbPolyline
 90
        4
 70
     0
 43
0.0
 10
-14.28796168347782
 20
7.383133120342538
 10
-14.15039232046347
 20
7.681644290336048
 10
-13.97776618081931
 20
8.041998105455338
 10
-13.96704225502598
 20
8.06387560572213
  0
LWPOLYLINE
  5
315
330
2E3
100
AcDbEntity
  8
VER
100
AcDbPolyline
 90
        4
 70
     0
 43
0.0
 10
-13.96704225502598
 20
-8.063875605722133
 10
-13.97776618082364
 20
-8.04199810544742
 10
-14.15039232046728
 20
-7.681644290327972
 10
-14.28796168347783
 20
-7.38313312034254
  0
ARC
  5
316
330
2E3
100
AcDbEntity
  8
VER
100
AcDbCircle
 10
0.0000000000000169
 20
-0.000000000000032
 30
0.0
 40
16.03373172087034
100
AcDbArc
 50
92.68106772923552
 51
147.3189322707645
  0
LWPOLYLINE
  5
317
330
2E3
100
AcDbEntity
  8
VER
100
AcDbPolyline
 90
        4
 70
     0
 43
0.0
 10
-13.96704225502598
 20
8.06387560572213
 10
-13.9534577469235
 20
8.084101548016198
 10
-13.72769525850167
 20
8.413777077864943
 10
-13.53796168347782
 20
8.6821712260192
  0
LWPOLYLINE
  5
318
330
2E3
100
AcDbEntity
  8
VER
100
AcDbPolyline
 90
        4
 70
     0
 43
0.0
 10
-0.75
 20
16.06530434636182
 10
-0.4226970619598251
 20
16.09542136820607
 10
-0.0243084338938172
 20
16.12609965347665
 10
0.0
 20
16.12775121144426
  0
ARC
  5
319
330
2E3
100
AcDbEntity
  8
VER
100
AcDbCircle
 10
-0.0000000000000107
 20
-0.000000000000016
 30
0.0
 40
16.03373172087029
100
AcDbArc
 50
212.6810677292355
 51
267.3189322707645
  0
LWPOLYLINE
  5
31A
330
2E3
100
AcDbEntity
  8
VER
100
AcDbPolyline
 90
        4
 70
     0
 43
0.0
 10
-13.53796168347782
 20
-8.682171226019202
 10
-13.72769525849509
 20
-8.41377707787438
 10
-13.9534577469173
 20
-8.084101548025975
 10
-13.96704225502598
 20
-8.063875605722133
  0
LWPOLYLINE
  5
31B
330
2E3
100
AcDbEntity
  8
VER
100
AcDbPolyline
 90
        4
 70
     0
 43
0.0
 10
0.0
 20
-16.12775121144426
 10
-0.0243084339078646
 20
-16.12609965347589
 10
-0.4226970619737925
 20
-16.09542136820489
 10
-0.75
 20
-16.06530434634282
  0
ARC
  5
31C
330
2E3
100
AcDbEntity
  8
VER
100
AcDbCircle
 10
0.0000000000000124
 20
0.000000000000016
 30
0.0
 40
16.03373172087029
100
AcDbArc
 50
32.68106772923543
 51
87.31893227076459
  0
LWPOLYLINE
  5
31D
330
2E3
100
AcDbEntity
  8
VER
100
AcDbPolyline
 90
        4
 70
     0
 43
0.0
 10
13.53796168347782
 20
8.682171226019195
 10
13.72769525850241
 20
8.41377707786387
 10
13.95345774692418
 20
8.08410154801507
 10
13.96704225502598
 20
8.06387560572213
  0
LWPOLYLINE
  5
31E
330
2E3
100
AcDbEntity
  8
VER
100
AcDbPolyline
 90
        4
 70
     0
 43
0.0
 10
0.0
 20
16.12775121144426
 10
0.0243084338938172
 20
16.12609965347665
 10
0.4226970619598251
 20
16.09542136820607
 10
0.75
 20
16.06530434636181
  0
ARC
  5
31F
330
2E3
100
AcDbEntity
  8
VER
100
AcDbCircle
 10
0.000000000000016
 20
0.0
 30
0.0
 40
16.03373172087029
100
AcDbArc
 50
332.6810677292355
 51
27.31893227076458
  0
LWPOLYLINE
  5
320
330
2E3
100
AcDbEntity
  8
VER
100
AcDbPolyline
 90
        4
 70
     0
 43
0.0
 10
13.96704225502598
 20
8.06387560572213
 10
13.97776618081774
 20
8.041998105458465
 10
14.15039232046198
 20
7.681644290339202
 10
14.28796168347782
 20
7.383133120342546
  0
LWPOLYLINE
  5
321
330
2E3
100
AcDbEntity
  8
VER
100
AcDbPolyline
 90
        4
 70
     0
 43
0.0
 10
14.28796168347783
 20
-7.383133120342546
 10
14.15039232046661
 20
-7.68164429032939
 10
13.97776618082279
 20
-8.041998105448792
 10
13.96704225502598
 20
-8.063875605722133
  0
CIRCLE
  5
322
330
2E3
100
AcDbEntity
  8
VER
100
AcDbCircle
 10
0.0
 20
-0.0000000000000005
 30
0.0
 40
19.16960883597907
  0
CIRCLE
  5
323
330
2E3
100
AcDbEntity
  8
VER
100
AcDbCircle
 10
0.0
 20
-0.0000000000000004
 30
0.0
 40
19.175
  0
LWPOLYLINE
  5
324
330
2E3
100
AcDbEntity
  8
VER
100
AcDbPolyline
 90
       14
 70
     0
 43
0.0
 10
-0.2577159447577638
 20
5.616000000000001
 10
-0.2626199368410381
 20
5.616190120503353
 10
-0.2591628025203181
 20
5.616776875479316
 10
-0.2454557207395044
 20
5.617850647267906
 10
-0.2134915790225176
 20
5.619692285763771
 10
-0.1430600774460093
 20
5.622531025425243
 10
-0.0036196468471376
 20
5.624729597031202
 10
0.1444823228448298
 20
5.622486302360242
 10
0.190860707797231
 20
5.62075333967
 10
0.2403793122767108
 20
5.618181675608013
 10
0.2559068156116576
 20
5.617074695380709
 10
0.2626165390208341
 20
5.616273310218642
 10
0.2589667103711553
 20
5.616004154959777
 10
0.2577159447577676
 20
5.616000000000001
  0
LINE
  5
325
330
2E3
100
AcDbEntity
  8
VER
100
AcDbLine
 10
-0.75
 20
7.116000000000001
 30
0.0
 11
0.75
 21
7.116000000000001
 31
0.0
  0
LINE
  5
326
330
2E3
100
AcDbEntity
  8
VER
100
AcDbLine
 10
-0.75
 20
5.616000000000001
 30
0.0
 11
-0.2577159447577638
 21
5.616000000000001
 31
0.0
  0
LINE
  5
327
330
2E3
100
AcDbEntity
  8
VER
100
AcDbLine
 10
0.2577159447577676
 20
5.616000000000001
 30
0.0
 11
0.75
 21
5.616000000000001
 31
0.0
  0
LWPOLYLINE
  5
328
330
2E3
100
AcDbEntity
  8
VER
100
AcDbPolyline
 90
       14
 70
     0
 43
0.0
 10
-4.992456640032295
 20
2.584811444879464
 10
-4.995073285259609
 20
2.580659523407075
 10
-4.993852862814218
 20
2.583946867041118
 10
-4.987929235570601
 20
2.596354433969339
 10
-4.973542070434118
 20
2.624957011954344
 10
-4.940784740307409
 20
2.687371851377052
 10
-4.872968543870762
 20
2.809230092393313
 10
-4.79697480885155
 20
2.936368513161591
 10
-4.772284826661804
 20
2.97566689137172
 10
-4.745298398014408
 20
3.017265428779872
 10
-4.736575973348605
 20
3.030159151011627
 10
-4.732527091735449
 20
3.035569249355312
 10
-4.734118910768548
 20
3.032273827395797
 10
-4.734740695274541
 20
3.03118855512051
  0
LINE
  5
329
330
2E3
100
AcDbEntity
  8
VER
100
AcDbLine
 10
-6.537636773330066
 20
2.908480947161672
 30
0.0
 11
-5.787636773330066
 21
4.20751905283833
 31
0.0
  0
LINE
  5
32A
330
2E3
100
AcDbEntity
  8
VER
100
AcDbLine
 10
-5.238598667653409
 20
2.158480947161673
 30
0.0
 11
-4.992456640032295
 21
2.584811444879464
 31
0.0
  0
LINE
  5
32B
330
2E3
100
AcDbEntity
  8
VER
100
AcDbLine
 10
-4.734740695274541
 20
3.03118855512051
 30
0.0
 11
-4.488598667653408
 21
3.45751905283833
 31
0.0
  0
LINE
  5
32C
330
2E3
100
AcDbEntity
  8
VER
100
AcDbLine
 10
-12.04815641761045
 20
6.089980947161672
 30
0.0
 11
-11.29815641761045
 21
7.389019052838329
 31
0.0
  0
LINE
  5
32D
330
2E3
100
AcDbEntity
  8
VER
100
AcDbLine
 10
-0.75
 20
-13.479
 30
0.0
 11
0.75
 21
-13.479
 31
0.0
  0
LINE
  5
32E
330
2E3
100
AcDbEntity
  8
VER
100
AcDbLine
 10
-12.04815641761045
 20
-6.089980947161672
 30
0.0
 11
-11.29815641761045
 21
-7.38901905283833
 31
0.0
  0
LINE
  5
32F
330
2E3
100
AcDbEntity
  8
VER
100
AcDbLine
 10
11.29815641761045
 20
-7.389019052838331
 30
0.0
 11
12.04815641761045
 21
-6.089980947161673
 31
0.0
  0
LINE
  5
330
330
2E3
100
AcDbEntity
  8
VER
100
AcDbLine
 10
-0.75
 20
13.479
 30
0.0
 11
0.75
 21
13.479
 31
0.0
  0
LWPOLYLINE
  5
331
330
2E3
100
AcDbEntity
  8
VER
100
AcDbPolyline
 90
       14
 70
     0
 43
0.0
 10
0.2577159447578165
 20
-5.616
 10
0.2626199368410745
 20
-5.616190120503351
 10
0.2591628025203409
 20
-5.616776875479315
 10
0.2454557207395321
 20
-5.617850647267904
 10
0.213491579022548
 20
-5.619692285763771
 10
0.1430600774460081
 20
-5.622531025425243
 10
0.003619646847106
 20
-5.624729597031202
 10
-0.1444823228448791
 20
-5.62248630236024
 10
-0.1908607077972801
 20
-5.620753339669998
 10
-0.2403793122767486
 20
-5.618181675608012
 10
-0.2559068156116899
 20
-5.617074695380709
 10
-0.2626165390208795
 20
-5.616273310218642
 10
-0.2589667103712295
 20
-5.616004154959775
 10
-0.2577159447578165
 20
-5.616
  0
LINE
  5
332
330
2E3
100
AcDbEntity
  8
VER
100
AcDbLine
 10
-0.75
 20
-7.116
 30
0.0
 11
0.75
 21
-7.116
 31
0.0
  0
LINE
  5
333
330
2E3
100
AcDbEntity
  8
VER
100
AcDbLine
 10
0.2577159447578165
 20
-5.616
 30
0.0
 11
0.75
 21
-5.616
 31
0.0
  0
LINE
  5
334
330
2E3
100
AcDbEntity
  8
VER
100
AcDbLine
 10
-0.75
 20
-5.616
 30
0.0
 11
-0.2577159447578165
 21
-5.616
 31
0.0
  0
LINE
  5
335
330
2E3
100
AcDbEntity
  8
VER
100
AcDbLine
 10
11.29815641761045
 20
7.389019052838329
 30
0.0
 11
12.04815641761045
 21
6.089980947161672
 31
0.0
  0
LWPOLYLINE
  5
336
330
2E3
100
AcDbEntity
  8
VER
100
AcDbPolyline
 90
       14
 70
     0
 43
0.0
 10
4.992456640032315
 20
-2.584811444879425
 10
4.995073285259759
 20
-2.580659523406946
 10
4.993852862813725
 20
-2.583946867042224
 10
4.987929235569148
 20
-2.596354433972303
 10
4.973542070430737
 20
-2.624957011960951
 10
4.940784740299776
 20
-2.687371851391287
 10
4.872968543856862
 20
-2.80923009241743
 10
4.796974808833074
 20
-2.936368513191378
 10
4.772284826648639
 20
-2.975666891392394
 10
4.745298398009893
 20
-3.017265428786666
 10
4.736575973346054
 20
-3.030159151015299
 10
4.732527091735109
 20
-3.035569249355551
 10
4.734118910769611
 20
-3.032273827393917
 10
4.734740695274499
 20
-3.031188555120578
  0
LINE
  5
337
330
2E3
100
AcDbEntity
  8
VER
100
AcDbLine
 10
4.992456640032315
 20
-2.584811444879425
 30
0.0
 11
5.238598667653407
 21
-2.158480947161672
 31
0.0
  0
LINE
  5
338
330
2E3
100
AcDbEntity
  8
VER
100
AcDbLine
 10
5.787636773330066
 20
-4.207519052838329
 30
0.0
 11
6.537636773330065
 21
-2.908480947161672
 31
0.0
  0
LINE
  5
339
330
2E3
100
AcDbEntity
  8
VER
100
AcDbLine
 10
4.488598667653406
 20
-3.457519052838329
 30
0.0
 11
4.734740695274499
 21
-3.031188555120578
 31
0.0
  0
LWPOLYLINE
  5
33A
330
2E3
100
AcDbEntity
  8
VER
100
AcDbPolyline
 90
       14
 70
     0
 43
0.0
 10
-4.734740695274513
 20
-3.031188555120555
 10
-4.732453348418547
 20
-3.035530597096321
 10
-4.734690060293906
 20
-3.032830008438232
 10
-4.742473514831089
 20
-3.02149621329861
 10
-4.760050491411596
 20
-2.994735273809455
 10
-4.797724662861416
 20
-2.935159174048249
 10
-4.869348897023655
 20
-2.815499504637959
 10
-4.941457131696414
 20
-2.686117789198723
 10
-4.963145534459064
 20
-2.645086448298312
 10
-4.985677710291136
 20
-2.600916246828112
 10
-4.992482788960276
 20
-2.586915544369051
 10
-4.995143630756302
 20
-2.580704060863297
 10
-4.993085621139731
 20
-2.583730327563929
 10
-4.992456640032307
 20
-2.584811444879439
  0
LINE
  5
33B
330
2E3
100
AcDbEntity
  8
VER
100
AcDbLine
 10
-6.537636773330064
 20
-2.908480947161673
 30
0.0
 11
-5.787636773330065
 21
-4.20751905283833
 31
0.0
  0
LINE
  5
33C
330
2E3
100
AcDbEntity
  8
VER
100
AcDbLine
 10
-4.734740695274513
 20
-3.031188555120555
 30
0.0
 11
-4.488598667653406
 21
-3.45751905283833
 31
0.0
  0
LINE
  5
33D
330
2E3
100
AcDbEntity
  8
VER
100
AcDbLine
 10
-5.238598667653407
 20
-2.158480947161672
 30
0.0
 11
-4.992456640032307
 21
-2.584811444879439
 31
0.0
  0
LWPOLYLINE
  5
33E
330
2E3
100
AcDbEntity
  8
VER
100
AcDbPolyline
 90
       14
 70
     0
 43
0.0
 10
4.734740695274529
 20
3.031188555120527
 10
4.73245334841857
 20
3.035530597096288
 10
4.734690060293942
 20
3.032830008438181
 10
4.742473514831169
 20
3.021496213298487
 10
4.760050491411739
 20
2.994735273809231
 10
4.797724662861712
 20
2.935159174047772
 10
4.869348897024116
 20
2.815499504637161
 10
4.941457131696956
 20
2.686117789197711
 10
4.963145534459405
 20
2.645086448297654
 10
4.985677710291231
 20
2.600916246827918
 10
4.992482788960321
 20
2.586915544368952
 10
4.99514363075629
 20
2.580704060863311
 10
4.993085621139678
 20
2.583730327564023
 10
4.992456640032288
 20
2.584811444879473
  0
LINE
  5
33F
330
2E3
100
AcDbEntity
  8
VER
100
AcDbLine
 10
4.488598667653408
 20
3.45751905283833
 30
0.0
 11
4.734740695274529
 21
3.031188555120527
 31
0.0
  0
LINE
  5
340
330
2E3
100
AcDbEntity
  8
VER
100
AcDbLine
 10
5.787636773330066
 20
4.20751905283833
 30
0.0
 11
6.537636773330066
 21
2.908480947161672
 31
0.0
  0
LINE
  5
341
330
2E3
100
AcDbEntity
  8
VER
100
AcDbLine
 10
4.992456640032288
 20
2.584811444879473
 30
0.0
 11
5.238598667653409
 21
2.158480947161672
 31
0.0
  0
CIRCLE
  5
342
330
2E3
100
AcDbEntity
  8
VER
100
AcDbCircle
 10
0.0
 20
-0.0000000000000004
 30
0.0
 40
18.70058379982114
  0
CIRCLE
  5
343
330
2E3
100
AcDbEntity
  8
VER
100
AcDbCircle
 10
5.750000000000001
 20
9.959292143521042
 30
0.0
 40
0.8999999999999996
  0
CIRCLE
  5
344
330
2E3
100
AcDbEntity
  8
VER
100
AcDbCircle
 10
-11.5
 20
-0.0000000000000004
 30
0.0
 40
0.9000000000000015
  0
CIRCLE
  5
345
330
2E3
100
AcDbEntity
  8
VER
100
AcDbCircle
 10
5.749999999999997
 20
-9.959292143521047
 30
0.0
 40
0.9000000000000015
  0
ARC
  5
346
330
2E3
100
AcDbEntity
  8
VER
100
AcDbCircle
 10
-11.5
 20
0.0000000000000001
 30
0.0
 40
1.981930256614256
100
AcDbArc
 50
270.0
 51
90.0
  0
ARC
  5
347
330
2E3
100
AcDbEntity
  8
VER
100
AcDbCircle
 10
5.750000000000004
 20
9.959292143521045
 30
0.0
 40
1.981930256614264
100
AcDbArc
 50
90.00000000000006
 51
269.9999999999999
  0
ARC
  5
348
330
2E3
100
AcDbEntity
  8
VER
100
AcDbCircle
 10
5.749999999999996
 20
-9.959292143521049
 30
0.0
 40
1.981930256614255
100
AcDbArc
 50
90.00000000000006
 51
270.0
  0
LINE
  5
349
330
2E3
100
AcDbEntity
  8
VER
100
AcDbLine
 10
5.750000000000002
 20
11.95929214352104
 30
0.0
 11
5.750000000000002
 21
11.45929214352105
 31
0.0
  0
ARC
  5
34A
330
2E3
100
AcDbEntity
  8
VER
100
AcDbCircle
 10
5.750000000000001
 20
9.959292143521042
 30
0.0
 40
2.000000000000002
100
AcDbArc
 50
89.99999999999996
 51
270.0
  0
LINE
  5
34B
330
2E3
100
AcDbEntity
  8
VER
100
AcDbLine
 10
5.75
 20
7.959292143521038
 30
0.0
 11
5.749999999999999
 21
8.459292143521042
 31
0.0
  0
LINE
  5
34C
330
2E3
100
AcDbEntity
  8
VER
100
AcDbLine
 10
5.749999999999997
 20
-11.95929214352105
 30
0.0
 11
5.749999999999997
 21
-11.45929214352105
 31
0.0
  0
LINE
  5
34D
330
2E3
100
AcDbEntity
  8
VER
100
AcDbLine
 10
5.749999999999995
 20
-7.959292143521049
 30
0.0
 11
5.749999999999995
 21
-8.459292143521044
 31
0.0
  0
ARC
  5
34E
330
2E3
100
AcDbEntity
  8
VER
100
AcDbCircle
 10
5.749999999999996
 20
-9.95929214352105
 30
0.0
 40
2.000000000000002
100
AcDbArc
 50
90.00000000000006
 51
270.0
  0
ARC
  5
34F
330
2E3
100
AcDbEntity
  8
VER
100
AcDbCircle
 10
-11.5
 20
-0.0000000000000002
 30
0.0
 40
2.0
100
AcDbArc
 50
270.0
 51
90.0
  0
LINE
  5
350
330
2E3
100
AcDbEntity
  8
VER
100
AcDbLine
 10
-11.5
 20
2.0
 30
0.0
 11
-11.5
 21
1.500000000000001
 31
0.0
  0
LINE
  5
351
330
2E3
100
AcDbEntity
  8
VER
100
AcDbLine
 10
-11.5
 20
-2.0
 30
0.0
 11
-11.5
 21
-1.500000000000002
 31
0.0
  0
ARC
  5
352
330
2E3
100
AcDbEntity
  8
VER
100
AcDbCircle
 10
-11.49999999999999
 20
-0.0000000000000082
 30
0.0
 40
2.168605026100253
100
AcDbArc
 50
283.3302179772733
 51
346.6697820227267
  0
ARC
  5
353
330
2E3
100
AcDbEntity
  8
VER
100
AcDbCircle
 10
5.749999999999997
 20
-9.959292143521047
 30
0.0
 40
2.168605026100264
100
AcDbArc
 50
43.33021797727342
 51
106.6697820227264
  0
ARC
  5
354
330
2E3
100
AcDbEntity
  8
VER
100
AcDbCircle
 10
5.749999999999999
 20
9.959292143521054
 30
0.0
 40
2.168605026100249
100
AcDbArc
 50
73.33021797727345
 51
136.6697820227268
  0
ARC
  5
355
330
2E3
100
AcDbEntity
  8
VER
100
AcDbCircle
 10
-11.5
 20
-0.0000000000000022
 30
0.0
 40
2.168605026100261
100
AcDbArc
 50
193.3302179772734
 51
256.6697820227265
  0
ARC
  5
356
330
2E3
100
AcDbEntity
  8
VER
100
AcDbCircle
 10
5.749999999999993
 20
-9.959292143521047
 30
0.0
 40
2.168605026100261
100
AcDbArc
 50
133.3302179772732
 51
196.6697820227267
  0
ARC
  5
357
330
2E3
100
AcDbEntity
  8
VER
100
AcDbCircle
 10
-11.49999999999999
 20
-0.0000000000000078
 30
0.0
 40
2.168605026100273
100
AcDbArc
 50
103.3302179772737
 51
166.6697820227264
  0
ARC
  5
358
330
2E3
100
AcDbEntity
  8
VER
100
AcDbCircle
 10
5.749999999999989
 20
-9.959292143521044
 30
0.0
 40
2.168605026100273
100
AcDbArc
 50
313.3302179772737
 51
16.6697820227264
  0
ARC
  5
359
330
2E3
100
AcDbEntity
  8
VER
100
AcDbCircle
 10
5.75
 20
-9.959292143521044
 30
0.0
 40
2.168605026100269
100
AcDbArc
 50
223.3302179772735
 51
286.6697820227267
  0
ARC
  5
35A
330
2E3
100
AcDbEntity
  8
VER
100
AcDbCircle
 10
5.749999999999999
 20
9.959292143521049
 30
0.0
 40
2.168605026100267
100
AcDbArc
 50
253.3302179772735
 51
316.6697820227265
  0
ARC
  5
35B
330
2E3
100
AcDbEntity
  8
VER
100
AcDbCircle
 10
-11.5
 20
0.0000000000000018
 30
0.0
 40
2.168605026100261
100
AcDbArc
 50
13.33021797727341
 51
76.66978202272658
  0
ARC
  5
35C
330
2E3
100
AcDbEntity
  8
VER
100
AcDbCircle
 10
5.749999999999995
 20
9.959292143521044
 30
0.0
 40
2.168605026100255
100
AcDbArc
 50
163.3302179772734
 51
226.6697820227266
  0
ARC
  5
35D
330
2E3
100
AcDbEntity
  8
VER
100
AcDbCircle
 10
5.750000000000005
 20
9.959292143521044
 30
0.0
 40
2.168605026100257
100
AcDbArc
 50
343.3302179772734
 51
46.66978202272672
  0
CIRCLE
  5
35E
330
2E3
100
AcDbEntity
  8
VER
100
AcDbCircle
 10
0.0
 20
-0.0000000000000003
 30
0.0
 40
19.99999999999985
  0
CIRCLE
  5
35F
330
2E3
100
AcDbEntity
  8
VER
100
AcDbCircle
 10
0.0
 20
-0.0000000000000003
 30
0.0
 40
19.53502019829948
  0
CIRCLE
  5
360
330
2E3
100
AcDbEntity
  8
VER
100
AcDbCircle
 10
0.0
 20
-0.0000000000000003
 30
0.0
 40
18.18599192068022
  0
CIRCLE
  5
361
330
2E3
100
AcDbEntity
  8
VER
100
AcDbCircle
 10
0.0
 20
-0.0000000000000003
 30
0.0
 40
18.0000000000002
  0
CIRCLE
  5
362
330
2E3
100
AcDbEntity
  8
VER
100
AcDbCircle
 10
0.0
 20
-0.0000000000000003
 30
0.0
 40
18.19999995860065
  0
CIRCLE
  5
363
330
2E3
100
AcDbEntity
  8
VER
100
AcDbCircle
 10
0.0
 20
-0.0000000000000002
 30
0.0
 40
18.29488324003577
  0
CIRCLE
  5
364
330
2E3
100
AcDbEntity
  8
VER
100
AcDbCircle
 10
0.0
 20
-0.0000000000000002
 30
0.0
 40
18.40000000000001
  0
CIRCLE
  5
365
330
2E3
100
AcDbEntity
  8
VER
100
AcDbCircle
 10
0.0
 20
-0.0000000000000002
 30
0.0
 40
19.66611440986726
  0
CIRCLE
  5
366
330
2E3
100
AcDbEntity
  8
VER
100
AcDbCircle
 10
0.0
 20
-0.0000000000000002
 30
0.0
 40
19.9
  0
CIRCLE
  5
367
330
2E3
100
AcDbEntity
  8
VER
100
AcDbCircle
 10
0.0
 20
-0.0000000000000002
 30
0.0
 40
19.50706482824415
  0
CIRCLE
  5
368
330
2E3
100
AcDbEntity
  8
VER
100
AcDbCircle
 10
0.0
 20
-0.0000000000000002
 30
0.0
 40
18.53233792938962
  0
ARC
  5
369
330
2E3
100
AcDbEntity
  8
VER
100
AcDbCircle
 10
-0.0000000000000178
 20
-0.0000000000000231
 30
0.0
 40
15.93230830326633
100
AcDbArc
 50
212.6981477150227
 51
267.3018522849773
  0
ARC
  5
36A
330
2E3
100
AcDbEntity
  8
VER
100
AcDbCircle
 10
0.0000000000000249
 20
0.0000000000000391
 30
0.0
 40
15.93230830326632
100
AcDbArc
 50
32.69814771502272
 51
87.3018522849773
  0
ARC
  5
36B
330
2E3
100
AcDbEntity
  8
VER
100
AcDbCircle
 10
-0.0000000000000053
 20
-0.0000000000000036
 30
0.0
 40
15.93230830326636
100
AcDbArc
 50
92.69814771502278
 51
147.3018522849772
  0
ARC
  5
36C
330
2E3
100
AcDbEntity
  8
VER
100
AcDbCircle
 10
0.0000000000000213
 20
0.0
 30
0.0
 40
15.93230830326638
100
AcDbArc
 50
152.6981477150228
 51
207.3018522849772
  0
ARC
  5
36D
330
2E3
100
AcDbEntity
  8
VER
100
AcDbCircle
 10
0.0000000000000036
 20
0.0000000000000053
 30
0.0
 40
15.93230830326636
100
AcDbArc
 50
272.6981477150227
 51
327.3018522849773
  0
ARC
  5
36E
330
2E3
100
AcDbEntity
  8
VER
100
AcDbCircle
 10
-0.0000000000000249
 20
0.0000000000000004
 30
0.0
 40
15.93230830326638
100
AcDbArc
 50
332.6981477150227
 51
27.30185228497719
  0
LINE
  5
36F
330
2E3
100
AcDbEntity
  8
VER
100
AcDbLine
 10
-0.75
 20
-5.571658057363392
 30
0.0
 11
-0.75
 21
-16.06530434634282
 31
0.0
  0
LINE
  5
370
330
2E3
100
AcDbEntity
  8
VER
100
AcDbLine
 10
-4.450197418876953
 20
-3.435348081520026
 30
0.0
 11
-13.53796168347782
 21
-8.682171226019202
 31
0.0
  0
LINE
  5
371
330
2E3
100
AcDbEntity
  8
VER
100
AcDbLine
 10
5.200197418876952
 20
-2.136309975843368
 30
0.0
 11
14.28796168347783
 21
-7.383133120342546
 31
0.0
  0
LINE
  5
372
330
2E3
100
AcDbEntity
  8
VER
100
AcDbLine
 10
-0.75
 20
16.06530434636182
 30
0.0
 11
-0.75
 21
5.571658057363392
 31
0.0
  0
LINE
  5
373
330
2E3
100
AcDbEntity
  8
VER
100
AcDbLine
 10
-14.28796168347782
 20
7.383133120342538
 30
0.0
 11
-5.200197418876952
 21
2.136309975843367
 31
0.0
  0
LINE
  5
374
330
2E3
100
AcDbEntity
  8
VER
100
AcDbLine
 10
14.28796168347782
 20
7.383133120342546
 30
0.0
 11
5.200197418876952
 21
2.136309975843367
 31
0.0
  0
LINE
  5
375
330
2E3
100
AcDbEntity
  8
VER
100
AcDbLine
 10
-13.53796168347782
 20
8.6821712260192
 30
0.0
 11
-4.450197418876952
 21
3.435348081520025
 31
0.0
  0
ARC
  5
376
330
2E3
100
AcDbEntity
  8
VER
100
AcDbCircle
 10
-11.50000000000024
 20
-0.0000000000002389
 30
0.0
 40
2.866136612989507
100
AcDbArc
 50
10.04670320672686
 51
79.95329679327315
  0
ARC
  5
377
330
2E3
100
AcDbEntity
  8
VER
100
AcDbCircle
 10
-11.50000000000024
 20
0.0000000000002385
 30
0.0
 40
2.866136612989506
100
AcDbArc
 50
280.0467032067269
 51
349.9532967932732
  0
ARC
  5
378
330
2E3
100
AcDbEntity
  8
VER
100
AcDbCircle
 10
-11.49999999999976
 20
-0.0000000000002349
 30
0.0
 40
2.866136612989502
100
AcDbArc
 50
100.0467032067268
 51
169.9532967932732
  0
ARC
  5
379
330
2E3
100
AcDbEntity
  8
VER
100
AcDbCircle
 10
5.75
 20
9.959292143521044
 30
0.0
 40
2.866136612989171
100
AcDbArc
 50
70.04670320672328
 51
139.9532967932768
  0
ARC
  5
37A
330
2E3
100
AcDbEntity
  8
VER
100
AcDbCircle
 10
5.750000000000002
 20
9.959292143521044
 30
0.0
 40
2.866136612989172
100
AcDbArc
 50
160.0467032067232
 51
229.9532967932768
  0
ARC
  5
37B
330
2E3
100
AcDbEntity
  8
VER
100
AcDbCircle
 10
5.749999999999995
 20
-9.959292143521044
 30
0.0
 40
2.866136612989174
100
AcDbArc
 50
310.0467032067234
 51
19.95329679327674
  0
ARC
  5
37C
330
2E3
100
AcDbEntity
  8
VER
100
AcDbCircle
 10
5.75
 20
-9.959292143521047
 30
0.0
 40
2.866136612989173
100
AcDbArc
 50
130.0467032067231
 51
199.9532967932768
  0
ARC
  5
37D
330
2E3
100
AcDbEntity
  8
VER
100
AcDbCircle
 10
5.750000000000003
 20
9.959292143521044
 30
0.0
 40
2.866136612989168
100
AcDbArc
 50
340.0467032067232
 51
49.95329679327694
  0
ARC
  5
37E
330
2E3
100
AcDbEntity
  8
VER
100
AcDbCircle
 10
-11.49999999999993
 20
0.0000000000001503
 30
0.0
 40
2.866136612989329
100
AcDbArc
 50
190.0467032067257
 51
259.9532967932759
  0
ARC
  5
37F
330
2E3
100
AcDbEntity
  8
VER
100
AcDbCircle
 10
5.749999999999998
 20
-9.959292143521044
 30
0.0
 40
2.866136612989168
100
AcDbArc
 50
40.04670320672318
 51
109.9532967932767
  0
ARC
  5
380
330
2E3
100
AcDbEntity
  8
VER
100
AcDbCircle
 10
5.750000000000002
 20
9.959292143521044
 30
0.0
 40
2.86613661298917
100
AcDbArc
 50
250.0467032067231
 51
319.9532967932769
  0
ARC
  5
381
330
2E3
100
AcDbEntity
  8
VER
100
AcDbCircle
 10
5.749999999999999
 20
-9.959292143521038
 30
0.0
 40
2.866136612989178
100
AcDbArc
 50
220.0467032067234
 51
289.9532967932769
  0
LINE
  5
382
330
2E3
100
AcDbEntity
  8
VER
100
AcDbLine
 10
-11.0
 20
-3.1230376789759
 30
0.0
 11
-11.0
 21
-1.414213562373096
 31
0.0
  0
LINE
  5
383
330
2E3
100
AcDbEntity
  8
VER
100
AcDbLine
 10
4.275255128608405
 20
-10.23338622281538
 30
0.0
 11
2.795370033030879
 21
-11.08779828111678
 31
0.0
  0
LINE
  5
384
330
2E3
100
AcDbEntity
  8
VER
100
AcDbLine
 10
4.621493862404268
 20
7.004662176551926
 30
0.0
 11
5.475905920705669
 21
8.484547272129454
 31
0.0
  0
ARC
  5
385
330
2E3
100
AcDbEntity
  8
VER
100
AcDbCircle
 10
-0.0000000000000044
 20
-0.0000000000000089
 30
0.0
 40
6.247662761361567
100
AcDbArc
 50
36.8946934169773
 51
83.10530658302274
  0
ARC
  5
386
330
2E3
100
AcDbEntity
  8
VER
100
AcDbCircle
 10
-0.0000000000000013
 20
-0.0000000000000027
 30
0.0
 40
5.747738913783363
100
AcDbArc
 50
37.49768272078817
 51
82.50231727921187
  0
LINE
  5
387
330
2E3
100
AcDbEntity
  8
VER
100
AcDbLine
 10
7.224744871391589
 20
-9.685198064226718
 30
0.0
 11
8.704629966969117
 21
-8.830786005925313
 31
0.0
  0
LINE
  5
388
330
2E3
100
AcDbEntity
  8
VER
100
AcDbLine
 10
3.755468458619834
 20
-7.50466217655192
 30
0.0
 11
4.609880516921235
 21
-8.984547272129449
 31
0.0
  0
LINE
  5
389
330
2E3
100
AcDbEntity
  8
VER
100
AcDbLine
 10
5.475905920705676
 20
-8.484547272129452
 30
0.0
 11
4.621493862404273
 21
-7.004662176551922
 31
0.0
  0
LINE
  5
38A
330
2E3
100
AcDbEntity
  8
VER
100
AcDbLine
 10
8.204629966969117
 20
-7.964760602140877
 30
0.0
 11
6.72474487139159
 21
-8.81917266044228
 31
0.0
  0
LINE
  5
38B
330
2E3
100
AcDbEntity
  8
VER
100
AcDbLine
 10
-12.0
 20
-1.414213562373096
 30
0.0
 11
-12.0
 21
-3.1230376789759
 31
0.0
  0
LINE
  5
38C
330
2E3
100
AcDbEntity
  8
VER
100
AcDbLine
 10
-14.6230376789759
 20
-0.5000000000000001
 30
0.0
 11
-12.9142135623731
 21
-0.5000000000000003
 31
0.0
  0
LINE
  5
38D
330
2E3
100
AcDbEntity
  8
VER
100
AcDbLine
 10
4.609880516921232
 20
8.984547272129458
 30
0.0
 11
3.755468458619829
 21
7.504662176551926
 31
0.0
  0
CIRCLE
  5
38E
330
2E3
100
AcDbEntity
  8
VER
100
AcDbCircle
 10
5.750000000000001
 20
9.959292143521044
 30
0.0
 40
1.499999999999999
  0
ARC
  5
38F
330
2E3
100
AcDbEntity
  8
VER
100
AcDbCircle
 10
5.750000000000004
 20
9.959292143521033
 30
0.0
 40
2.070248011935173
100
AcDbArc
 50
253.976089693107
 51
316.0239103068928
  0
LINE
  5
390
330
2E3
100
AcDbEntity
  8
VER
100
AcDbLine
 10
6.724744871391588
 20
8.819172660442277
 30
0.0
 11
8.20462996696912
 21
7.964760602140877
 31
0.0
  0
LINE
  5
391
330
2E3
100
AcDbEntity
  8
VER
100
AcDbLine
 10
0.75
 20
16.06530434636181
 30
0.0
 11
0.75
 21
5.571658057363392
 31
0.0
  0
LINE
  5
392
330
2E3
100
AcDbEntity
  8
VER
100
AcDbLine
 10
13.53796168347782
 20
8.682171226019195
 30
0.0
 11
4.450197418876952
 21
3.435348081520025
 31
0.0
  0
ARC
  5
393
330
2E3
100
AcDbEntity
  8
VER
100
AcDbCircle
 10
0.0
 20
-0.0000000000000018
 30
0.0
 40
14.93246060810996
100
AcDbArc
 50
32.87895769953393
 51
87.12104230046609
  0
ARC
  5
394
330
2E3
100
AcDbEntity
  8
VER
100
AcDbCircle
 10
5.749999999999996
 20
9.959292143521045
 30
0.0
 40
2.070248011935186
100
AcDbArc
 50
343.9760896931073
 51
46.02391030689267
  0
LINE
  5
395
330
2E3
100
AcDbEntity
  8
VER
100
AcDbLine
 10
6.890119483078765
 20
10.93403701491263
 30
0.0
 11
7.744531541380166
 21
12.41392211049017
 31
0.0
  0
LINE
  5
396
330
2E3
100
AcDbEntity
  8
VER
100
AcDbLine
 10
8.704629966969119
 20
8.830786005925313
 30
0.0
 11
7.224744871391589
 21
9.685198064226713
 31
0.0
  0
ARC
  5
397
330
2E3
100
AcDbEntity
  8
VER
100
AcDbCircle
 10
-11.5
 20
-0.0000000000000037
 30
0.0
 40
2.070248011935177
100
AcDbArc
 50
193.9760896931072
 51
256.0239103068927
  0
ARC
  5
398
330
2E3
100
AcDbEntity
  8
VER
100
AcDbCircle
 10
-0.0000000000000071
 20
0.0000000000000124
 30
0.0
 40
14.93246060810995
100
AcDbArc
 50
92.87895769953391
 51
147.1210423004661
  0
CIRCLE
  5
399
330
2E3
100
AcDbEntity
  8
VER
100
AcDbCircle
 10
5.750000000000001
 20
9.959292143521044
 30
0.0
 40
0.7952696104306931
  0
ARC
  5
39A
330
2E3
100
AcDbEntity
  8
VER
100
AcDbCircle
 10
0.0000000000032117
 20
0.0000000000033751
 30
0.0
 40
14.93246060811449
100
AcDbArc
 50
212.8789576995381
 51
267.1210423004546
  0
ARC
  5
39B
330
2E3
100
AcDbEntity
  8
VER
100
AcDbCircle
 10
5.750000000000006
 20
9.959292143521045
 30
0.0
 40
2.070248011935187
100
AcDbArc
 50
163.9760896931075
 51
226.0239103068924
  0
LINE
  5
39C
330
2E3
100
AcDbEntity
  8
VER
100
AcDbLine
 10
2.795370033030882
 20
11.08779828111678
 30
0.0
 11
4.275255128608412
 21
10.23338622281537
 31
0.0
  0
LINE
  5
39D
330
2E3
100
AcDbEntity
  8
VER
100
AcDbLine
 10
3.29537003303088
 20
-11.95382368490122
 30
0.0
 11
4.775255128608408
 21
-11.09941162659982
 31
0.0
  0
CIRCLE
  5
39E
330
2E3
100
AcDbEntity
  8
VER
100
AcDbCircle
 10
5.749999999999997
 20
-9.959292143521045
 30
0.0
 40
0.7952696104306964
  0
LINE
  5
39F
330
2E3
100
AcDbEntity
  8
VER
100
AcDbLine
 10
7.744531541380174
 20
-12.41392211049016
 30
0.0
 11
6.890119483078772
 21
-10.93403701491263
 31
0.0
  0
ARC
  5
3A0
330
2E3
100
AcDbEntity
  8
VER
100
AcDbCircle
 10
5.749999999999996
 20
-9.95929214352105
 30
0.0
 40
2.070248011935178
100
AcDbArc
 50
223.9760896931073
 51
286.023910306893
  0
LINE
  5
3A1
330
2E3
100
AcDbEntity
  8
VER
100
AcDbLine
 10
6.024094079294335
 20
-11.43403701491264
 30
0.0
 11
6.878506137595736
 21
-12.91392211049016
 31
0.0
  0
ARC
  5
3A2
330
2E3
100
AcDbEntity
  8
VER
100
AcDbCircle
 10
-0.0000000000000024
 20
0.0000000000000053
 30
0.0
 40
6.247662761361562
100
AcDbArc
 50
276.8946934169773
 51
323.1053065830227
  0
ARC
  5
3A3
330
2E3
100
AcDbEntity
  8
VER
100
AcDbCircle
 10
0.00000000003055
 20
-0.000000000034837
 30
0.0
 40
5.747738913737916
100
AcDbArc
 50
277.4976827205405
 51
322.502317279302
  0
CIRCLE
  5
3A4
330
2E3
100
AcDbEntity
  8
VER
100
AcDbCircle
 10
-11.5
 20
0.0
 30
0.0
 40
1.500000000000001
  0
LINE
  5
3A5
330
2E3
100
AcDbEntity
  8
VER
100
AcDbLine
 10
-12.0
 20
3.1230376789759
 30
0.0
 11
-12.0
 21
1.414213562373096
 31
0.0
  0
LINE
  5
3A6
330
2E3
100
AcDbEntity
  8
VER
100
AcDbLine
 10
6.878506137595727
 20
12.91392211049017
 30
0.0
 11
6.024094079294325
 21
11.43403701491263
 31
0.0
  0
LINE
  5
3A7
330
2E3
100
AcDbEntity
  8
VER
100
AcDbLine
 10
4.775255128608412
 20
11.09941162659981
 30
0.0
 11
3.295370033030881
 21
11.95382368490121
 31
0.0
  0
ARC
  5
3A8
330
2E3
100
AcDbEntity
  8
VER
100
AcDbCircle
 10
5.749999999999991
 20
9.959292143521065
 30
0.0
 40
2.070248011935161
100
AcDbArc
 50
73.97608969310706
 51
136.023910306893
  0
CIRCLE
  5
3A9
330
2E3
100
AcDbEntity
  8
VER
100
AcDbCircle
 10
-11.5
 20
0.0
 30
0.0
 40
0.7952696104306951
  0
ARC
  5
3AA
330
2E3
100
AcDbEntity
  8
VER
100
AcDbCircle
 10
-11.5
 20
0.0000000000000013
 30
0.0
 40
2.070248011935183
100
AcDbArc
 50
283.9760896931073
 51
346.0239103068926
  0
LINE
  5
3AB
330
2E3
100
AcDbEntity
  8
VER
100
AcDbLine
 10
-10.0857864376269
 20
-0.5000000000000003
 30
0.0
 11
-8.3769623210241
 21
-0.5000000000000001
 31
0.0
  0
LINE
  5
3AC
330
2E3
100
AcDbEntity
  8
VER
100
AcDbLine
 10
-8.3769623210241
 20
0.4999999999999999
 30
0.0
 11
-10.0857864376269
 21
0.4999999999999997
 31
0.0
  0
LINE
  5
3AD
330
2E3
100
AcDbEntity
  8
VER
100
AcDbLine
 10
-11.0
 20
1.414213562373096
 30
0.0
 11
-11.0
 21
3.1230376789759
 31
0.0
  0
ARC
  5
3AE
330
2E3
100
AcDbEntity
  8
VER
100
AcDbCircle
 10
-0.0000000000305453
 20
-0.0000000000348326
 30
0.0
 40
5.747738913737921
100
AcDbArc
 50
217.497682720698
 51
262.5023172794594
  0
ARC
  5
3AF
330
2E3
100
AcDbEntity
  8
VER
100
AcDbCircle
 10
0.0000000000000009
 20
0.0000000000000018
 30
0.0
 40
6.247662761361559
100
AcDbArc
 50
216.8946934169772
 51
263.1053065830227
  0
ARC
  5
3B0
330
2E3
100
AcDbEntity
  8
VER
100
AcDbCircle
 10
-11.5
 20
0.0000000000000033
 30
0.0
 40
2.070248011935178
100
AcDbArc
 50
103.9760896931073
 51
166.0239103068927
  0
LINE
  5
3B1
330
2E3
100
AcDbEntity
  8
VER
100
AcDbLine
 10
-12.9142135623731
 20
0.4999999999999997
 30
0.0
 11
-14.6230376789759
 21
0.4999999999999999
 31
0.0
  0
LINE
  5
3B2
330
2E3
100
AcDbEntity
  8
VER
100
AcDbLine
 10
0.75
 20
-5.571658057363392
 30
0.0
 11
0.75
 21
-16.06530434634282
 31
0.0
  0
LINE
  5
3B3
330
2E3
100
AcDbEntity
  8
VER
100
AcDbLine
 10
4.450197418876952
 20
-3.435348081520026
 30
0.0
 11
13.53796168348009
 21
-8.682171226020513
 31
0.0
  0
ARC
  5
3B4
330
2E3
100
AcDbEntity
  8
VER
100
AcDbCircle
 10
-0.000000000003209
 20
0.0000000000033733
 30
0.0
 40
14.93246060811449
100
AcDbArc
 50
272.8789576995454
 51
327.1210423004619
  0
ARC
  5
3B5
330
2E3
100
AcDbEntity
  8
VER
100
AcDbCircle
 10
5.750000000000003
 20
-9.959292143521045
 30
0.0
 40
2.070248011935188
100
AcDbArc
 50
133.9760896931072
 51
196.0239103068927
  0
ARC
  5
3B6
330
2E3
100
AcDbEntity
  8
VER
100
AcDbCircle
 10
-11.5
 20
-0.0000000000000014
 30
0.0
 40
2.070248011935184
100
AcDbArc
 50
13.97608969310736
 51
76.02391030689266
  0
ARC
  5
3B7
330
2E3
100
AcDbEntity
  8
VER
100
AcDbCircle
 10
0.0000000000000089
 20
0.0
 30
0.0
 40
14.93246060810995
100
AcDbArc
 50
332.8789576995339
 51
27.12104230046611
  0
ARC
  5
3B8
330
2E3
100
AcDbEntity
  8
VER
100
AcDbCircle
 10
-0.0000000000000053
 20
0.0000000000000004
 30
0.0
 40
5.747738913783365
100
AcDbArc
 50
337.4976827207881
 51
22.50231727921186
  0
ARC
  5
3B9
330
2E3
100
AcDbEntity
  8
VER
100
AcDbCircle
 10
-0.0000000000000195
 20
-0.0000000000000002
 30
0.0
 40
6.247662761361576
100
AcDbArc
 50
336.8946934169772
 51
23.1053065830227
  0
ARC
  5
3BA
330
2E3
100
AcDbEntity
  8
VER
100
AcDbCircle
 10
5.750000000000004
 20
-9.959292143521047
 30
0.0
 40
2.070248011935177
100
AcDbArc
 50
313.9760896931074
 51
16.02391030689274
  0
ARC
  5
3BB
330
2E3
100
AcDbEntity
  8
VER
100
AcDbCircle
 10
5.749999999999996
 20
-9.959292143521042
 30
0.0
 40
2.07024801193518
100
AcDbArc
 50
43.97608969310718
 51
106.0239103068925
  0
CIRCLE
  5
3BC
330
2E3
100
AcDbEntity
  8
VER
100
AcDbCircle
 10
5.749999999999997
 20
-9.959292143521045
 30
0.0
 40
1.500000000000003
  0
ARC
  5
3BD
330
2E3
100
AcDbEntity
  8
VER
100
AcDbCircle
 10
0.0000000000000058
 20
-0.0000000000000107
 30
0.0
 40
6.247662761361568
100
AcDbArc
 50
96.8946934169773
 51
143.1053065830228
  0
ARC
  5
3BE
330
2E3
100
AcDbEntity
  8
VER
100
AcDbCircle
 10
-0.0000000000000058
 20
0.0000000000000133
 30
0.0
 40
5.747738913783347
100
AcDbArc
 50
97.49768272078809
 51
142.5023172792119
  0
ARC
  5
3BF
330
2E3
100
AcDbEntity
  8
VER
100
AcDbCircle
 10
5.749999999999904
 20
-9.959292143521019
 30
0.0
 40
3.162809564976
100
AcDbArc
 50
309.0958932250267
 51
20.90410677497349
  0
ARC
  5
3C0
330
2E3
100
AcDbEntity
  8
VER
100
AcDbCircle
 10
-11.49999999999993
 20
0.0000000000000739
 30
0.0
 40
3.162809564976004
100
AcDbArc
 50
189.0958932250266
 51
260.9041067749735
  0
ARC
  5
3C1
330
2E3
100
AcDbEntity
  8
VER
100
AcDbCircle
 10
5.750000000000099
 20
9.95929214352107
 30
0.0
 40
3.162809564976004
100
AcDbArc
 50
159.0958932250266
 51
230.9041067749735
  0
ARC
  5
3C2
330
2E3
100
AcDbEntity
  8
VER
100
AcDbCircle
 10
5.749999999999915
 20
9.95929214352102
 30
0.0
 40
3.162809564975992
100
AcDbArc
 50
339.0958932250265
 51
50.90410677497366
  0
ARC
  5
3C3
330
2E3
100
AcDbEntity
  8
VER
100
AcDbCircle
 10
-11.50000000000007
 20
-0.0000000000000713
 30
0.0
 40
3.162809564976002
100
AcDbArc
 50
9.095893225026549
 51
80.90410677497346
  0
ARC
  5
3C4
330
2E3
100
AcDbEntity
  8
VER
100
AcDbCircle
 10
5.749999999999975
 20
9.959292143521136
 30
0.0
 40
3.162809564975997
100
AcDbArc
 50
249.0958932250264
 51
320.9041067749736
  0
ARC
  5
3C5
330
2E3
100
AcDbEntity
  8
VER
100
AcDbCircle
 10
5.750000000000028
 20
9.959292143520944
 30
0.0
 40
3.162809564976005
100
AcDbArc
 50
69.09589322502666
 51
140.9041067749734
  0
ARC
  5
3C6
330
2E3
100
AcDbEntity
  8
VER
100
AcDbCircle
 10
-11.50000000000007
 20
0.0000000000000648
 30
0.0
 40
3.162809564975995
100
AcDbArc
 50
279.0958932250265
 51
350.9041067749736
  0
ARC
  5
3C7
330
2E3
100
AcDbEntity
  8
VER
100
AcDbCircle
 10
-11.49999999999993
 20
-0.0000000000000759
 30
0.0
 40
3.162809564976008
100
AcDbArc
 50
99.09589322502661
 51
170.9041067749734
  0
ARC
  5
3C8
330
2E3
100
AcDbEntity
  8
VER
100
AcDbCircle
 10
5.749999999999968
 20
-9.959292143521148
 30
0.0
 40
3.162809564976008
100
AcDbArc
 50
39.09589322502658
 51
110.9041067749732
  0
ARC
  5
3C9
330
2E3
100
AcDbEntity
  8
VER
100
AcDbCircle
 10
5.750000000000024
 20
-9.959292143520951
 30
0.0
 40
3.162809564976001
100
AcDbArc
 50
219.0958932250266
 51
290.9041067749736
  0
ARC
  5
3CA
330
2E3
100
AcDbEntity
  8
VER
100
AcDbCircle
 10
5.750000000000093
 20
-9.959292143521072
 30
0.0
 40
3.162809564976003
100
AcDbArc
 50
129.0958932250264
 51
200.9041067749736
  0
ARC
  5
3CB
330
2E3
100
AcDbEntity
  8
VER
100
AcDbCircle
 10
0.0000000000000053
 20
-0.0000000000000004
 30
0.0
 40
14.93246060810996
100
AcDbArc
 50
152.8789576995339
 51
207.1210423004661
  0
ARC
  5
3CC
330
2E3
100
AcDbEntity
  8
VER
100
AcDbCircle
 10
-0.0000000000000098
 20
-0.0000000000000009
 30
0.0
 40
5.74773891378335
100
AcDbArc
 50
157.4976827207881
 51
202.5023172792119
  0
ARC
  5
3CD
330
2E3
100
AcDbEntity
  8
VER
100
AcDbCircle
 10
0.0000000000000195
 20
0.0000000000000011
 30
0.0
 40
6.247662761361576
100
AcDbArc
 50
156.8946934169773
 51
203.1053065830227
  0
LINE
  5
3CE
330
2E3
100
AcDbEntity
  8
VER
100
AcDbLine
 10
-5.200197418876952
 20
-2.136309975843368
 30
0.0
 11
-14.28796168347783
 21
-7.38313312034254
 31
0.0
  0
CIRCLE
  5
3CF
330
2E3
100
AcDbEntity
  8
VER
100
AcDbCircle
 10
0.0
 20
0.0
 30
0.0
 40
31.66244343832998
  0
CIRCLE
  5
3D0
330
2E3
100
AcDbEntity
  8
VER
100
AcDbCircle
 10
0.0
 20
0.0
 30
0.0
 40
17.95
  0
CIRCLE
  5
3D1
330
2E3
100
AcDbEntity
  8
VER
100
AcDbCircle
 10
0.0
 20
0.0
 30
0.0
 40
32.06918008140578
  0
CIRCLE
  5
3D2
330
2E3
100
AcDbEntity
  8
VER
100
AcDbCircle
 10
0.0
 20
0.0000000000000001
 30
0.0
 40
35.77202099292275
  0
CIRCLE
  5
3D3
330
2E3
100
AcDbEntity
  8
VER
100
AcDbCircle
 10
0.0
 20
0.0000000000000001
 30
0.0
 40
35.95
  0
CIRCLE
  5
3D4
330
2E3
100
AcDbEntity
  8
VER
100
AcDbCircle
 10
-0.0000000000000053
 20
0.0000000000000004
 30
0.0
 40
3.599999999999994
  0
CIRCLE
  5
3D5
330
2E3
100
AcDbEntity
  8
VER
100
AcDbCircle
 10
-0.0000000000015703
 20
-0.000000000002716
 30
0.0
 40
16.12775121144697
  0
CIRCLE
  5
3D6
330
2E3
100
AcDbEntity
  8
VER
100
AcDbCircle
 10
-0.0000000000000089
 20
-0.0000000000000089
 30
0.0
 40
17.54999999999999
  0
LINE
  5
3D7
330
2E3
100
AcDbEntity
  8
MITTE
100
AcDbLine
 10
-37.80000000000001
 20
0.0000000000000001
 30
0.0
 11
37.80000000000001
 21
0.0000000000000001
 31
0.0
  0
LINE
  5
3D8
330
2E3
100
AcDbEntity
  8
MITTE
100
AcDbLine
 10
0.0
 20
-37.80000000000001
 30
0.0
 11
0.0
 21
37.80000000000001
 31
0.0
  0
LINE
  5
3D9
330
2E3
100
AcDbEntity
  8
MITTE
100
AcDbLine
 10
3.649999999999996
 20
-9.959292143521049
 30
0.0
 11
7.849999999999996
 21
-9.959292143521049
 31
0.0
  0
LINE
  5
3DA
330
2E3
100
AcDbEntity
  8
MITTE
100
AcDbLine
 10
5.749999999999996
 20
-12.05929214352105
 30
0.0
 11
5.749999999999996
 21
-7.859292143521049
 31
0.0
  0
LINE
  5
3DB
330
2E3
100
AcDbEntity
  8
MITTE
100
AcDbLine
 10
3.649999999999997
 20
9.959292143521042
 30
0.0
 11
7.850000000000003
 21
9.959292143521042
 31
0.0
  0
LINE
  5
3DC
330
2E3
100
AcDbEntity
  8
MITTE
100
AcDbLine
 10
5.75
 20
7.859292143521039
 30
0.0
 11
5.75
 21
12.05929214352104
 31
0.0
  0
LINE
  5
3DD
330
2E3
100
AcDbEntity
  8
MITTE
100
AcDbLine
 10
-11.5
 20
-2.1
 30
0.0
 11
-11.5
 21
2.1
 31
0.0
  0
CIRCLE
  5
3DE
330
2E3
100
AcDbEntity
  8
050
100
AcDbCircle
 10
0.0
 20
0.0000000000000001
 30
0.0
 40
36.00000000000001
  0
CIRCLE
  5
3DF
330
2E3
100
AcDbEntity
  8
050
100
AcDbCircle
 10
0.0
 20
0.0000000000000001
 30
0.0
 40
35.98911110919409
  0
CIRCLE
  5
3E0
330
2E3
100
AcDbEntity
  8
050
100
AcDbCircle
 10
0.0
 20
0.0000000000000002
 30
0.0
 40
35.58022148129472
  0
CIRCLE
  5
3E1
330
2E3
100
AcDbEntity
  8
050
100
AcDbCircle
 10
0.0
 20
0.0000000000000002
 30
0.0
 40
35.44617768765477
  0
CIRCLE
  5
3E2
330
2E3
100
AcDbEntity
  8
050
100
AcDbCircle
 10
0.0
 20
0.0000000000000002
 30
0.0
 40
34.21368547418968
  0
CIRCLE
  5
3E3
330
2E3
100
AcDbEntity
  8
050
100
AcDbCircle
 10
0.0
 20
0.0000000000000002
 30
0.0
 40
33.783
  0
CIRCLE
  5
3E4
330
2E3
100
AcDbEntity
  8
050
100
AcDbCircle
 10
0.0
 20
0.0000000000000002
 30
0.0
 40
33.59643857543017
  0
CIRCLE
  5
3E5
330
2E3
100
AcDbEntity
  8
050
100
AcDbCircle
 10
0.0000000000000284
 20
0.0000000000000284
 30
0.0
 40
34.00000000000002
  0
ENDBLK
  5
2E6
330
2E3
100
AcDbEntity
  8
0
100
AcDbBlockEnd
  0
ENDSEC
  0
SECTION
  2
ENTITIES
  0
ATTDEF
  5
6F
330
1F
100
AcDbEntity
  8
ATTR
100
AcDbText
 10
42.80000000000001
 20
46.13100000000001
 30
0.0
 40
0.5
  1
150300
100
AcDbAttributeDefinition
  3

  2
NB
 70
     8
  0
ATTDEF
  5
70
330
1F
100
AcDbEntity
  8
ATTR
100
AcDbText
 10
42.80000000000001
 20
45.63100000000001
 30
0.0
 40
0.5
  1
RTFset BD 52-12, split
100
AcDbAttributeDefinition
  3

  2
NN
 70
     8
  0
ATTDEF
  5
71
330
1F
100
AcDbEntity
  8
ATTR
100
AcDbText
 10
42.80000000000001
 20
45.13100000000001
 30
0.0
 40
0.5
  1

100
AcDbAttributeDefinition
  3

  2
NT
 70
     8
  0
ATTDEF
  5
72
330
1F
100
AcDbEntity
  8
ATTR
100
AcDbText
 10
42.80000000000001
 20
44.63100000000001
 30
0.0
 40
0.5
  1
$ARTNRTX.
100
AcDbAttributeDefinition
  3

  2
NBSYN
 70
     8
  0
ATTDEF
  5
73
330
1F
100
AcDbEntity
  8
ATTR
100
AcDbText
 10
42.80000000000001
 20
44.13100000000001
 30
0.0
 40
0.5
  1
150300
100
AcDbAttributeDefinition
  3

  2
LINA
 70
     8
  0
ATTDEF
  5
74
330
1F
100
AcDbEntity
  8
ATTR
100
AcDbText
 10
42.80000000000001
 20
43.63100000000001
 30
0.0
 40
0.5
  1
GEBERIT
100
AcDbAttributeDefinition
  3

  2
CATALOG
 70
     8
  0
ATTDEF
  5
75
330
1F
100
AcDbEntity
  8
ATTR
100
AcDbText
 10
42.80000000000001
 20
43.13100000000001
 30
0.0
 40
0.5
  1
150.300.KJ.1
100
AcDbAttributeDefinition
  3

  2
ARTNRT
 70
     8
  0
ATTDEF
  5
76
330
1F
100
AcDbEntity
  8
ATTR
100
AcDbText
 10
42.80000000000001
 20
42.63100000000001
 30
0.0
 40
0.5
  1
geberit
100
AcDbAttributeDefinition
  3

  2
COMPANY
 70
     8
  0
ATTDEF
  5
77
330
1F
100
AcDbEntity
  8
ATTR
100
AcDbText
 10
42.80000000000001
 20
42.13100000000001
 30
0.0
 40
0.5
  1
{$CADENAS_DATA\23d-libs\geberit\waste_fitting\fur_badewannen\zubehor\275_waste_bd_asmtab.prj},182 {VTYP=3D},{STYP=ASSTAB},{NB=150300},{LINA=150300},{NN=RTFset BD 52-12, split},{DATE=19.07.2021 11:12:09},{GEOMDATE=19.07.2021 09:38:02},{VERSION=},{LINEID=10
100
AcDbAttributeDefinition
  3

  2
PSOL_0
 70
     9
  0
ATTDEF
  5
78
330
1F
100
AcDbEntity
  8
ATTR
100
AcDbText
 10
42.80000000000001
 20
41.63100000000001
 30
0.0
 40
0.5
  1
},{WBVAR=},{WBNUMERIC=}  {NB=150300},{LINA=150300},{KT=DUMMY},{ARTNRT=150.300.KJ.1},{ARTNRTX=150300},{PPATH=parts/275_waste_bd_asmtpl.prj}
100
AcDbAttributeDefinition
  3

  2
PSOL_1
 70
     9
  0
INSERT
  5
7A
330
1F
100
AcDbEntity
  8
0
100
AcDbBlockReference
  2
1_893_735_scheibe_0_in_150300_4
 10
0.0
 20
0.0
 30
0.0
  0
INSERT
  5
C9
330
1F
100
AcDbEntity
  8
0
100
AcDbBlockReference
  2
2_893_735_mitnehmer_0_in_150300_4
 10
0.0
 20
0.0
 30
0.0
  0
INSERT
  5
1D1
330
1F
100
AcDbEntity
  8
0
100
AcDbBlockReference
  2
3_893_735_metallrosette_0_in_150300_4
 10
0.0
 20
0.0
 30
0.0
  0
INSERT
  5
241
330
1F
100
AcDbEntity
  8
0
100
AcDbBlockReference
  2
4_893_743_0_in_150300_4
 10
0.0
 20
0.0
 30
0.0
  0
INSERT
  5
2E4
330
1F
100
AcDbEntity
  8
0
100
AcDbBlockReference
  2
5_893_741_0_in_150300_4
 10
0.0
 20
0.0
 30
0.0
  0
POINT
  5
3E7
330
1F
100
AcDbEntity
  8
2d ConnectionPoints
100
AcDbPoint
 10
-85.149
 20
0.0000000000000061
 30
0.0
  0
POINT
  5
3E8
330
1F
100
AcDbEntity
  8
2d ConnectionPoints
100
AcDbPoint
 10
-85.149
 20
0.0000000000000061
 30
0.0
  0
POINT
  5
3E9
330
1F
100
AcDbEntity
  8
2d ConnectionPoints
100
AcDbPoint
 10
-100.0
 20
0.0000000000000061
 30
0.0
  0
POINT
  5
3EA
330
1F
100
AcDbEntity
  8
2d ConnectionPoints
100
AcDbPoint
 10
0.0
 20
-0.0000000000000045
 30
0.0
  0
POINT
  5
3EB
330
1F
100
AcDbEntity
  8
2d ConnectionPoints
100
AcDbPoint
 10
0.0
 20
-121.5
 30
0.0
  0
ENDSEC
  0
SECTION
  2
OBJECTS
  0
DICTIONARY
  5
C
330
0
100
AcDbDictionary
281
     1
  3
ACAD_DETAILVIEWSTYLE
350
431
  3
ACAD_GROUP
350
D
  3
ACAD_LAYOUT
350
1A
  3
ACAD_MATERIAL
350
43
  3
ACAD_MLEADERSTYLE
350
6B
  3
ACAD_MLINESTYLE
350
17
  3
ACAD_PLOTSETTINGS
350
19
  3
ACAD_PLOTSTYLENAME
350
E
  3
ACAD_SCALELIST
350
47
  3
ACAD_SECTIONVIEWSTYLE
350
432
  3
ACAD_TABLESTYLE
350
69
  3
ACAD_VISUALSTYLE
350
2A
  3
ACDB_RECOMPOSE_DATA
350
42E
  3
AcDbVariableDictionary
350
3EE
  0
DICTIONARY
  5
3EC
330
8
100
AcDbDictionary
280
     1
281
     1
  3
ACAD_XREC_ROUNDTRIP
360
3ED
  0
DICTIONARY
  5
431
102
{ACAD_REACTORS
330
C
102
}
330
C
100
AcDbDictionary
281
     1
  0
DICTIONARY
  5
D
102
{ACAD_REACTORS
330
C
102
}
330
C
100
AcDbDictionary
281
     1
  0
DICTIONARY
  5
1A
102
{ACAD_REACTORS
330
C
102
}
330
C
100
AcDbDictionary
281
     1
  3
Layout1
350
1E
  3
Layout2
350
26
  3
Model
350
22
  0
DICTIONARY
  5
43
102
{ACAD_REACTORS
330
C
102
}
330
C
100
AcDbDictionary
281
     1
  3
ByBlock
350
45
  3
ByLayer
350
44
  3
Global
350
46
  0
DICTIONARY
  5
6B
102
{ACAD_REACTORS
330
C
102
}
330
C
100
AcDbDictionary
281
     1
  3
Standard
350
6C
  0
DICTIONARY
  5
17
102
{ACAD_REACTORS
330
C
102
}
330
C
100
AcDbDictionary
281
     1
  3
Standard
350
18
  0
DICTIONARY
  5
19
102
{ACAD_REACTORS
330
C
102
}
330
C
100
AcDbDictionary
281
     1
  0
ACDBDICTIONARYWDFLT
  5
E
102
{ACAD_REACTORS
330
C
102
}
330
C
100
AcDbDictionary
281
     1
  3
Normal
350
F
100
AcDbDictionaryWithDefault
340
F
  0
DICTIONARY
  5
47
102
{ACAD_REACTORS
330
C
102
}
330
C
100
AcDbDictionary
281
     1
  3
A0
350
48
  3
A1
350
49
  3
A2
350
4A
  3
A3
350
4B
  3
A4
350
4C
  3
A5
350
4D
  3
A6
350
4E
  3
A7
350
4F
  3
A8
350
50
  3
A9
350
51
  3
B0
350
52
  3
B1
350
53
  3
B2
350
54
  3
B3
350
55
  3
B4
350
56
  3
B5
350
57
  3
B6
350
58
  3
B7
350
59
  3
B8
350
5A
  3
B9
350
5B
  3
C0
350
5C
  3
C1
350
5D
  3
C2
350
5E
  3
C3
350
5F
  3
C4
350
60
  3
C5
350
61
  3
C6
350
62
  3
C7
350
63
  3
C8
350
64
  3
C9
350
65
  3
D0
350
66
  3
D1
350
67
  3
D2
350
68
  0
DICTIONARY
  5
432
102
{ACAD_REACTORS
330
C
102
}
330
C
100
AcDbDictionary
281
     1
  0
DICTIONARY
  5
69
102
{ACAD_REACTORS
330
C
102
}
330
C
100
AcDbDictionary
281
     1
  3
Standard
350
6A
  0
DICTIONARY
  5
2A
102
{ACAD_REACTORS
330
C
102
}
330
C
100
AcDbDictionary
281
     1
  3
2dWireframe
350
2F
  3
Basic
350
32
  3
Brighten
350
36
  3
ColorChange
350
3A
  3
Conceptual
350
34
  3
Dim
350
35
  3
EdgeColorOff
350
3D
  3
Facepattern
350
39
  3
Flat
350
2B
  3
FlatWithEdges
350
2C
  3
Gouraud
350
2D
  3
GouraudWithEdges
350
2E
  3
Hidden
350
31
  3
JitterOff
350
3B
  3
Linepattern
350
38
  3
OverhangOff
350
3C
  3
Realistic
350
33
  3
Shaded
350
42
  3
Shaded with edges
350
41
  3
Shades of Gray
350
3E
  3
Sketchy
350
3F
  3
Thicken
350
37
  3
Wireframe
350
30
  3
X-Ray
350
40
  0
XRECORD
  5
42E
102
{ACAD_REACTORS
330
C
102
}
330
C
100
AcDbXrecord
280
     1
 90
        1
330
6A
  0
DICTIONARY
  5
3EE
102
{ACAD_REACTORS
330
C
102
}
330
C
100
AcDbDictionary
281
     1
  3
CANNOSCALE
350
3EF
  3
CMLEADERSTYLE
350
430
  3
CTABLESTYLE
350
42F
  3
MSLTSCALE
350
3F0
  3
SECTIONTHICKNESSINC
350
433
  3
XCLIPFRAME
350
3F1
  0
XRECORD
  5
3ED
102
{ACAD_REACTORS
330
3EC
102
}
330
3EC
100
AcDbXrecord
280
     1
102
VTR_0.000_0.000_1.000_1.000_VISUALSTYLE
340
2F
102
VTR_0.000_0.000_1.000_1.000_GRIDDISPLAY
 70
     3
102
VTR_0.000_0.000_1.000_1.000_GRIDMAJOR
 70
     5
102
VTR_0.000_0.000_1.000_1.000_DEFAULTLIGHTING
280
     1
102
VTR_0.000_0.000_1.000_1.000_DEFAULTLIGHTINGTYPE
 70
     1
102
VTR_0.000_0.000_1.000_1.000_BRIGHTNESS
141
0.0
102
VTR_0.000_0.000_1.000_1.000_CONTRAST
142
0.0
  0
LAYOUT
  5
1E
102
{ACAD_REACTORS
330
1A
102
}
330
1A
100
AcDbPlotSettings
  1

  2
none_device
  4

  6

 40
0.0
 41
0.0
 42
0.0
 43
0.0
 44
0.0
 45
0.0
 46
0.0
 47
0.0
 48
0.0
 49
0.0
140
0.0
141
0.0
142
1.0
143
1.0
 70
   688
 72
     1
 73
     0
 74
     5
  7

 75
    16
 76
     0
 77
     2
 78
   300
147
1.0
148
0.0
149
0.0
100
AcDbLayout
  1
Layout1
 70
     1
 71
     1
 10
0.0
 20
0.0
 11
420.0
 21
297.0
 12
0.0
 22
0.0
 32
0.0
 14
1.000000000000000E+20
 24
1.000000000000000E+20
 34
1.000000000000000E+20
 15
-1.000000000000000E+20
 25
-1.000000000000000E+20
 35
-1.000000000000000E+20
146
0.0
 13
0.0
 23
0.0
 33
0.0
 16
1.0
 26
0.0
 36
0.0
 17
0.0
 27
1.0
 37
0.0
 76
     0
330
1B
  0
LAYOUT
  5
26
102
{ACAD_REACTORS
330
1A
102
}
330
1A
100
AcDbPlotSettings
  1

  2
none_device
  4

  6

 40
0.0
 41
0.0
 42
0.0
 43
0.0
 44
0.0
 45
0.0
 46
0.0
 47
0.0
 48
0.0
 49
0.0
140
0.0
141
0.0
142
1.0
143
1.0
 70
   688
 72
     1
 73
     0
 74
     5
  7

 75
    16
 76
     0
 77
     2
 78
   300
147
1.0
148
0.0
149
0.0
100
AcDbLayout
  1
Layout2
 70
     1
 71
     2
 10
0.0
 20
0.0
 11
0.0
 21
0.0
 12
0.0
 22
0.0
 32
0.0
 14
0.0
 24
0.0
 34
0.0
 15
0.0
 25
0.0
 35
0.0
146
0.0
 13
0.0
 23
0.0
 33
0.0
 16
1.0
 26
0.0
 36
0.0
 17
0.0
 27
1.0
 37
0.0
 76
     0
330
23
  0
LAYOUT
  5
22
102
{ACAD_REACTORS
330
1A
102
}
330
1A
100
AcDbPlotSettings
  1

  2
none_device
  4
Letter_(8.50_x_11.00_Inches)
  6

 40
6.35
 41
6.35
 42
6.35000508
 43
6.35000508
 44
215.9
 45
279.4
 46
0.0
 47
0.0
 48
0.0
 49
0.0
140
0.0
141
0.0
142
1.0
143
1.0
 70
  1712
 72
     1
 73
     0
 74
     0
  7

 75
     0
 76
     0
 77
     2
 78
   300
147
1.0
148
0.0
149
0.0
100
AcDbLayout
  1
Model
 70
     1
 71
     0
 10
0.0
 20
0.0
 11
420.0
 21
297.0
 12
0.0
 22
0.0
 32
0.0
 14
1.000000000000000E+20
 24
1.000000000000000E+20
 34
1.000000000000000E+20
 15
-1.000000000000000E+20
 25
-1.000000000000000E+20
 35
-1.000000000000000E+20
146
0.0
 13
0.0
 23
0.0
 33
0.0
 16
1.0
 26
0.0
 36
0.0
 17
0.0
 27
1.0
 37
0.0
 76
     0
330
1F
331
29
  0
MATERIAL
  5
45
102
{ACAD_REACTORS
330
43
102
}
102
{ACAD_XDICTIONARY
360
424
102
}
330
43
100
AcDbMaterial
  1
ByBlock
  0
MATERIAL
  5
44
102
{ACAD_REACTORS
330
43
102
}
102
{ACAD_XDICTIONARY
360
422
102
}
330
43
100
AcDbMaterial
  1
ByLayer
  0
MATERIAL
  5
46
102
{ACAD_REACTORS
330
43
102
}
102
{ACAD_XDICTIONARY
360
426
102
}
330
43
100
AcDbMaterial
  1
Global
  0
MLEADERSTYLE
  5
6C
102
{ACAD_REACTORS
330
6B
102
}
102
{ACAD_XDICTIONARY
360
42C
102
}
330
6B
100
AcDbMLeaderStyle
170
     2
171
     1
172
     0
 90
        2
 40
0.0
 41
0.0
173
     1
 91
-1056964608
340
14
 92
       -2
290
     1
 42
2.0
291
     1
 43
8.0
  3
Standard
341
0
 44
4.0
300

342
11
174
     1
178
     6
175
     1
176
     0
 93
-1056964608
 45
4.0
292
     0
297
     0
 46
4.0
343
0
 94
-1056964608
 47
1.0
 49
1.0
140
1.0
293
     1
141
0.0
294
     1
177
     0
142
1.0
295
     0
296
     0
143
3.75
1001
ACAD_MLEADERVER
1070
     2
  0
MLINESTYLE
  5
18
102
{ACAD_REACTORS
330
17
102
}
330
17
100
AcDbMlineStyle
  2
Standard
 70
     0
  3

 62
   256
 51
90.0
 52
90.0
 71
     2
 49
0.5
 62
   256
  6
BYLAYER
 49
-0.5
 62
   256
  6
BYLAYER
  0
ACDBPLACEHOLDER
  5
F
102
{ACAD_REACTORS
330
E
102
}
330
E
  0
SCALE
  5
48
102
{ACAD_REACTORS
330
47
102
}
330
47
100
AcDbScale
 70
     0
300
1:1
140
1.0
141
1.0
290
     1
  0
SCALE
  5
49
102
{ACAD_REACTORS
330
47
102
}
330
47
100
AcDbScale
 70
     0
300
1:2
140
1.0
141
2.0
290
     0
  0
SCALE
  5
4A
102
{ACAD_REACTORS
330
47
102
}
330
47
100
AcDbScale
 70
     0
300
1:4
140
1.0
141
4.0
290
     0
  0
SCALE
  5
4B
102
{ACAD_REACTORS
330
47
102
}
330
47
100
AcDbScale
 70
     0
300
1:5
140
1.0
141
5.0
290
     0
  0
SCALE
  5
4C
102
{ACAD_REACTORS
330
47
102
}
330
47
100
AcDbScale
 70
     0
300
1:8
140
1.0
141
8.0
290
     0
  0
SCALE
  5
4D
102
{ACAD_REACTORS
330
47
102
}
330
47
100
AcDbScale
 70
     0
300
1:10
140
1.0
141
10.0
290
     0
  0
SCALE
  5
4E
102
{ACAD_REACTORS
330
47
102
}
330
47
100
AcDbScale
 70
     0
300
1:16
140
1.0
141
16.0
290
     0
  0
SCALE
  5
4F
102
{ACAD_REACTORS
330
47
102
}
330
47
100
AcDbScale
 70
     0
300
1:20
140
1.0
141
20.0
290
     0
  0
SCALE
  5
50
102
{ACAD_REACTORS
330
47
102
}
330
47
100
AcDbScale
 70
     0
300
1:30
140
1.0
141
30.0
290
     0
  0
SCALE
  5
51
102
{ACAD_REACTORS
330
47
102
}
330
47
100
AcDbScale
 70
     0
300
1:40
140
1.0
141
40.0
290
     0
  0
SCALE
  5
52
102
{ACAD_REACTORS
330
47
102
}
330
47
100
AcDbScale
 70
     0
300
1:50
140
1.0
141
50.0
290
     0
  0
SCALE
  5
53
102
{ACAD_REACTORS
330
47
102
}
330
47
100
AcDbScale
 70
     0
300
1:100
140
1.0
141
100.0
290
     0
  0
SCALE
  5
54
102
{ACAD_REACTORS
330
47
102
}
330
47
100
AcDbScale
 70
     0
300
2:1
140
2.0
141
1.0
290
     0
  0
SCALE
  5
55
102
{ACAD_REACTORS
330
47
102
}
330
47
100
AcDbScale
 70
     0
300
4:1
140
4.0
141
1.0
290
     0
  0
SCALE
  5
56
102
{ACAD_REACTORS
330
47
102
}
330
47
100
AcDbScale
 70
     0
300
8:1
140
8.0
141
1.0
290
     0
  0
SCALE
  5
57
102
{ACAD_REACTORS
330
47
102
}
330
47
100
AcDbScale
 70
     0
300
10:1
140
10.0
141
1.0
290
     0
  0
SCALE
  5
58
102
{ACAD_REACTORS
330
47
102
}
330
47
100
AcDbScale
 70
     0
300
100:1
140
100.0
141
1.0
290
     0
  0
SCALE
  5
59
102
{ACAD_REACTORS
330
47
102
}
330
47
100
AcDbScale
 70
     0
300
1/128" = 1'-0"
140
0.0078125
141
12.0
290
     0
  0
SCALE
  5
5A
102
{ACAD_REACTORS
330
47
102
}
330
47
100
AcDbScale
 70
     0
300
1/64" = 1'-0"
140
0.015625
141
12.0
290
     0
  0
SCALE
  5
5B
102
{ACAD_REACTORS
330
47
102
}
330
47
100
AcDbScale
 70
     0
300
1/32" = 1'-0"
140
0.03125
141
12.0
290
     0
  0
SCALE
  5
5C
102
{ACAD_REACTORS
330
47
102
}
330
47
100
AcDbScale
 70
     0
300
1/16" = 1'-0"
140
0.0625
141
12.0
290
     0
  0
SCALE
  5
5D
102
{ACAD_REACTORS
330
47
102
}
330
47
100
AcDbScale
 70
     0
300
3/32" = 1'-0"
140
0.09375
141
12.0
290
     0
  0
SCALE
  5
5E
102
{ACAD_REACTORS
330
47
102
}
330
47
100
AcDbScale
 70
     0
300
1/8" = 1'-0"
140
0.125
141
12.0
290
     0
  0
SCALE
  5
5F
102
{ACAD_REACTORS
330
47
102
}
330
47
100
AcDbScale
 70
     0
300
3/16" = 1'-0"
140
0.1875
141
12.0
290
     0
  0
SCALE
  5
60
102
{ACAD_REACTORS
330
47
102
}
330
47
100
AcDbScale
 70
     0
300
1/4" = 1'-0"
140
0.25
141
12.0
290
     0
  0
SCALE
  5
61
102
{ACAD_REACTORS
330
47
102
}
330
47
100
AcDbScale
 70
     0
300
3/8" = 1'-0"
140
0.375
141
12.0
290
     0
  0
SCALE
  5
62
102
{ACAD_REACTORS
330
47
102
}
330
47
100
AcDbScale
 70
     0
300
1/2" = 1'-0"
140
0.5
141
12.0
290
     0
  0
SCALE
  5
63
102
{ACAD_REACTORS
330
47
102
}
330
47
100
AcDbScale
 70
     0
300
3/4" = 1'-0"
140
0.75
141
12.0
290
     0
  0
SCALE
  5
64
102
{ACAD_REACTORS
330
47
102
}
330
47
100
AcDbScale
 70
     0
300
1" = 1'-0"
140
1.0
141
12.0
290
     0
  0
SCALE
  5
65
102
{ACAD_REACTORS
330
47
102
}
330
47
100
AcDbScale
 70
     0
300
1-1/2" = 1'-0"
140
1.5
141
12.0
290
     0
  0
SCALE
  5
66
102
{ACAD_REACTORS
330
47
102
}
330
47
100
AcDbScale
 70
     0
300
3" = 1'-0"
140
3.0
141
12.0
290
     0
  0
SCALE
  5
67
102
{ACAD_REACTORS
330
47
102
}
330
47
100
AcDbScale
 70
     0
300
6" = 1'-0"
140
6.0
141
12.0
290
     0
  0
SCALE
  5
68
102
{ACAD_REACTORS
330
47
102
}
330
47
100
AcDbScale
 70
     0
300
1'-0" = 1'-0"
140
12.0
141
12.0
290
     0
  0
TABLESTYLE
  5
6A
102
{ACAD_REACTORS
330
69
102
}
102
{ACAD_XDICTIONARY
360
428
102
}
330
69
100
AcDbTableStyle
  3
Standard
 70
     0
 71
     0
 40
0.06
 41
0.06
280
     0
281
     0
  7
Standard
140
4.5
170
     2
 62
     0
 63
   257
283
     0
274
    -2
284
     1
 64
     0
275
    -2
285
     1
 65
     0
276
    -2
286
     1
 66
     0
277
    -2
287
     1
 67
     0
278
    -2
288
     1
 68
     0
279
    -2
289
     1
 69
     0
  7
Standard
140
6.0
170
     5
 62
     0
 63
   257
283
     0
274
    -2
284
     1
 64
     0
275
    -2
285
     1
 65
     0
276
    -2
286
     1
 66
     0
277
    -2
287
     1
 67
     0
278
    -2
288
     1
 68
     0
279
    -2
289
     1
 69
     0
  7
Standard
140
4.5
170
     5
 62
     0
 63
   257
283
     0
274
    -2
284
     1
 64
     0
275
    -2
285
     1
 65
     0
276
    -2
286
     1
 66
     0
277
    -2
287
     1
 67
     0
278
    -2
288
     1
 68
     0
279
    -2
289
     1
 69
     0
  0
VISUALSTYLE
  5
2F
102
{ACAD_REACTORS
330
2A
102
}
102
{ACAD_XDICTIONARY
360
3FA
102
}
330
2A
100
AcDbVisualStyle
  2
2dWireframe
 70
     4
 71
     0
 72
     2
 73
     0
 90
        0
 40
0.6
 41
30.0
 62
     5
 63
     7
421
 16777215
 74
     1
 91
        4
 64
     7
 65
   257
 75
     1
175
     1
 42
1.0
 92
        0
 66
   257
 43
1.0
 76
     1
 77
     6
 78
     2
 67
     7
 79
     5
170
     0
171
     0
290
     0
174
     0
 93
        1
 44
0.0
173
     0
291
     0
 45
0.0
1001
ACAD
1000
AcDbSavedByObjectVersion
1070
     0
  0
VISUALSTYLE
  5
32
102
{ACAD_REACTORS
330
2A
102
}
102
{ACAD_XDICTIONARY
360
400
102
}
330
2A
100
AcDbVisualStyle
  2
Basic
 70
     7
 71
     1
 72
     0
 73
     1
 90
        0
 40
0.6
 41
30.0
 62
     5
 63
     7
421
 16777215
 74
     0
 91
        4
 64
     7
 65
   257
 75
     1
175
     1
 42
1.0
 92
        8
 66
     7
 43
1.0
 76
     1
 77
     6
 78
     2
 67
     7
 79
     5
170
     0
171
     0
290
     0
174
     0
 93
        1
 44
0.0
173
     0
291
     1
 45
0.0
1001
ACAD
1000
AcDbSavedByObjectVersion
1070
     0
  0
VISUALSTYLE
  5
36
102
{ACAD_REACTORS
330
2A
102
}
102
{ACAD_XDICTIONARY
360
408
102
}
330
2A
100
AcDbVisualStyle
  2
Brighten
 70
    12
 71
     2
 72
     2
 73
     0
 90
        0
 40
0.6
 41
30.0
 62
     5
 63
     7
421
 16777215
 74
     1
 91
        4
 64
     7
 65
   257
 75
     1
175
     1
 42
1.0
 92
        8
 66
     7
 43
1.0
 76
     1
 77
     6
 78
     2
 67
     7
 79
     5
170
     0
171
     0
290
     0
174
     0
 93
        1
 44
50.0
173
     0
291
     1
 45
0.0
1001
ACAD
1000
AcDbSavedByObjectVersion
1070
     0
  0
VISUALSTYLE
  5
3A
102
{ACAD_REACTORS
330
2A
102
}
102
{ACAD_XDICTIONARY
360
410
102
}
330
2A
100
AcDbVisualStyle
  2
ColorChange
 70
    16
 71
     2
 72
     2
 73
     3
 90
        0
 40
0.6
 41
30.0
 62
     5
 63
     8
421
  8421504
 74
     1
 91
        4
 64
     7
 65
   257
 75
     1
175
     1
 42
1.0
 92
        8
 66
     8
424
  8421504
 43
1.0
 76
     1
 77
     6
 78
     2
 67
     7
 79
     5
170
     0
171
     0
290
     0
174
     0
 93
        1
 44
0.0
173
     0
291
     1
 45
0.0
1001
ACAD
1000
AcDbSavedByObjectVersion
1070
     0
  0
VISUALSTYLE
  5
34
102
{ACAD_REACTORS
330
2A
102
}
102
{ACAD_XDICTIONARY
360
404
102
}
330
2A
100
AcDbVisualStyle
  2
Conceptual
 70
     9
 71
     3
 72
     2
 73
     0
 90
        0
 40
0.6
 41
30.0
 62
     5
 63
     7
421
 16777215
 74
     2
 91
        2
 64
     7
 65
   257
 75
     1
175
     1
 42
179.0
 92
        8
 66
     7
 43
1.0
 76
     1
 77
     6
 78
     2
 67
     7
 79
     3
170
     0
171
     0
290
     0
174
     0
 93
        1
 44
0.0
173
     0
291
     0
 45
0.0
1001
ACAD
1000
AcDbSavedByObjectVersion
1070
     0
  0
VISUALSTYLE
  5
35
102
{ACAD_REACTORS
330
2A
102
}
102
{ACAD_XDICTIONARY
360
406
102
}
330
2A
100
AcDbVisualStyle
  2
Dim
 70
    11
 71
     2
 72
     2
 73
     0
 90
        0
 40
0.6
 41
30.0
 62
     5
 63
     7
421
 16777215
 74
     1
 91
        4
 64
     7
 65
   257
 75
     1
175
     1
 42
1.0
 92
        8
 66
     7
 43
1.0
 76
     1
 77
     6
 78
     2
 67
     7
 79
     5
170
     0
171
     0
290
     0
174
     0
 93
        1
 44
-50.0
173
     0
291
     1
 45
0.0
1001
ACAD
1000
AcDbSavedByObjectVersion
1070
     0
  0
VISUALSTYLE
  5
3D
102
{ACAD_REACTORS
330
2A
102
}
102
{ACAD_XDICTIONARY
360
416
102
}
330
2A
100
AcDbVisualStyle
  2
EdgeColorOff
 70
    22
 71
     2
 72
     2
 73
     0
 90
        0
 40
0.6
 41
30.0
 62
     5
 63
     7
421
 16777215
 74
     1
 91
        4
 64
     7
 65
   257
 75
     1
175
     1
 42
1.0
 92
        8
 66
     7
 43
1.0
 76
     1
 77
     6
 78
     2
 67
     7
 79
     5
170
     0
171
     0
290
     0
174
     0
 93
        1
 44
0.0
173
     0
291
     1
 45
0.0
1001
ACAD
1000
AcDbSavedByObjectVersion
1070
     0
  0
VISUALSTYLE
  5
39
102
{ACAD_REACTORS
330
2A
102
}
102
{ACAD_XDICTIONARY
360
40E
102
}
330
2A
100
AcDbVisualStyle
  2
Facepattern
 70
    15
 71
     2
 72
     2
 73
     0
 90
        0
 40
0.6
 41
30.0
 62
     5
 63
     7
421
 16777215
 74
     1
 91
        4
 64
     7
 65
   257
 75
     1
175
     1
 42
1.0
 92
        8
 66
     7
 43
1.0
 76
     1
 77
     6
 78
     2
 67
     7
 79
     5
170
     0
171
     0
290
     0
174
     0
 93
        1
 44
0.0
173
     0
291
     1
 45
0.0
1001
ACAD
1000
AcDbSavedByObjectVersion
1070
     0
  0
VISUALSTYLE
  5
2B
102
{ACAD_REACTORS
330
2A
102
}
102
{ACAD_XDICTIONARY
360
3F2
102
}
330
2A
100
AcDbVisualStyle
  2
Flat
 70
     0
 71
     2
 72
     1
 73
     1
 90
        2
 40
0.6
 41
30.0
 62
     5
 63
     7
421
 16777215
 74
     0
 91
        0
 64
     7
 65
   257
 75
     1
175
     1
 42
1.0
 92
        8
 66
     7
 43
1.0
 76
     1
 77
     6
 78
     2
 67
     7
 79
     5
170
     0
171
     0
290
     0
174
     0
 93
       13
 44
0.0
173
     0
291
     1
 45
0.0
1001
ACAD
1000
AcDbSavedByObjectVersion
1070
     0
  0
VISUALSTYLE
  5
2C
102
{ACAD_REACTORS
330
2A
102
}
102
{ACAD_XDICTIONARY
360
3F4
102
}
330
2A
100
AcDbVisualStyle
  2
FlatWithEdges
 70
     1
 71
     2
 72
     1
 73
     1
 90
        2
 40
0.6
 41
30.0
 62
     5
 63
     7
421
 16777215
 74
     1
 91
        0
 64
     7
 65
   257
 75
     1
175
     1
 42
1.0
 92
        0
 66
   257
 43
1.0
 76
     1
 77
     6
 78
     2
 67
     7
 79
     5
170
     0
171
     0
290
     0
174
     0
 93
       13
 44
0.0
173
     0
291
     1
 45
0.0
1001
ACAD
1000
AcDbSavedByObjectVersion
1070
     0
  0
VISUALSTYLE
  5
2D
102
{ACAD_REACTORS
330
2A
102
}
102
{ACAD_XDICTIONARY
360
3F6
102
}
330
2A
100
AcDbVisualStyle
  2
Gouraud
 70
     2
 71
     2
 72
     2
 73
     1
 90
        2
 40
0.6
 41
30.0
 62
     5
 63
     7
421
 16777215
 74
     0
 91
        0
 64
     7
 65
   257
 75
     1
175
     1
 42
1.0
 92
        0
 66
     7
 43
1.0
 76
     1
 77
     6
 78
     2
 67
     7
 79
     5
170
     0
171
     0
290
     0
174
     0
 93
       13
 44
0.0
173
     0
291
     1
 45
0.0
1001
ACAD
1000
AcDbSavedByObjectVersion
1070
     0
  0
VISUALSTYLE
  5
2E
102
{ACAD_REACTORS
330
2A
102
}
102
{ACAD_XDICTIONARY
360
3F8
102
}
330
2A
100
AcDbVisualStyle
  2
GouraudWithEdges
 70
     3
 71
     2
 72
     2
 73
     1
 90
        2
 40
0.6
 41
30.0
 62
     5
 63
     7
421
 16777215
 74
     1
 91
        0
 64
     7
 65
   257
 75
     1
175
     1
 42
1.0
 92
        0
 66
   257
 43
1.0
 76
     1
 77
     6
 78
     2
 67
     7
 79
     5
170
     0
171
     0
290
     0
174
     0
 93
       13
 44
0.0
173
     0
291
     1
 45
0.0
1001
ACAD
1000
AcDbSavedByObjectVersion
1070
     0
  0
VISUALSTYLE
  5
31
102
{ACAD_REACTORS
330
2A
102
}
102
{ACAD_XDICTIONARY
360
3FE
102
}
330
2A
100
AcDbVisualStyle
  2
Hidden
 70
     6
 71
     1
 72
     2
 73
     2
 90
        0
 40
0.6
 41
30.0
 62
     5
 63
     7
421
 16777215
 74
     2
 91
        2
 64
     7
 65
   257
 75
     2
175
     1
 42
40.0
 92
        0
 66
   257
 43
1.0
 76
     1
 77
     6
 78
     2
 67
     7
 79
     3
170
     0
171
     0
290
     0
174
     0
 93
        1
 44
0.0
173
     0
291
     0
 45
0.0
1001
ACAD
1000
AcDbSavedByObjectVersion
1070
     0
  0
VISUALSTYLE
  5
3B
102
{ACAD_REACTORS
330
2A
102
}
102
{ACAD_XDICTIONARY
360
412
102
}
330
2A
100
AcDbVisualStyle
  2
JitterOff
 70
    20
 71
     2
 72
     2
 73
     0
 90
        0
 40
0.6
 41
30.0
 62
     5
 63
     7
421
 16777215
 74
     1
 91
        4
 64
     7
 65
   257
 75
     1
175
     1
 42
1.0
 92
       10
 66
     7
 43
1.0
 76
     1
 77
     6
 78
     2
 67
     7
 79
     5
170
     0
171
     0
290
     0
174
     0
 93
        1
 44
0.0
173
     0
291
     1
 45
0.0
1001
ACAD
1000
AcDbSavedByObjectVersion
1070
     0
  0
VISUALSTYLE
  5
38
102
{ACAD_REACTORS
330
2A
102
}
102
{ACAD_XDICTIONARY
360
40C
102
}
330
2A
100
AcDbVisualStyle
  2
Linepattern
 70
    14
 71
     2
 72
     2
 73
     0
 90
        0
 40
0.6
 41
30.0
 62
     5
 63
     7
421
 16777215
 74
     1
 91
        4
 64
     7
 65
   257
 75
     7
175
     7
 42
1.0
 92
        8
 66
     7
 43
1.0
 76
     1
 77
     6
 78
     2
 67
     7
 79
     5
170
     0
171
     0
290
     0
174
     0
 93
        1
 44
0.0
173
     0
291
     1
 45
0.0
1001
ACAD
1000
AcDbSavedByObjectVersion
1070
     0
  0
VISUALSTYLE
  5
3C
102
{ACAD_REACTORS
330
2A
102
}
102
{ACAD_XDICTIONARY
360
414
102
}
330
2A
100
AcDbVisualStyle
  2
OverhangOff
 70
    21
 71
     2
 72
     2
 73
     0
 90
        0
 40
0.6
 41
30.0
 62
     5
 63
     7
421
 16777215
 74
     1
 91
        4
 64
     7
 65
   257
 75
     1
175
     1
 42
1.0
 92
        9
 66
     7
 43
1.0
 76
     1
 77
     6
 78
     2
 67
     7
 79
     5
170
     0
171
     0
290
     0
174
     0
 93
        1
 44
0.0
173
     0
291
     1
 45
0.0
1001
ACAD
1000
AcDbSavedByObjectVersion
1070
     0
  0
VISUALSTYLE
  5
33
102
{ACAD_REACTORS
330
2A
102
}
102
{ACAD_XDICTIONARY
360
402
102
}
330
2A
100
AcDbVisualStyle
  2
Realistic
 70
     8
 71
     2
 72
     3
 73
     0
 90
        2
 40
0.6
 41
30.0
 62
     5
 63
     7
421
 16777215
 74
     0
 91
        0
 64
     7
 65
   257
 75
     1
175
     1
 42
1.0
 92
        8
 66
   257
 43
1.0
 76
     1
 77
     6
 78
     2
 67
     7
 79
     3
170
     0
171
     0
290
     0
174
     0
 93
       13
 44
0.0
173
     0
291
     0
 45
0.0
1001
ACAD
1000
AcDbSavedByObjectVersion
1070
     0
  0
VISUALSTYLE
  5
42
102
{ACAD_REACTORS
330
2A
102
}
102
{ACAD_XDICTIONARY
360
420
102
}
330
2A
100
AcDbVisualStyle
  2
Shaded
 70
    27
 71
     2
 72
     2
 73
     1
 90
        2
 40
0.6
 41
30.0
 62
     5
 63
     7
421
 16777215
 74
     0
 91
        4
 64
     7
 65
   257
 75
     1
175
     1
 42
1.0
 92
        8
 66
   257
 43
1.0
 76
     1
 77
     6
 78
     2
 67
     8
425
  7895160
 79
     3
170
     0
171
     0
290
     0
174
     0
 93
        5
 44
0.0
173
     0
291
     0
 45
0.0
1001
ACAD
1000
AcDbSavedByObjectVersion
1070
     0
  0
VISUALSTYLE
  5
41
102
{ACAD_REACTORS
330
2A
102
}
102
{ACAD_XDICTIONARY
360
41E
102
}
330
2A
100
AcDbVisualStyle
  2
Shaded with edges
 70
    26
 71
     2
 72
     2
 73
     1
 90
        2
 40
0.6
 41
30.0
 62
     5
 63
     7
421
 16777215
 74
     1
 91
       10
 64
     7
 65
   257
 75
     2
175
     1
 42
1.0
 92
        8
 66
   257
 43
1.0
 76
     1
 77
     6
 78
     2
 67
     7
 79
     3
170
     0
171
     0
290
     0
174
     0
 93
        5
 44
0.0
173
     0
291
     0
 45
0.0
1001
ACAD
1000
AcDbSavedByObjectVersion
1070
     0
  0
VISUALSTYLE
  5
3E
102
{ACAD_REACTORS
330
2A
102
}
102
{ACAD_XDICTIONARY
360
418
102
}
330
2A
100
AcDbVisualStyle
  2
Shades of Gray
 70
    23
 71
     2
 72
     2
 73
     3
 90
        0
 40
0.6
 41
30.0
 62
     5
 63
     7
421
 16777215
 74
     2
 91
        2
 64
     7
 65
     7
 75
     1
175
     1
 42
40.0
 92
        8
 66
     7
 43
1.0
 76
     1
 77
     6
 78
     2
 67
     7
 79
     3
170
     0
171
     0
290
     0
174
     0
 93
        1
 44
0.0
173
     0
291
     0
 45
0.0
1001
ACAD
1000
AcDbSavedByObjectVersion
1070
     0
  0
VISUALSTYLE
  5
3F
102
{ACAD_REACTORS
330
2A
102
}
102
{ACAD_XDICTIONARY
360
41A
102
}
330
2A
100
AcDbVisualStyle
  2
Sketchy
 70
    24
 71
     1
 72
     2
 73
     2
 90
        0
 40
0.6
 41
30.0
 62
     5
 63
     7
421
 16777215
 74
     2
 91
        2
 64
     7
 65
     7
 75
     1
175
     1
 42
40.0
 92
       11
 66
     7
 43
1.0
 76
     1
 77
     6
 78
     2
 67
     7
 79
     6
170
     0
171
     0
290
     0
174
     0
 93
        1
 44
0.0
173
     0
291
     0
 45
0.0
1001
ACAD
1000
AcDbSavedByObjectVersion
1070
     0
  0
VISUALSTYLE
  5
37
102
{ACAD_REACTORS
330
2A
102
}
102
{ACAD_XDICTIONARY
360
40A
102
}
330
2A
100
AcDbVisualStyle
  2
Thicken
 70
    13
 71
     2
 72
     2
 73
     0
 90
        0
 40
0.6
 41
30.0
 62
     5
 63
     7
421
 16777215
 74
     1
 91
        4
 64
     7
 65
   257
 75
     1
175
     1
 42
1.0
 92
       12
 66
     7
 43
1.0
 76
     1
 77
     6
 78
     2
 67
     7
 79
     5
170
     0
171
     0
290
     0
174
     0
 93
        1
 44
0.0
173
     0
291
     1
 45
0.0
1001
ACAD
1000
AcDbSavedByObjectVersion
1070
     0
  0
VISUALSTYLE
  5
30
102
{ACAD_REACTORS
330
2A
102
}
102
{ACAD_XDICTIONARY
360
3FC
102
}
330
2A
100
AcDbVisualStyle
  2
Wireframe
 70
     5
 71
     0
 72
     2
 73
     0
 90
        0
 40
0.6
 41
30.0
 62
     5
 63
     7
421
 16777215
 74
     1
 91
        4
 64
     7
 65
   257
 75
     1
175
     1
 42
1.0
 92
        0
 66
   257
 43
1.0
 76
     1
 77
     6
 78
     2
 67
     7
 79
     3
170
     0
171
     0
290
     0
174
     0
 93
        1
 44
0.0
173
     0
291
     0
 45
0.0
1001
ACAD
1000
AcDbSavedByObjectVersion
1070
     0
  0
VISUALSTYLE
  5
40
102
{ACAD_REACTORS
330
2A
102
}
102
{ACAD_XDICTIONARY
360
41C
102
}
330
2A
100
AcDbVisualStyle
  2
X-Ray
 70
    25
 71
     2
 72
     2
 73
     1
 90
        1
 40
0.5
 41
30.0
 62
     5
 63
     7
421
 16777215
 74
     1
 91
        0
 64
     7
 65
   257
 75
     1
175
     1
 42
1.0
 92
        8
 66
     7
 43
1.0
 76
     1
 77
     6
 78
     2
 67
     7
 79
     3
170
     0
171
     0
290
     0
174
     0
 93
       13
 44
0.0
173
     0
291
     0
 45
0.0
1001
ACAD
1000
AcDbSavedByObjectVersion
1070
     0
  0
DICTIONARYVAR
  5
3EF
102
{ACAD_REACTORS
330
3EE
102
}
330
3EE
100
DictionaryVariables
280
     0
  1
1:1
  0
DICTIONARYVAR
  5
430
102
{ACAD_REACTORS
330
3EE
102
}
330
3EE
100
DictionaryVariables
280
     0
  1
Standard
  0
DICTIONARYVAR
  5
42F
102
{ACAD_REACTORS
330
3EE
102
}
330
3EE
100
DictionaryVariables
280
     0
  1
Standard
  0
DICTIONARYVAR
  5
3F0
102
{ACAD_REACTORS
330
3EE
102
}
330
3EE
100
DictionaryVariables
280
     0
  1
1
  0
DICTIONARYVAR
  5
433
102
{ACAD_REACTORS
330
3EE
102
}
330
3EE
100
DictionaryVariables
280
     0
  1
6.000000
  0
DICTIONARYVAR
  5
3F1
102
{ACAD_REACTORS
330
3EE
102
}
330
3EE
100
DictionaryVariables
280
     0
  1
2
  0
DICTIONARY
  5
424
330
45
100
AcDbDictionary
280
     1
281
     1
  3
ACAD_XREC_ROUNDTRIP
360
425
  0
DICTIONARY
  5
422
330
44
100
AcDbDictionary
280
     1
281
     1
  3
ACAD_XREC_ROUNDTRIP
360
423
  0
DICTIONARY
  5
426
330
46
100
AcDbDictionary
280
     1
281
     1
  3
ACAD_XREC_ROUNDTRIP
360
427
  0
DICTIONARY
  5
42C
330
6C
100
AcDbDictionary
280
     1
281
     1
  3
ACAD_XREC_ROUNDTRIP
360
42D
  0
DICTIONARY
  5
428
330
6A
100
AcDbDictionary
280
     1
281
     1
  3
ACAD_ROUNDTRIP_2008_TABLESTYLE_CELLSTYLEMAP
360
42A
  3
ACAD_XREC_ROUNDTRIP
360
429
  0
DICTIONARY
  5
3FA
330
2F
100
AcDbDictionary
280
     1
281
     1
  3
ACAD_XREC_ROUNDTRIP
360
3FB
  0
DICTIONARY
  5
400
330
32
100
AcDbDictionary
280
     1
281
     1
  3
ACAD_XREC_ROUNDTRIP
360
401
  0
DICTIONARY
  5
408
330
36
100
AcDbDictionary
280
     1
281
     1
  3
ACAD_XREC_ROUNDTRIP
360
409
  0
DICTIONARY
  5
410
330
3A
100
AcDbDictionary
280
     1
281
     1
  3
ACAD_XREC_ROUNDTRIP
360
411
  0
DICTIONARY
  5
404
330
34
100
AcDbDictionary
280
     1
281
     1
  3
ACAD_XREC_ROUNDTRIP
360
405
  0
DICTIONARY
  5
406
330
35
100
AcDbDictionary
280
     1
281
     1
  3
ACAD_XREC_ROUNDTRIP
360
407
  0
DICTIONARY
  5
416
330
3D
100
AcDbDictionary
280
     1
281
     1
  3
ACAD_XREC_ROUNDTRIP
360
417
  0
DICTIONARY
  5
40E
330
39
100
AcDbDictionary
280
     1
281
     1
  3
ACAD_XREC_ROUNDTRIP
360
40F
  0
DICTIONARY
  5
3F2
330
2B
100
AcDbDictionary
280
     1
281
     1
  3
ACAD_XREC_ROUNDTRIP
360
3F3
  0
DICTIONARY
  5
3F4
330
2C
100
AcDbDictionary
280
     1
281
     1
  3
ACAD_XREC_ROUNDTRIP
360
3F5
  0
DICTIONARY
  5
3F6
330
2D
100
AcDbDictionary
280
     1
281
     1
  3
ACAD_XREC_ROUNDTRIP
360
3F7
  0
DICTIONARY
  5
3F8
330
2E
100
AcDbDictionary
280
     1
281
     1
  3
ACAD_XREC_ROUNDTRIP
360
3F9
  0
DICTIONARY
  5
3FE
330
31
100
AcDbDictionary
280
     1
281
     1
  3
ACAD_XREC_ROUNDTRIP
360
3FF
  0
DICTIONARY
  5
412
330
3B
100
AcDbDictionary
280
     1
281
     1
  3
ACAD_XREC_ROUNDTRIP
360
413
  0
DICTIONARY
  5
40C
330
38
100
AcDbDictionary
280
     1
281
     1
  3
ACAD_XREC_ROUNDTRIP
360
40D
  0
DICTIONARY
  5
414
330
3C
100
AcDbDictionary
280
     1
281
     1
  3
ACAD_XREC_ROUNDTRIP
360
415
  0
DICTIONARY
  5
402
330
33
100
AcDbDictionary
280
     1
281
     1
  3
ACAD_XREC_ROUNDTRIP
360
403
  0
DICTIONARY
  5
420
330
42
100
AcDbDictionary
280
     1
281
     1
  3
ACAD_XREC_ROUNDTRIP
360
421
  0
DICTIONARY
  5
41E
330
41
100
AcDbDictionary
280
     1
281
     1
  3
ACAD_XREC_ROUNDTRIP
360
41F
  0
DICTIONARY
  5
418
330
3E
100
AcDbDictionary
280
     1
281
     1
  3
ACAD_XREC_ROUNDTRIP
360
419
  0
DICTIONARY
  5
41A
330
3F
100
AcDbDictionary
280
     1
281
     1
  3
ACAD_XREC_ROUNDTRIP
360
41B
  0
DICTIONARY
  5
40A
330
37
100
AcDbDictionary
280
     1
281
     1
  3
ACAD_XREC_ROUNDTRIP
360
40B
  0
DICTIONARY
  5
3FC
330
30
100
AcDbDictionary
280
     1
281
     1
  3
ACAD_XREC_ROUNDTRIP
360
3FD
  0
DICTIONARY
  5
41C
330
40
100
AcDbDictionary
280
     1
281
     1
  3
ACAD_XREC_ROUNDTRIP
360
41D
  0
XRECORD
  5
425
102
{ACAD_REACTORS
330
424
102
}
330
424
100
AcDbXrecord
280
     1
102
MATERIAL
148
0.0
149
0.0
149
0.0
 93
        0
 94
      127
282
     0
 72
     1
 77
     1
171
     1
175
     1
179
     1
273
     0
  0
XRECORD
  5
423
102
{ACAD_REACTORS
330
422
102
}
330
422
100
AcDbXrecord
280
     1
102
MATERIAL
148
0.0
149
0.0
149
0.0
 93
        0
 94
      127
282
     0
 72
     1
 77
     1
171
     1
175
     1
179
     1
273
     0
  0
XRECORD
  5
427
102
{ACAD_REACTORS
330
426
102
}
330
426
100
AcDbXrecord
280
     1
102
MATERIAL
148
0.0
149
0.0
149
0.0
 93
        0
 94
      127
282
     0
 72
     1
 77
     1
171
     1
175
     1
179
     1
273
     0
  0
XRECORD
  5
42D
102
{ACAD_REACTORS
330
42C
102
}
330
42C
100
AcDbXrecord
280
     1
102
ACAD_ROUNDTRIP_2010_MLEADER_STYLE
  0
CELLSTYLEMAP
  5
42A
102
{ACAD_REACTORS
330
428
102
}
330
428
100
AcDbCellStyleMap
 90
        3
300
CELLSTYLE
  1
TABLEFORMAT_BEGIN
 90
        5
170
     1
 91
        0
 92
    32768
 62
   257
 93
        1
300
CONTENTFORMAT
  1
CONTENTFORMAT_BEGIN
 90
        0
 91
        0
 92
        4
 93
        0
300

 40
0.0
140
1.0
 94
        5
 62
     0
340
11
144
6.0
309
CONTENTFORMAT_END
171
     1
301
MARGIN
  1
CELLMARGIN_BEGIN
 40
1.5
 40
1.5
 40
1.5
 40
1.5
 40
1.5
 40
1.5
309
CELLMARGIN_END
 94
        6
 95
        1
302
GRIDFORMAT
  1
GRIDFORMAT_BEGIN
 90
        0
 91
        1
 62
     0
 92
       -2
340
14
 93
        0
 40
0.045
309
GRIDFORMAT_END
 95
        2
302
GRIDFORMAT
  1
GRIDFORMAT_BEGIN
 90
        0
 91
        1
 62
     0
 92
       -2
340
14
 93
        0
 40
0.045
309
GRIDFORMAT_END
 95
        4
302
GRIDFORMAT
  1
GRIDFORMAT_BEGIN
 90
        0
 91
        1
 62
     0
 92
       -2
340
14
 93
        0
 40
0.045
309
GRIDFORMAT_END
 95
        8
302
GRIDFORMAT
  1
GRIDFORMAT_BEGIN
 90
        0
 91
        1
 62
     0
 92
       -2
340
14
 93
        0
 40
0.045
309
GRIDFORMAT_END
 95
       16
302
GRIDFORMAT
  1
GRIDFORMAT_BEGIN
 90
        0
 91
        1
 62
     0
 92
       -2
340
14
 93
        0
 40
0.045
309
GRIDFORMAT_END
 95
       32
302
GRIDFORMAT
  1
GRIDFORMAT_BEGIN
 90
        0
 91
        1
 62
     0
 92
       -2
340
14
 93
        0
 40
0.045
309
GRIDFORMAT_END
309
TABLEFORMAT_END
  1
CELLSTYLE_BEGIN
 90
        1
 91
        1
300
_TITLE
309
CELLSTYLE_END
300
CELLSTYLE
  1
TABLEFORMAT_BEGIN
 90
        5
170
     1
 91
        0
 92
        0
 62
   257
 93
        1
300
CONTENTFORMAT
  1
CONTENTFORMAT_BEGIN
 90
        0
 91
        0
 92
        4
 93
        0
300

 40
0.0
140
1.0
 94
        5
 62
     0
340
11
144
4.5
309
CONTENTFORMAT_END
171
     1
301
MARGIN
  1
CELLMARGIN_BEGIN
 40
1.5
 40
1.5
 40
1.5
 40
1.5
 40
1.5
 40
1.5
309
CELLMARGIN_END
 94
        6
 95
        1
302
GRIDFORMAT
  1
GRIDFORMAT_BEGIN
 90
        0
 91
        1
 62
     0
 92
       -2
340
14
 93
        0
 40
0.045
309
GRIDFORMAT_END
 95
        2
302
GRIDFORMAT
  1
GRIDFORMAT_BEGIN
 90
        0
 91
        1
 62
     0
 92
       -2
340
14
 93
        0
 40
0.045
309
GRIDFORMAT_END
 95
        4
302
GRIDFORMAT
  1
GRIDFORMAT_BEGIN
 90
        0
 91
        1
 62
     0
 92
       -2
340
14
 93
        0
 40
0.045
309
GRIDFORMAT_END
 95
        8
302
GRIDFORMAT
  1
GRIDFORMAT_BEGIN
 90
        0
 91
        1
 62
     0
 92
       -2
340
14
 93
        0
 40
0.045
309
GRIDFORMAT_END
 95
       16
302
GRIDFORMAT
  1
GRIDFORMAT_BEGIN
 90
        0
 91
        1
 62
     0
 92
       -2
340
14
 93
        0
 40
0.045
309
GRIDFORMAT_END
 95
       32
302
GRIDFORMAT
  1
GRIDFORMAT_BEGIN
 90
        0
 91
        1
 62
     0
 92
       -2
340
14
 93
        0
 40
0.045
309
GRIDFORMAT_END
309
TABLEFORMAT_END
  1
CELLSTYLE_BEGIN
 90
        2
 91
        1
300
_HEADER
309
CELLSTYLE_END
300
CELLSTYLE
  1
TABLEFORMAT_BEGIN
 90
        5
170
     1
 91
        0
 92
        0
 62
   257
 93
        1
300
CONTENTFORMAT
  1
CONTENTFORMAT_BEGIN
 90
        0
 91
        0
 92
        4
 93
        0
300

 40
0.0
140
1.0
 94
        2
 62
     0
340
11
144
4.5
309
CONTENTFORMAT_END
171
     1
301
MARGIN
  1
CELLMARGIN_BEGIN
 40
1.5
 40
1.5
 40
1.5
 40
1.5
 40
1.5
 40
1.5
309
CELLMARGIN_END
 94
        6
 95
        1
302
GRIDFORMAT
  1
GRIDFORMAT_BEGIN
 90
        0
 91
        1
 62
     0
 92
       -2
340
14
 93
        0
 40
0.045
309
GRIDFORMAT_END
 95
        2
302
GRIDFORMAT
  1
GRIDFORMAT_BEGIN
 90
        0
 91
        1
 62
     0
 92
       -2
340
14
 93
        0
 40
0.045
309
GRIDFORMAT_END
 95
        4
302
GRIDFORMAT
  1
GRIDFORMAT_BEGIN
 90
        0
 91
        1
 62
     0
 92
       -2
340
14
 93
        0
 40
0.045
309
GRIDFORMAT_END
 95
        8
302
GRIDFORMAT
  1
GRIDFORMAT_BEGIN
 90
        0
 91
        1
 62
     0
 92
       -2
340
14
 93
        0
 40
0.045
309
GRIDFORMAT_END
 95
       16
302
GRIDFORMAT
  1
GRIDFORMAT_BEGIN
 90
        0
 91
        1
 62
     0
 92
       -2
340
14
 93
        0
 40
0.045
309
GRIDFORMAT_END
 95
       32
302
GRIDFORMAT
  1
GRIDFORMAT_BEGIN
 90
        0
 91
        1
 62
     0
 92
       -2
340
14
 93
        0
 40
0.045
309
GRIDFORMAT_END
309
TABLEFORMAT_END
  1
CELLSTYLE_BEGIN
 90
        3
 91
        2
300
_DATA
309
CELLSTYLE_END
  0
XRECORD
  5
429
102
{ACAD_REACTORS
330
428
102
}
330
428
100
AcDbXrecord
280
     1
102
ACAD_ROUNDTRIP_PRE2007_TABLESTYLE
 90
        4
 91
        0
  1

 92
        4
 93
        0
  2

 94
        4
 95
        0
  3

  0
XRECORD
  5
3FB
102
{ACAD_REACTORS
330
3FA
102
}
330
3FA
100
AcDbXrecord
280
     1
102
RTVSPropertyOp0
 70
     1
102
RTVSPropertyOp1
 70
     1
102
RTVSPropertyOp2
 70
     1
102
RTVSPropertyOp3
 70
     1
102
RTVSPropertyOp4
 70
     1
102
RTVSPropertyOp5
 70
     1
102
RTVSPropertyOp6
 70
     1
102
RTVSPropertyOp7
 70
     1
102
RTVSPropertyOp8
 70
     1
102
RTVSPropertyOp9
 70
     1
102
RTVSPropertyOp10
 70
     1
102
RTVSPropertyOp11
 70
     1
102
RTVSPropertyOp12
 70
     1
102
RTVSPropertyOp13
 70
     1
102
RTVSPropertyOp14
 70
     1
102
RTVSPropertyOp15
 70
     1
102
RTVSPropertyOp16
 70
     1
102
RTVSPropertyOp17
 70
     1
102
RTVSPropertyOp18
 70
     1
102
RTVSPropertyOp19
 70
     1
102
RTVSPropertyOp20
 70
     1
102
RTVSPropertyOp21
 70
     1
102
RTVSPropertyOp22
 70
     1
102
RTVSPropertyOp23
 70
     1
102
RTVSPropertyOp24
 70
     1
102
RTVSPropertyOp25
 70
     1
102
RTVSPropertyOp26
 70
     1
102
RTVSPropertyOp27
 70
     1
102
RTVSPropertyOp28
 70
     1
102
RTVSPropertyOp29
 70
     1
102
RTVSPropertyOp30
 70
     1
102
RTVSPropertyOp31
 70
     1
102
RTVSPropertyOp32
 70
     1
102
RTVSPropertyOp33
 70
     1
102
RTVSPropertyOp34
 70
     1
102
RTVSPropertyOp35
 70
     1
102
RTVSPropertyOp36
 70
     1
102
RTVSPropertyOp37
 70
     1
102
RTVSPropertyOp38
 70
     1
102
RTVSPropertyOp39
 70
     1
102
RTVSPropertyOp40
 70
     1
102
RTVSPropertyOp41
 70
     1
102
RTVSPropertyOp42
 70
     1
102
RTVSPropertyOp43
 70
     1
102
RTVSPropertyOp44
 70
     1
102
RTVSPropertyOp45
 70
     1
102
RTVSPropertyOp46
 70
     1
102
RTVSPropertyOp47
 70
     1
102
RTVSPropertyOp48
 70
     1
102
RTVSPropertyOp49
 70
     1
102
RTVSPropertyOp50
 70
     1
102
RTVSPropertyOp51
 70
     0
102
RTVSPropertyOp52
 70
     0
102
RTVSPropertyOp53
 70
     1
102
RTVSPropertyOp54
 70
     1
102
RTVSPropertyOp55
 70
     1
102
RTVSPropertyOp56
 70
     1
102
RTVSPropertyOp57
 70
     1
102
RTVSPost2010Prop28
280
     1
102
RTVSPost2010PropOp28
 70
     1
102
RTVSPost2010Prop29
280
     1
102
RTVSPost2010PropOp29
 70
     1
102
RTVSPost2010Prop30
280
     0
102
RTVSPost2010PropOp30
 70
     1
102
RTVSPost2010Prop31
280
     0
102
RTVSPost2010PropOp31
 70
     1
102
RTVSPost2010Prop32
280
     0
102
RTVSPost2010PropOp32
 70
     1
102
RTVSPost2010Prop33
280
     0
102
RTVSPost2010PropOp33
 70
     1
102
RTVSPost2010Prop34
280
     0
102
RTVSPost2010PropOp34
 70
     1
102
RTVSPost2010Prop35
280
     0
102
RTVSPost2010PropOp35
 70
     1
102
RTVSPost2010Prop36
280
     0
102
RTVSPost2010PropOp36
 70
     1
102
RTVSPost2010Prop37
 90
       50
102
RTVSPost2010PropOp37
 70
     1
102
RTVSPost2010Prop38
140
0.0
102
RTVSPost2010PropOp38
 70
     1
102
RTVSPost2010Prop39
140
1.0
102
RTVSPost2010PropOp39
 70
     1
102
RTVSPost2010Prop40
 90
        0
102
RTVSPost2010PropOp40
 70
     1
102
RTVSPost2010Prop41ColorIndex
 90
       18
102
RTVSPost2010Prop41ColorRGB
 90
        0
102
RTVSPost2010PropOp41
 70
     1
102
RTVSPost2010Prop42
 90
       50
102
RTVSPost2010PropOp42
 70
     1
102
RTVSPost2010Prop43
 90
        3
102
RTVSPost2010PropOp43
 70
     1
102
RTVSPost2010Prop44ColorIndex
 90
        5
102
RTVSPost2010Prop44ColorRGB
 90
      255
102
RTVSPost2010PropOp44
 70
     1
102
RTVSPost2010Prop45
280
     0
102
RTVSPost2010PropOp45
 70
     1
102
RTVSPost2010Prop46
 90
       50
102
RTVSPost2010PropOp46
 70
     1
102
RTVSPost2010Prop47
 90
       50
102
RTVSPost2010PropOp47
 70
     1
102
RTVSPost2010Prop48
 90
       50
102
RTVSPost2010PropOp48
 70
     1
102
RTVSPost2010Prop49
280
     0
102
RTVSPost2010PropOp49
 70
     1
102
RTVSPost2010Prop50
 90
       50
102
RTVSPost2010PropOp50
 70
     1
102
RTVSPost2010Prop51ColorIndex
 90
      256
102
RTVSPost2010Prop51ColorRGB
 90
-16777216
102
RTVSPost2010PropOp51
 70
     0
102
RTVSPost2010Prop52
140
1.0
102
RTVSPost2010PropOp52
 70
     0
102
RTVSPost2010Prop53
 90
        2
102
RTVSPost2010PropOp53
 70
     1
102
RTVSPost2010Prop54
  1
strokes_ogs.tif
102
RTVSPost2010PropOp54
 70
     1
102
RTVSPost2010Prop55
280
     0
102
RTVSPost2010PropOp55
 70
     1
102
RTVSPost2010Prop56
140
1.0
102
RTVSPost2010PropOp56
 70
     1
102
RTVSPost2010Prop57
140
1.0
102
RTVSPost2010PropOp57
 70
     1
  0
XRECORD
  5
401
102
{ACAD_REACTORS
330
400
102
}
330
400
100
AcDbXrecord
280
     1
102
RTVSPropertyOp0
 70
     1
102
RTVSPropertyOp1
 70
     1
102
RTVSPropertyOp2
 70
     1
102
RTVSPropertyOp3
 70
     1
102
RTVSPropertyOp4
 70
     1
102
RTVSPropertyOp5
 70
     1
102
RTVSPropertyOp6
 70
     1
102
RTVSPropertyOp7
 70
     1
102
RTVSPropertyOp8
 70
     1
102
RTVSPropertyOp9
 70
     1
102
RTVSPropertyOp10
 70
     1
102
RTVSPropertyOp11
 70
     1
102
RTVSPropertyOp12
 70
     1
102
RTVSPropertyOp13
 70
     1
102
RTVSPropertyOp14
 70
     1
102
RTVSPropertyOp15
 70
     1
102
RTVSPropertyOp16
 70
     1
102
RTVSPropertyOp17
 70
     1
102
RTVSPropertyOp18
 70
     1
102
RTVSPropertyOp19
 70
     1
102
RTVSPropertyOp20
 70
     1
102
RTVSPropertyOp21
 70
     1
102
RTVSPropertyOp22
 70
     1
102
RTVSPropertyOp23
 70
     1
102
RTVSPropertyOp24
 70
     1
102
RTVSPropertyOp25
 70
     1
102
RTVSPropertyOp26
 70
     1
102
RTVSPropertyOp27
 70
     1
102
RTVSPropertyOp28
 70
     1
102
RTVSPropertyOp29
 70
     1
102
RTVSPropertyOp30
 70
     1
102
RTVSPropertyOp31
 70
     1
102
RTVSPropertyOp32
 70
     1
102
RTVSPropertyOp33
 70
     1
102
RTVSPropertyOp34
 70
     1
102
RTVSPropertyOp35
 70
     1
102
RTVSPropertyOp36
 70
     1
102
RTVSPropertyOp37
 70
     1
102
RTVSPropertyOp38
 70
     1
102
RTVSPropertyOp39
 70
     1
102
RTVSPropertyOp40
 70
     1
102
RTVSPropertyOp41
 70
     1
102
RTVSPropertyOp42
 70
     1
102
RTVSPropertyOp43
 70
     1
102
RTVSPropertyOp44
 70
     1
102
RTVSPropertyOp45
 70
     1
102
RTVSPropertyOp46
 70
     1
102
RTVSPropertyOp47
 70
     1
102
RTVSPropertyOp48
 70
     1
102
RTVSPropertyOp49
 70
     1
102
RTVSPropertyOp50
 70
     1
102
RTVSPropertyOp51
 70
     0
102
RTVSPropertyOp52
 70
     0
102
RTVSPropertyOp53
 70
     1
102
RTVSPropertyOp54
 70
     1
102
RTVSPropertyOp55
 70
     1
102
RTVSPropertyOp56
 70
     1
102
RTVSPropertyOp57
 70
     1
102
RTVSPost2010Prop28
280
     0
102
RTVSPost2010PropOp28
 70
     1
102
RTVSPost2010Prop29
280
     1
102
RTVSPost2010PropOp29
 70
     1
102
RTVSPost2010Prop30
280
     1
102
RTVSPost2010PropOp30
 70
     1
102
RTVSPost2010Prop31
280
     0
102
RTVSPost2010PropOp31
 70
     1
102
RTVSPost2010Prop32
280
     0
102
RTVSPost2010PropOp32
 70
     1
102
RTVSPost2010Prop33
280
     0
102
RTVSPost2010PropOp33
 70
     1
102
RTVSPost2010Prop34
280
     0
102
RTVSPost2010PropOp34
 70
     1
102
RTVSPost2010Prop35
280
     0
102
RTVSPost2010PropOp35
 70
     1
102
RTVSPost2010Prop36
280
     0
102
RTVSPost2010PropOp36
 70
     1
102
RTVSPost2010Prop37
 90
       50
102
RTVSPost2010PropOp37
 70
     1
102
RTVSPost2010Prop38
140
0.0
102
RTVSPost2010PropOp38
 70
     1
102
RTVSPost2010Prop39
140
1.0
102
RTVSPost2010PropOp39
 70
     1
102
RTVSPost2010Prop40
 90
        0
102
RTVSPost2010PropOp40
 70
     1
102
RTVSPost2010Prop41ColorIndex
 90
       18
102
RTVSPost2010Prop41ColorRGB
 90
        0
102
RTVSPost2010PropOp41
 70
     1
102
RTVSPost2010Prop42
 90
       50
102
RTVSPost2010PropOp42
 70
     1
102
RTVSPost2010Prop43
 90
        3
102
RTVSPost2010PropOp43
 70
     1
102
RTVSPost2010Prop44ColorIndex
 90
        5
102
RTVSPost2010Prop44ColorRGB
 90
      255
102
RTVSPost2010PropOp44
 70
     1
102
RTVSPost2010Prop45
280
     0
102
RTVSPost2010PropOp45
 70
     1
102
RTVSPost2010Prop46
 90
       50
102
RTVSPost2010PropOp46
 70
     1
102
RTVSPost2010Prop47
 90
       50
102
RTVSPost2010PropOp47
 70
     1
102
RTVSPost2010Prop48
 90
       50
102
RTVSPost2010PropOp48
 70
     1
102
RTVSPost2010Prop49
280
     0
102
RTVSPost2010PropOp49
 70
     1
102
RTVSPost2010Prop50
 90
       50
102
RTVSPost2010PropOp50
 70
     1
102
RTVSPost2010Prop51ColorIndex
 90
      256
102
RTVSPost2010Prop51ColorRGB
 90
-16777216
102
RTVSPost2010PropOp51
 70
     0
102
RTVSPost2010Prop52
140
1.0
102
RTVSPost2010PropOp52
 70
     0
102
RTVSPost2010Prop53
 90
        2
102
RTVSPost2010PropOp53
 70
     1
102
RTVSPost2010Prop54
  1
strokes_ogs.tif
102
RTVSPost2010PropOp54
 70
     1
102
RTVSPost2010Prop55
280
     0
102
RTVSPost2010PropOp55
 70
     1
102
RTVSPost2010Prop56
140
1.0
102
RTVSPost2010PropOp56
 70
     1
102
RTVSPost2010Prop57
140
1.0
102
RTVSPost2010PropOp57
 70
     1
  0
XRECORD
  5
409
102
{ACAD_REACTORS
330
408
102
}
330
408
100
AcDbXrecord
280
     1
102
RTVSPropertyOp0
 70
     1
102
RTVSPropertyOp1
 70
     1
102
RTVSPropertyOp2
 70
     1
102
RTVSPropertyOp3
 70
     1
102
RTVSPropertyOp4
 70
     1
102
RTVSPropertyOp5
 70
     1
102
RTVSPropertyOp6
 70
     1
102
RTVSPropertyOp7
 70
     1
102
RTVSPropertyOp8
 70
     1
102
RTVSPropertyOp9
 70
     1
102
RTVSPropertyOp10
 70
     1
102
RTVSPropertyOp11
 70
     1
102
RTVSPropertyOp12
 70
     1
102
RTVSPropertyOp13
 70
     1
102
RTVSPropertyOp14
 70
     1
102
RTVSPropertyOp15
 70
     1
102
RTVSPropertyOp16
 70
     1
102
RTVSPropertyOp17
 70
     1
102
RTVSPropertyOp18
 70
     1
102
RTVSPropertyOp19
 70
     1
102
RTVSPropertyOp20
 70
     1
102
RTVSPropertyOp21
 70
     1
102
RTVSPropertyOp22
 70
     1
102
RTVSPropertyOp23
 70
     1
102
RTVSPropertyOp24
 70
     1
102
RTVSPropertyOp25
 70
     1
102
RTVSPropertyOp26
 70
     1
102
RTVSPropertyOp27
 70
     1
102
RTVSPropertyOp28
 70
     1
102
RTVSPropertyOp29
 70
     1
102
RTVSPropertyOp30
 70
     1
102
RTVSPropertyOp31
 70
     1
102
RTVSPropertyOp32
 70
     1
102
RTVSPropertyOp33
 70
     1
102
RTVSPropertyOp34
 70
     1
102
RTVSPropertyOp35
 70
     1
102
RTVSPropertyOp36
 70
     1
102
RTVSPropertyOp37
 70
     1
102
RTVSPropertyOp38
 70
     1
102
RTVSPropertyOp39
 70
     1
102
RTVSPropertyOp40
 70
     1
102
RTVSPropertyOp41
 70
     1
102
RTVSPropertyOp42
 70
     1
102
RTVSPropertyOp43
 70
     1
102
RTVSPropertyOp44
 70
     1
102
RTVSPropertyOp45
 70
     1
102
RTVSPropertyOp46
 70
     1
102
RTVSPropertyOp47
 70
     1
102
RTVSPropertyOp48
 70
     1
102
RTVSPropertyOp49
 70
     1
102
RTVSPropertyOp50
 70
     1
102
RTVSPropertyOp51
 70
     0
102
RTVSPropertyOp52
 70
     0
102
RTVSPropertyOp53
 70
     1
102
RTVSPropertyOp54
 70
     1
102
RTVSPropertyOp55
 70
     1
102
RTVSPropertyOp56
 70
     1
102
RTVSPropertyOp57
 70
     1
102
RTVSPost2010Prop28
280
     0
102
RTVSPost2010PropOp28
 70
     1
102
RTVSPost2010Prop29
280
     1
102
RTVSPost2010PropOp29
 70
     1
102
RTVSPost2010Prop30
280
     1
102
RTVSPost2010PropOp30
 70
     1
102
RTVSPost2010Prop31
280
     0
102
RTVSPost2010PropOp31
 70
     1
102
RTVSPost2010Prop32
280
     0
102
RTVSPost2010PropOp32
 70
     1
102
RTVSPost2010Prop33
280
     0
102
RTVSPost2010PropOp33
 70
     1
102
RTVSPost2010Prop34
280
     0
102
RTVSPost2010PropOp34
 70
     1
102
RTVSPost2010Prop35
280
     0
102
RTVSPost2010PropOp35
 70
     1
102
RTVSPost2010Prop36
280
     0
102
RTVSPost2010PropOp36
 70
     1
102
RTVSPost2010Prop37
 90
       50
102
RTVSPost2010PropOp37
 70
     1
102
RTVSPost2010Prop38
140
0.0
102
RTVSPost2010PropOp38
 70
     1
102
RTVSPost2010Prop39
140
1.0
102
RTVSPost2010PropOp39
 70
     1
102
RTVSPost2010Prop40
 90
        0
102
RTVSPost2010PropOp40
 70
     1
102
RTVSPost2010Prop41ColorIndex
 90
       18
102
RTVSPost2010Prop41ColorRGB
 90
        0
102
RTVSPost2010PropOp41
 70
     1
102
RTVSPost2010Prop42
 90
       50
102
RTVSPost2010PropOp42
 70
     1
102
RTVSPost2010Prop43
 90
        3
102
RTVSPost2010PropOp43
 70
     1
102
RTVSPost2010Prop44ColorIndex
 90
        5
102
RTVSPost2010Prop44ColorRGB
 90
      255
102
RTVSPost2010PropOp44
 70
     1
102
RTVSPost2010Prop45
280
     0
102
RTVSPost2010PropOp45
 70
     1
102
RTVSPost2010Prop46
 90
       50
102
RTVSPost2010PropOp46
 70
     1
102
RTVSPost2010Prop47
 90
       50
102
RTVSPost2010PropOp47
 70
     1
102
RTVSPost2010Prop48
 90
       50
102
RTVSPost2010PropOp48
 70
     1
102
RTVSPost2010Prop49
280
     0
102
RTVSPost2010PropOp49
 70
     1
102
RTVSPost2010Prop50
 90
       50
102
RTVSPost2010PropOp50
 70
     1
102
RTVSPost2010Prop51ColorIndex
 90
      256
102
RTVSPost2010Prop51ColorRGB
 90
-16777216
102
RTVSPost2010PropOp51
 70
     0
102
RTVSPost2010Prop52
140
1.0
102
RTVSPost2010PropOp52
 70
     0
102
RTVSPost2010Prop53
 90
        2
102
RTVSPost2010PropOp53
 70
     1
102
RTVSPost2010Prop54
  1
strokes_ogs.tif
102
RTVSPost2010PropOp54
 70
     1
102
RTVSPost2010Prop55
280
     0
102
RTVSPost2010PropOp55
 70
     1
102
RTVSPost2010Prop56
140
1.0
102
RTVSPost2010PropOp56
 70
     1
102
RTVSPost2010Prop57
140
1.0
102
RTVSPost2010PropOp57
 70
     1
  0
XRECORD
  5
411
102
{ACAD_REACTORS
330
410
102
}
330
410
100
AcDbXrecord
280
     1
102
RTVSPropertyOp0
 70
     1
102
RTVSPropertyOp1
 70
     1
102
RTVSPropertyOp2
 70
     1
102
RTVSPropertyOp3
 70
     1
102
RTVSPropertyOp4
 70
     1
102
RTVSPropertyOp5
 70
     1
102
RTVSPropertyOp6
 70
     1
102
RTVSPropertyOp7
 70
     1
102
RTVSPropertyOp8
 70
     1
102
RTVSPropertyOp9
 70
     1
102
RTVSPropertyOp10
 70
     1
102
RTVSPropertyOp11
 70
     1
102
RTVSPropertyOp12
 70
     1
102
RTVSPropertyOp13
 70
     1
102
RTVSPropertyOp14
 70
     1
102
RTVSPropertyOp15
 70
     1
102
RTVSPropertyOp16
 70
     1
102
RTVSPropertyOp17
 70
     1
102
RTVSPropertyOp18
 70
     1
102
RTVSPropertyOp19
 70
     1
102
RTVSPropertyOp20
 70
     1
102
RTVSPropertyOp21
 70
     1
102
RTVSPropertyOp22
 70
     1
102
RTVSPropertyOp23
 70
     1
102
RTVSPropertyOp24
 70
     1
102
RTVSPropertyOp25
 70
     1
102
RTVSPropertyOp26
 70
     1
102
RTVSPropertyOp27
 70
     1
102
RTVSPropertyOp28
 70
     1
102
RTVSPropertyOp29
 70
     1
102
RTVSPropertyOp30
 70
     1
102
RTVSPropertyOp31
 70
     1
102
RTVSPropertyOp32
 70
     1
102
RTVSPropertyOp33
 70
     1
102
RTVSPropertyOp34
 70
     1
102
RTVSPropertyOp35
 70
     1
102
RTVSPropertyOp36
 70
     1
102
RTVSPropertyOp37
 70
     1
102
RTVSPropertyOp38
 70
     1
102
RTVSPropertyOp39
 70
     1
102
RTVSPropertyOp40
 70
     1
102
RTVSPropertyOp41
 70
     1
102
RTVSPropertyOp42
 70
     1
102
RTVSPropertyOp43
 70
     1
102
RTVSPropertyOp44
 70
     1
102
RTVSPropertyOp45
 70
     1
102
RTVSPropertyOp46
 70
     1
102
RTVSPropertyOp47
 70
     1
102
RTVSPropertyOp48
 70
     1
102
RTVSPropertyOp49
 70
     1
102
RTVSPropertyOp50
 70
     1
102
RTVSPropertyOp51
 70
     0
102
RTVSPropertyOp52
 70
     0
102
RTVSPropertyOp53
 70
     1
102
RTVSPropertyOp54
 70
     1
102
RTVSPropertyOp55
 70
     1
102
RTVSPropertyOp56
 70
     1
102
RTVSPropertyOp57
 70
     1
102
RTVSPost2010Prop28
280
     0
102
RTVSPost2010PropOp28
 70
     1
102
RTVSPost2010Prop29
280
     1
102
RTVSPost2010PropOp29
 70
     1
102
RTVSPost2010Prop30
280
     1
102
RTVSPost2010PropOp30
 70
     1
102
RTVSPost2010Prop31
280
     0
102
RTVSPost2010PropOp31
 70
     1
102
RTVSPost2010Prop32
280
     0
102
RTVSPost2010PropOp32
 70
     1
102
RTVSPost2010Prop33
280
     0
102
RTVSPost2010PropOp33
 70
     1
102
RTVSPost2010Prop34
280
     0
102
RTVSPost2010PropOp34
 70
     1
102
RTVSPost2010Prop35
280
     0
102
RTVSPost2010PropOp35
 70
     1
102
RTVSPost2010Prop36
280
     0
102
RTVSPost2010PropOp36
 70
     1
102
RTVSPost2010Prop37
 90
       50
102
RTVSPost2010PropOp37
 70
     1
102
RTVSPost2010Prop38
140
0.0
102
RTVSPost2010PropOp38
 70
     1
102
RTVSPost2010Prop39
140
1.0
102
RTVSPost2010PropOp39
 70
     1
102
RTVSPost2010Prop40
 90
        0
102
RTVSPost2010PropOp40
 70
     1
102
RTVSPost2010Prop41ColorIndex
 90
       18
102
RTVSPost2010Prop41ColorRGB
 90
        0
102
RTVSPost2010PropOp41
 70
     1
102
RTVSPost2010Prop42
 90
       50
102
RTVSPost2010PropOp42
 70
     1
102
RTVSPost2010Prop43
 90
        3
102
RTVSPost2010PropOp43
 70
     1
102
RTVSPost2010Prop44ColorIndex
 90
        5
102
RTVSPost2010Prop44ColorRGB
 90
      255
102
RTVSPost2010PropOp44
 70
     1
102
RTVSPost2010Prop45
280
     0
102
RTVSPost2010PropOp45
 70
     1
102
RTVSPost2010Prop46
 90
       50
102
RTVSPost2010PropOp46
 70
     1
102
RTVSPost2010Prop47
 90
       50
102
RTVSPost2010PropOp47
 70
     1
102
RTVSPost2010Prop48
 90
       50
102
RTVSPost2010PropOp48
 70
     1
102
RTVSPost2010Prop49
280
     0
102
RTVSPost2010PropOp49
 70
     1
102
RTVSPost2010Prop50
 90
       50
102
RTVSPost2010PropOp50
 70
     1
102
RTVSPost2010Prop51ColorIndex
 90
      256
102
RTVSPost2010Prop51ColorRGB
 90
-16777216
102
RTVSPost2010PropOp51
 70
     0
102
RTVSPost2010Prop52
140
1.0
102
RTVSPost2010PropOp52
 70
     0
102
RTVSPost2010Prop53
 90
        2
102
RTVSPost2010PropOp53
 70
     1
102
RTVSPost2010Prop54
  1
strokes_ogs.tif
102
RTVSPost2010PropOp54
 70
     1
102
RTVSPost2010Prop55
280
     0
102
RTVSPost2010PropOp55
 70
     1
102
RTVSPost2010Prop56
140
1.0
102
RTVSPost2010PropOp56
 70
     1
102
RTVSPost2010Prop57
140
1.0
102
RTVSPost2010PropOp57
 70
     1
  0
XRECORD
  5
405
102
{ACAD_REACTORS
330
404
102
}
330
404
100
AcDbXrecord
280
     1
102
RTVSPropertyOp0
 70
     1
102
RTVSPropertyOp1
 70
     1
102
RTVSPropertyOp2
 70
     1
102
RTVSPropertyOp3
 70
     1
102
RTVSPropertyOp4
 70
     1
102
RTVSPropertyOp5
 70
     1
102
RTVSPropertyOp6
 70
     1
102
RTVSPropertyOp7
 70
     1
102
RTVSPropertyOp8
 70
     1
102
RTVSPropertyOp9
 70
     1
102
RTVSPropertyOp10
 70
     1
102
RTVSPropertyOp11
 70
     1
102
RTVSPropertyOp12
 70
     1
102
RTVSPropertyOp13
 70
     1
102
RTVSPropertyOp14
 70
     1
102
RTVSPropertyOp15
 70
     1
102
RTVSPropertyOp16
 70
     1
102
RTVSPropertyOp17
 70
     1
102
RTVSPropertyOp18
 70
     1
102
RTVSPropertyOp19
 70
     1
102
RTVSPropertyOp20
 70
     1
102
RTVSPropertyOp21
 70
     1
102
RTVSPropertyOp22
 70
     1
102
RTVSPropertyOp23
 70
     1
102
RTVSPropertyOp24
 70
     1
102
RTVSPropertyOp25
 70
     1
102
RTVSPropertyOp26
 70
     1
102
RTVSPropertyOp27
 70
     1
102
RTVSPropertyOp28
 70
     1
102
RTVSPropertyOp29
 70
     1
102
RTVSPropertyOp30
 70
     1
102
RTVSPropertyOp31
 70
     1
102
RTVSPropertyOp32
 70
     1
102
RTVSPropertyOp33
 70
     1
102
RTVSPropertyOp34
 70
     1
102
RTVSPropertyOp35
 70
     1
102
RTVSPropertyOp36
 70
     1
102
RTVSPropertyOp37
 70
     1
102
RTVSPropertyOp38
 70
     1
102
RTVSPropertyOp39
 70
     1
102
RTVSPropertyOp40
 70
     1
102
RTVSPropertyOp41
 70
     1
102
RTVSPropertyOp42
 70
     1
102
RTVSPropertyOp43
 70
     1
102
RTVSPropertyOp44
 70
     1
102
RTVSPropertyOp45
 70
     1
102
RTVSPropertyOp46
 70
     1
102
RTVSPropertyOp47
 70
     1
102
RTVSPropertyOp48
 70
     1
102
RTVSPropertyOp49
 70
     1
102
RTVSPropertyOp50
 70
     1
102
RTVSPropertyOp51
 70
     0
102
RTVSPropertyOp52
 70
     0
102
RTVSPropertyOp53
 70
     1
102
RTVSPropertyOp54
 70
     1
102
RTVSPropertyOp55
 70
     1
102
RTVSPropertyOp56
 70
     1
102
RTVSPropertyOp57
 70
     1
102
RTVSPost2010Prop28
280
     0
102
RTVSPost2010PropOp28
 70
     1
102
RTVSPost2010Prop29
280
     1
102
RTVSPost2010PropOp29
 70
     1
102
RTVSPost2010Prop30
280
     1
102
RTVSPost2010PropOp30
 70
     1
102
RTVSPost2010Prop31
280
     0
102
RTVSPost2010PropOp31
 70
     1
102
RTVSPost2010Prop32
280
     0
102
RTVSPost2010PropOp32
 70
     1
102
RTVSPost2010Prop33
280
     0
102
RTVSPost2010PropOp33
 70
     1
102
RTVSPost2010Prop34
280
     0
102
RTVSPost2010PropOp34
 70
     1
102
RTVSPost2010Prop35
280
     0
102
RTVSPost2010PropOp35
 70
     1
102
RTVSPost2010Prop36
280
     0
102
RTVSPost2010PropOp36
 70
     1
102
RTVSPost2010Prop37
 90
       50
102
RTVSPost2010PropOp37
 70
     1
102
RTVSPost2010Prop38
140
0.0
102
RTVSPost2010PropOp38
 70
     1
102
RTVSPost2010Prop39
140
1.0
102
RTVSPost2010PropOp39
 70
     1
102
RTVSPost2010Prop40
 90
        0
102
RTVSPost2010PropOp40
 70
     1
102
RTVSPost2010Prop41ColorIndex
 90
       18
102
RTVSPost2010Prop41ColorRGB
 90
        0
102
RTVSPost2010PropOp41
 70
     1
102
RTVSPost2010Prop42
 90
       50
102
RTVSPost2010PropOp42
 70
     1
102
RTVSPost2010Prop43
 90
        3
102
RTVSPost2010PropOp43
 70
     1
102
RTVSPost2010Prop44ColorIndex
 90
        5
102
RTVSPost2010Prop44ColorRGB
 90
      255
102
RTVSPost2010PropOp44
 70
     1
102
RTVSPost2010Prop45
280
     0
102
RTVSPost2010PropOp45
 70
     1
102
RTVSPost2010Prop46
 90
       50
102
RTVSPost2010PropOp46
 70
     1
102
RTVSPost2010Prop47
 90
       50
102
RTVSPost2010PropOp47
 70
     1
102
RTVSPost2010Prop48
 90
       50
102
RTVSPost2010PropOp48
 70
     1
102
RTVSPost2010Prop49
280
     0
102
RTVSPost2010PropOp49
 70
     1
102
RTVSPost2010Prop50
 90
       50
102
RTVSPost2010PropOp50
 70
     1
102
RTVSPost2010Prop51ColorIndex
 90
      256
102
RTVSPost2010Prop51ColorRGB
 90
-16777216
102
RTVSPost2010PropOp51
 70
     0
102
RTVSPost2010Prop52
140
1.0
102
RTVSPost2010PropOp52
 70
     0
102
RTVSPost2010Prop53
 90
        2
102
RTVSPost2010PropOp53
 70
     1
102
RTVSPost2010Prop54
  1
strokes_ogs.tif
102
RTVSPost2010PropOp54
 70
     1
102
RTVSPost2010Prop55
280
     0
102
RTVSPost2010PropOp55
 70
     1
102
RTVSPost2010Prop56
140
1.0
102
RTVSPost2010PropOp56
 70
     1
102
RTVSPost2010Prop57
140
1.0
102
RTVSPost2010PropOp57
 70
     1
  0
XRECORD
  5
407
102
{ACAD_REACTORS
330
406
102
}
330
406
100
AcDbXrecord
280
     1
102
RTVSPropertyOp0
 70
     1
102
RTVSPropertyOp1
 70
     1
102
RTVSPropertyOp2
 70
     1
102
RTVSPropertyOp3
 70
     1
102
RTVSPropertyOp4
 70
     1
102
RTVSPropertyOp5
 70
     1
102
RTVSPropertyOp6
 70
     1
102
RTVSPropertyOp7
 70
     1
102
RTVSPropertyOp8
 70
     1
102
RTVSPropertyOp9
 70
     1
102
RTVSPropertyOp10
 70
     1
102
RTVSPropertyOp11
 70
     1
102
RTVSPropertyOp12
 70
     1
102
RTVSPropertyOp13
 70
     1
102
RTVSPropertyOp14
 70
     1
102
RTVSPropertyOp15
 70
     1
102
RTVSPropertyOp16
 70
     1
102
RTVSPropertyOp17
 70
     1
102
RTVSPropertyOp18
 70
     1
102
RTVSPropertyOp19
 70
     1
102
RTVSPropertyOp20
 70
     1
102
RTVSPropertyOp21
 70
     1
102
RTVSPropertyOp22
 70
     1
102
RTVSPropertyOp23
 70
     1
102
RTVSPropertyOp24
 70
     1
102
RTVSPropertyOp25
 70
     1
102
RTVSPropertyOp26
 70
     1
102
RTVSPropertyOp27
 70
     1
102
RTVSPropertyOp28
 70
     1
102
RTVSPropertyOp29
 70
     1
102
RTVSPropertyOp30
 70
     1
102
RTVSPropertyOp31
 70
     1
102
RTVSPropertyOp32
 70
     1
102
RTVSPropertyOp33
 70
     1
102
RTVSPropertyOp34
 70
     1
102
RTVSPropertyOp35
 70
     1
102
RTVSPropertyOp36
 70
     1
102
RTVSPropertyOp37
 70
     1
102
RTVSPropertyOp38
 70
     1
102
RTVSPropertyOp39
 70
     1
102
RTVSPropertyOp40
 70
     1
102
RTVSPropertyOp41
 70
     1
102
RTVSPropertyOp42
 70
     1
102
RTVSPropertyOp43
 70
     1
102
RTVSPropertyOp44
 70
     1
102
RTVSPropertyOp45
 70
     1
102
RTVSPropertyOp46
 70
     1
102
RTVSPropertyOp47
 70
     1
102
RTVSPropertyOp48
 70
     1
102
RTVSPropertyOp49
 70
     1
102
RTVSPropertyOp50
 70
     1
102
RTVSPropertyOp51
 70
     0
102
RTVSPropertyOp52
 70
     0
102
RTVSPropertyOp53
 70
     1
102
RTVSPropertyOp54
 70
     1
102
RTVSPropertyOp55
 70
     1
102
RTVSPropertyOp56
 70
     1
102
RTVSPropertyOp57
 70
     1
102
RTVSPost2010Prop28
280
     0
102
RTVSPost2010PropOp28
 70
     1
102
RTVSPost2010Prop29
280
     1
102
RTVSPost2010PropOp29
 70
     1
102
RTVSPost2010Prop30
280
     1
102
RTVSPost2010PropOp30
 70
     1
102
RTVSPost2010Prop31
280
     0
102
RTVSPost2010PropOp31
 70
     1
102
RTVSPost2010Prop32
280
     0
102
RTVSPost2010PropOp32
 70
     1
102
RTVSPost2010Prop33
280
     0
102
RTVSPost2010PropOp33
 70
     1
102
RTVSPost2010Prop34
280
     0
102
RTVSPost2010PropOp34
 70
     1
102
RTVSPost2010Prop35
280
     0
102
RTVSPost2010PropOp35
 70
     1
102
RTVSPost2010Prop36
280
     0
102
RTVSPost2010PropOp36
 70
     1
102
RTVSPost2010Prop37
 90
       50
102
RTVSPost2010PropOp37
 70
     1
102
RTVSPost2010Prop38
140
0.0
102
RTVSPost2010PropOp38
 70
     1
102
RTVSPost2010Prop39
140
1.0
102
RTVSPost2010PropOp39
 70
     1
102
RTVSPost2010Prop40
 90
        0
102
RTVSPost2010PropOp40
 70
     1
102
RTVSPost2010Prop41ColorIndex
 90
       18
102
RTVSPost2010Prop41ColorRGB
 90
        0
102
RTVSPost2010PropOp41
 70
     1
102
RTVSPost2010Prop42
 90
       50
102
RTVSPost2010PropOp42
 70
     1
102
RTVSPost2010Prop43
 90
        3
102
RTVSPost2010PropOp43
 70
     1
102
RTVSPost2010Prop44ColorIndex
 90
        5
102
RTVSPost2010Prop44ColorRGB
 90
      255
102
RTVSPost2010PropOp44
 70
     1
102
RTVSPost2010Prop45
280
     0
102
RTVSPost2010PropOp45
 70
     1
102
RTVSPost2010Prop46
 90
       50
102
RTVSPost2010PropOp46
 70
     1
102
RTVSPost2010Prop47
 90
       50
102
RTVSPost2010PropOp47
 70
     1
102
RTVSPost2010Prop48
 90
       50
102
RTVSPost2010PropOp48
 70
     1
102
RTVSPost2010Prop49
280
     0
102
RTVSPost2010PropOp49
 70
     1
102
RTVSPost2010Prop50
 90
       50
102
RTVSPost2010PropOp50
 70
     1
102
RTVSPost2010Prop51ColorIndex
 90
      256
102
RTVSPost2010Prop51ColorRGB
 90
-16777216
102
RTVSPost2010PropOp51
 70
     0
102
RTVSPost2010Prop52
140
1.0
102
RTVSPost2010PropOp52
 70
     0
102
RTVSPost2010Prop53
 90
        2
102
RTVSPost2010PropOp53
 70
     1
102
RTVSPost2010Prop54
  1
strokes_ogs.tif
102
RTVSPost2010PropOp54
 70
     1
102
RTVSPost2010Prop55
280
     0
102
RTVSPost2010PropOp55
 70
     1
102
RTVSPost2010Prop56
140
1.0
102
RTVSPost2010PropOp56
 70
     1
102
RTVSPost2010Prop57
140
1.0
102
RTVSPost2010PropOp57
 70
     1
  0
XRECORD
  5
417
102
{ACAD_REACTORS
330
416
102
}
330
416
100
AcDbXrecord
280
     1
102
RTVSPropertyOp0
 70
     0
102
RTVSPropertyOp1
 70
     0
102
RTVSPropertyOp2
 70
     0
102
RTVSPropertyOp3
 70
     0
102
RTVSPropertyOp4
 70
     0
102
RTVSPropertyOp5
 70
     0
102
RTVSPropertyOp6
 70
     0
102
RTVSPropertyOp7
 70
     0
102
RTVSPropertyOp8
 70
     0
102
RTVSPropertyOp9
 70
     0
102
RTVSPropertyOp10
 70
     0
102
RTVSPropertyOp11
 70
     0
102
RTVSPropertyOp12
 70
     0
102
RTVSPropertyOp13
 70
     0
102
RTVSPropertyOp14
 70
     2
102
RTVSPropertyOp15
 70
     0
102
RTVSPropertyOp16
 70
     0
102
RTVSPropertyOp17
 70
     0
102
RTVSPropertyOp18
 70
     0
102
RTVSPropertyOp19
 70
     0
102
RTVSPropertyOp20
 70
     0
102
RTVSPropertyOp21
 70
     0
102
RTVSPropertyOp22
 70
     0
102
RTVSPropertyOp23
 70
     0
102
RTVSPropertyOp24
 70
     0
102
RTVSPropertyOp25
 70
     0
102
RTVSPropertyOp26
 70
     0
102
RTVSPropertyOp27
 70
     0
102
RTVSPropertyOp28
 70
     0
102
RTVSPropertyOp29
 70
     0
102
RTVSPropertyOp30
 70
     0
102
RTVSPropertyOp31
 70
     0
102
RTVSPropertyOp32
 70
     0
102
RTVSPropertyOp33
 70
     0
102
RTVSPropertyOp34
 70
     0
102
RTVSPropertyOp35
 70
     0
102
RTVSPropertyOp36
 70
     0
102
RTVSPropertyOp37
 70
     0
102
RTVSPropertyOp38
 70
     0
102
RTVSPropertyOp39
 70
     0
102
RTVSPropertyOp40
 70
     0
102
RTVSPropertyOp41
 70
     0
102
RTVSPropertyOp42
 70
     0
102
RTVSPropertyOp43
 70
     0
102
RTVSPropertyOp44
 70
     0
102
RTVSPropertyOp45
 70
     0
102
RTVSPropertyOp46
 70
     0
102
RTVSPropertyOp47
 70
     0
102
RTVSPropertyOp48
 70
     0
102
RTVSPropertyOp49
 70
     0
102
RTVSPropertyOp50
 70
     0
102
RTVSPropertyOp51
 70
     0
102
RTVSPropertyOp52
 70
     0
102
RTVSPropertyOp53
 70
     0
102
RTVSPropertyOp54
 70
     0
102
RTVSPropertyOp55
 70
     0
102
RTVSPropertyOp56
 70
     0
102
RTVSPropertyOp57
 70
     0
102
RTVSPost2010Prop28
280
     0
102
RTVSPost2010PropOp28
 70
     0
102
RTVSPost2010Prop29
280
     1
102
RTVSPost2010PropOp29
 70
     0
102
RTVSPost2010Prop30
280
     1
102
RTVSPost2010PropOp30
 70
     0
102
RTVSPost2010Prop31
280
     0
102
RTVSPost2010PropOp31
 70
     0
102
RTVSPost2010Prop32
280
     0
102
RTVSPost2010PropOp32
 70
     0
102
RTVSPost2010Prop33
280
     0
102
RTVSPost2010PropOp33
 70
     0
102
RTVSPost2010Prop34
280
     0
102
RTVSPost2010PropOp34
 70
     0
102
RTVSPost2010Prop35
280
     0
102
RTVSPost2010PropOp35
 70
     0
102
RTVSPost2010Prop36
280
     0
102
RTVSPost2010PropOp36
 70
     0
102
RTVSPost2010Prop37
 90
       50
102
RTVSPost2010PropOp37
 70
     0
102
RTVSPost2010Prop38
140
0.0
102
RTVSPost2010PropOp38
 70
     0
102
RTVSPost2010Prop39
140
1.0
102
RTVSPost2010PropOp39
 70
     0
102
RTVSPost2010Prop40
 90
        0
102
RTVSPost2010PropOp40
 70
     0
102
RTVSPost2010Prop41ColorIndex
 90
       18
102
RTVSPost2010Prop41ColorRGB
 90
        0
102
RTVSPost2010PropOp41
 70
     0
102
RTVSPost2010Prop42
 90
       50
102
RTVSPost2010PropOp42
 70
     0
102
RTVSPost2010Prop43
 90
        3
102
RTVSPost2010PropOp43
 70
     0
102
RTVSPost2010Prop44ColorIndex
 90
        5
102
RTVSPost2010Prop44ColorRGB
 90
      255
102
RTVSPost2010PropOp44
 70
     0
102
RTVSPost2010Prop45
280
     0
102
RTVSPost2010PropOp45
 70
     0
102
RTVSPost2010Prop46
 90
       50
102
RTVSPost2010PropOp46
 70
     0
102
RTVSPost2010Prop47
 90
       50
102
RTVSPost2010PropOp47
 70
     0
102
RTVSPost2010Prop48
 90
       50
102
RTVSPost2010PropOp48
 70
     0
102
RTVSPost2010Prop49
280
     0
102
RTVSPost2010PropOp49
 70
     0
102
RTVSPost2010Prop50
 90
       50
102
RTVSPost2010PropOp50
 70
     0
102
RTVSPost2010Prop51ColorIndex
 90
      256
102
RTVSPost2010Prop51ColorRGB
 90
-16777216
102
RTVSPost2010PropOp51
 70
     0
102
RTVSPost2010Prop52
140
1.0
102
RTVSPost2010PropOp52
 70
     0
102
RTVSPost2010Prop53
 90
        2
102
RTVSPost2010PropOp53
 70
     0
102
RTVSPost2010Prop54
  1
strokes_ogs.tif
102
RTVSPost2010PropOp54
 70
     0
102
RTVSPost2010Prop55
280
     0
102
RTVSPost2010PropOp55
 70
     0
102
RTVSPost2010Prop56
140
1.0
102
RTVSPost2010PropOp56
 70
     0
102
RTVSPost2010Prop57
140
1.0
102
RTVSPost2010PropOp57
 70
     0
  0
XRECORD
  5
40F
102
{ACAD_REACTORS
330
40E
102
}
330
40E
100
AcDbXrecord
280
     1
102
RTVSPropertyOp0
 70
     1
102
RTVSPropertyOp1
 70
     1
102
RTVSPropertyOp2
 70
     1
102
RTVSPropertyOp3
 70
     1
102
RTVSPropertyOp4
 70
     1
102
RTVSPropertyOp5
 70
     1
102
RTVSPropertyOp6
 70
     1
102
RTVSPropertyOp7
 70
     1
102
RTVSPropertyOp8
 70
     1
102
RTVSPropertyOp9
 70
     1
102
RTVSPropertyOp10
 70
     1
102
RTVSPropertyOp11
 70
     1
102
RTVSPropertyOp12
 70
     1
102
RTVSPropertyOp13
 70
     1
102
RTVSPropertyOp14
 70
     1
102
RTVSPropertyOp15
 70
     1
102
RTVSPropertyOp16
 70
     1
102
RTVSPropertyOp17
 70
     1
102
RTVSPropertyOp18
 70
     1
102
RTVSPropertyOp19
 70
     1
102
RTVSPropertyOp20
 70
     1
102
RTVSPropertyOp21
 70
     1
102
RTVSPropertyOp22
 70
     1
102
RTVSPropertyOp23
 70
     1
102
RTVSPropertyOp24
 70
     1
102
RTVSPropertyOp25
 70
     1
102
RTVSPropertyOp26
 70
     1
102
RTVSPropertyOp27
 70
     1
102
RTVSPropertyOp28
 70
     1
102
RTVSPropertyOp29
 70
     1
102
RTVSPropertyOp30
 70
     1
102
RTVSPropertyOp31
 70
     1
102
RTVSPropertyOp32
 70
     1
102
RTVSPropertyOp33
 70
     1
102
RTVSPropertyOp34
 70
     1
102
RTVSPropertyOp35
 70
     1
102
RTVSPropertyOp36
 70
     1
102
RTVSPropertyOp37
 70
     1
102
RTVSPropertyOp38
 70
     1
102
RTVSPropertyOp39
 70
     1
102
RTVSPropertyOp40
 70
     1
102
RTVSPropertyOp41
 70
     1
102
RTVSPropertyOp42
 70
     1
102
RTVSPropertyOp43
 70
     1
102
RTVSPropertyOp44
 70
     1
102
RTVSPropertyOp45
 70
     1
102
RTVSPropertyOp46
 70
     1
102
RTVSPropertyOp47
 70
     1
102
RTVSPropertyOp48
 70
     1
102
RTVSPropertyOp49
 70
     1
102
RTVSPropertyOp50
 70
     1
102
RTVSPropertyOp51
 70
     0
102
RTVSPropertyOp52
 70
     0
102
RTVSPropertyOp53
 70
     1
102
RTVSPropertyOp54
 70
     1
102
RTVSPropertyOp55
 70
     1
102
RTVSPropertyOp56
 70
     1
102
RTVSPropertyOp57
 70
     1
102
RTVSPost2010Prop28
280
     0
102
RTVSPost2010PropOp28
 70
     1
102
RTVSPost2010Prop29
280
     1
102
RTVSPost2010PropOp29
 70
     1
102
RTVSPost2010Prop30
280
     1
102
RTVSPost2010PropOp30
 70
     1
102
RTVSPost2010Prop31
280
     0
102
RTVSPost2010PropOp31
 70
     1
102
RTVSPost2010Prop32
280
     0
102
RTVSPost2010PropOp32
 70
     1
102
RTVSPost2010Prop33
280
     0
102
RTVSPost2010PropOp33
 70
     1
102
RTVSPost2010Prop34
280
     0
102
RTVSPost2010PropOp34
 70
     1
102
RTVSPost2010Prop35
280
     0
102
RTVSPost2010PropOp35
 70
     1
102
RTVSPost2010Prop36
280
     0
102
RTVSPost2010PropOp36
 70
     1
102
RTVSPost2010Prop37
 90
       50
102
RTVSPost2010PropOp37
 70
     1
102
RTVSPost2010Prop38
140
0.0
102
RTVSPost2010PropOp38
 70
     1
102
RTVSPost2010Prop39
140
1.0
102
RTVSPost2010PropOp39
 70
     1
102
RTVSPost2010Prop40
 90
        0
102
RTVSPost2010PropOp40
 70
     1
102
RTVSPost2010Prop41ColorIndex
 90
       18
102
RTVSPost2010Prop41ColorRGB
 90
        0
102
RTVSPost2010PropOp41
 70
     1
102
RTVSPost2010Prop42
 90
       50
102
RTVSPost2010PropOp42
 70
     1
102
RTVSPost2010Prop43
 90
        3
102
RTVSPost2010PropOp43
 70
     1
102
RTVSPost2010Prop44ColorIndex
 90
        5
102
RTVSPost2010Prop44ColorRGB
 90
      255
102
RTVSPost2010PropOp44
 70
     1
102
RTVSPost2010Prop45
280
     0
102
RTVSPost2010PropOp45
 70
     1
102
RTVSPost2010Prop46
 90
       50
102
RTVSPost2010PropOp46
 70
     1
102
RTVSPost2010Prop47
 90
       50
102
RTVSPost2010PropOp47
 70
     1
102
RTVSPost2010Prop48
 90
       50
102
RTVSPost2010PropOp48
 70
     1
102
RTVSPost2010Prop49
280
     0
102
RTVSPost2010PropOp49
 70
     1
102
RTVSPost2010Prop50
 90
       50
102
RTVSPost2010PropOp50
 70
     1
102
RTVSPost2010Prop51ColorIndex
 90
      256
102
RTVSPost2010Prop51ColorRGB
 90
-16777216
102
RTVSPost2010PropOp51
 70
     0
102
RTVSPost2010Prop52
140
1.0
102
RTVSPost2010PropOp52
 70
     0
102
RTVSPost2010Prop53
 90
        2
102
RTVSPost2010PropOp53
 70
     1
102
RTVSPost2010Prop54
  1
strokes_ogs.tif
102
RTVSPost2010PropOp54
 70
     1
102
RTVSPost2010Prop55
280
     0
102
RTVSPost2010PropOp55
 70
     1
102
RTVSPost2010Prop56
140
1.0
102
RTVSPost2010PropOp56
 70
     1
102
RTVSPost2010Prop57
140
1.0
102
RTVSPost2010PropOp57
 70
     1
  0
XRECORD
  5
3F3
102
{ACAD_REACTORS
330
3F2
102
}
330
3F2
100
AcDbXrecord
280
     1
102
RTVSPropertyOp0
 70
     1
102
RTVSPropertyOp1
 70
     1
102
RTVSPropertyOp2
 70
     1
102
RTVSPropertyOp3
 70
     1
102
RTVSPropertyOp4
 70
     1
102
RTVSPropertyOp5
 70
     1
102
RTVSPropertyOp6
 70
     1
102
RTVSPropertyOp7
 70
     1
102
RTVSPropertyOp8
 70
     1
102
RTVSPropertyOp9
 70
     1
102
RTVSPropertyOp10
 70
     1
102
RTVSPropertyOp11
 70
     1
102
RTVSPropertyOp12
 70
     1
102
RTVSPropertyOp13
 70
     1
102
RTVSPropertyOp14
 70
     1
102
RTVSPropertyOp15
 70
     1
102
RTVSPropertyOp16
 70
     1
102
RTVSPropertyOp17
 70
     1
102
RTVSPropertyOp18
 70
     1
102
RTVSPropertyOp19
 70
     1
102
RTVSPropertyOp20
 70
     1
102
RTVSPropertyOp21
 70
     1
102
RTVSPropertyOp22
 70
     1
102
RTVSPropertyOp23
 70
     1
102
RTVSPropertyOp24
 70
     1
102
RTVSPropertyOp25
 70
     1
102
RTVSPropertyOp26
 70
     1
102
RTVSPropertyOp27
 70
     1
102
RTVSPropertyOp28
 70
     1
102
RTVSPropertyOp29
 70
     1
102
RTVSPropertyOp30
 70
     1
102
RTVSPropertyOp31
 70
     1
102
RTVSPropertyOp32
 70
     1
102
RTVSPropertyOp33
 70
     1
102
RTVSPropertyOp34
 70
     1
102
RTVSPropertyOp35
 70
     1
102
RTVSPropertyOp36
 70
     1
102
RTVSPropertyOp37
 70
     1
102
RTVSPropertyOp38
 70
     1
102
RTVSPropertyOp39
 70
     1
102
RTVSPropertyOp40
 70
     1
102
RTVSPropertyOp41
 70
     1
102
RTVSPropertyOp42
 70
     1
102
RTVSPropertyOp43
 70
     1
102
RTVSPropertyOp44
 70
     1
102
RTVSPropertyOp45
 70
     1
102
RTVSPropertyOp46
 70
     1
102
RTVSPropertyOp47
 70
     1
102
RTVSPropertyOp48
 70
     1
102
RTVSPropertyOp49
 70
     1
102
RTVSPropertyOp50
 70
     1
102
RTVSPropertyOp51
 70
     0
102
RTVSPropertyOp52
 70
     0
102
RTVSPropertyOp53
 70
     1
102
RTVSPropertyOp54
 70
     1
102
RTVSPropertyOp55
 70
     1
102
RTVSPropertyOp56
 70
     1
102
RTVSPropertyOp57
 70
     1
102
RTVSPost2010Prop28
280
     0
102
RTVSPost2010PropOp28
 70
     1
102
RTVSPost2010Prop29
280
     1
102
RTVSPost2010PropOp29
 70
     1
102
RTVSPost2010Prop30
280
     1
102
RTVSPost2010PropOp30
 70
     1
102
RTVSPost2010Prop31
280
     0
102
RTVSPost2010PropOp31
 70
     1
102
RTVSPost2010Prop32
280
     0
102
RTVSPost2010PropOp32
 70
     1
102
RTVSPost2010Prop33
280
     0
102
RTVSPost2010PropOp33
 70
     1
102
RTVSPost2010Prop34
280
     0
102
RTVSPost2010PropOp34
 70
     1
102
RTVSPost2010Prop35
280
     0
102
RTVSPost2010PropOp35
 70
     1
102
RTVSPost2010Prop36
280
     0
102
RTVSPost2010PropOp36
 70
     1
102
RTVSPost2010Prop37
 90
       50
102
RTVSPost2010PropOp37
 70
     1
102
RTVSPost2010Prop38
140
0.0
102
RTVSPost2010PropOp38
 70
     1
102
RTVSPost2010Prop39
140
1.0
102
RTVSPost2010PropOp39
 70
     1
102
RTVSPost2010Prop40
 90
        0
102
RTVSPost2010PropOp40
 70
     1
102
RTVSPost2010Prop41ColorIndex
 90
       18
102
RTVSPost2010Prop41ColorRGB
 90
        0
102
RTVSPost2010PropOp41
 70
     1
102
RTVSPost2010Prop42
 90
       50
102
RTVSPost2010PropOp42
 70
     1
102
RTVSPost2010Prop43
 90
        3
102
RTVSPost2010PropOp43
 70
     1
102
RTVSPost2010Prop44ColorIndex
 90
        5
102
RTVSPost2010Prop44ColorRGB
 90
      255
102
RTVSPost2010PropOp44
 70
     1
102
RTVSPost2010Prop45
280
     0
102
RTVSPost2010PropOp45
 70
     1
102
RTVSPost2010Prop46
 90
       50
102
RTVSPost2010PropOp46
 70
     1
102
RTVSPost2010Prop47
 90
       50
102
RTVSPost2010PropOp47
 70
     1
102
RTVSPost2010Prop48
 90
       50
102
RTVSPost2010PropOp48
 70
     1
102
RTVSPost2010Prop49
280
     0
102
RTVSPost2010PropOp49
 70
     1
102
RTVSPost2010Prop50
 90
       50
102
RTVSPost2010PropOp50
 70
     1
102
RTVSPost2010Prop51ColorIndex
 90
      256
102
RTVSPost2010Prop51ColorRGB
 90
-16777216
102
RTVSPost2010PropOp51
 70
     0
102
RTVSPost2010Prop52
140
1.0
102
RTVSPost2010PropOp52
 70
     0
102
RTVSPost2010Prop53
 90
        2
102
RTVSPost2010PropOp53
 70
     1
102
RTVSPost2010Prop54
  1
strokes_ogs.tif
102
RTVSPost2010PropOp54
 70
     1
102
RTVSPost2010Prop55
280
     0
102
RTVSPost2010PropOp55
 70
     1
102
RTVSPost2010Prop56
140
1.0
102
RTVSPost2010PropOp56
 70
     1
102
RTVSPost2010Prop57
140
1.0
102
RTVSPost2010PropOp57
 70
     1
  0
XRECORD
  5
3F5
102
{ACAD_REACTORS
330
3F4
102
}
330
3F4
100
AcDbXrecord
280
     1
102
RTVSPropertyOp0
 70
     1
102
RTVSPropertyOp1
 70
     1
102
RTVSPropertyOp2
 70
     1
102
RTVSPropertyOp3
 70
     1
102
RTVSPropertyOp4
 70
     1
102
RTVSPropertyOp5
 70
     1
102
RTVSPropertyOp6
 70
     1
102
RTVSPropertyOp7
 70
     1
102
RTVSPropertyOp8
 70
     1
102
RTVSPropertyOp9
 70
     1
102
RTVSPropertyOp10
 70
     1
102
RTVSPropertyOp11
 70
     1
102
RTVSPropertyOp12
 70
     1
102
RTVSPropertyOp13
 70
     1
102
RTVSPropertyOp14
 70
     1
102
RTVSPropertyOp15
 70
     1
102
RTVSPropertyOp16
 70
     1
102
RTVSPropertyOp17
 70
     1
102
RTVSPropertyOp18
 70
     1
102
RTVSPropertyOp19
 70
     1
102
RTVSPropertyOp20
 70
     1
102
RTVSPropertyOp21
 70
     1
102
RTVSPropertyOp22
 70
     1
102
RTVSPropertyOp23
 70
     1
102
RTVSPropertyOp24
 70
     1
102
RTVSPropertyOp25
 70
     1
102
RTVSPropertyOp26
 70
     1
102
RTVSPropertyOp27
 70
     1
102
RTVSPropertyOp28
 70
     1
102
RTVSPropertyOp29
 70
     1
102
RTVSPropertyOp30
 70
     1
102
RTVSPropertyOp31
 70
     1
102
RTVSPropertyOp32
 70
     1
102
RTVSPropertyOp33
 70
     1
102
RTVSPropertyOp34
 70
     1
102
RTVSPropertyOp35
 70
     1
102
RTVSPropertyOp36
 70
     1
102
RTVSPropertyOp37
 70
     1
102
RTVSPropertyOp38
 70
     1
102
RTVSPropertyOp39
 70
     1
102
RTVSPropertyOp40
 70
     1
102
RTVSPropertyOp41
 70
     1
102
RTVSPropertyOp42
 70
     1
102
RTVSPropertyOp43
 70
     1
102
RTVSPropertyOp44
 70
     1
102
RTVSPropertyOp45
 70
     1
102
RTVSPropertyOp46
 70
     1
102
RTVSPropertyOp47
 70
     1
102
RTVSPropertyOp48
 70
     1
102
RTVSPropertyOp49
 70
     1
102
RTVSPropertyOp50
 70
     1
102
RTVSPropertyOp51
 70
     0
102
RTVSPropertyOp52
 70
     0
102
RTVSPropertyOp53
 70
     1
102
RTVSPropertyOp54
 70
     1
102
RTVSPropertyOp55
 70
     1
102
RTVSPropertyOp56
 70
     1
102
RTVSPropertyOp57
 70
     1
102
RTVSPost2010Prop28
280
     0
102
RTVSPost2010PropOp28
 70
     1
102
RTVSPost2010Prop29
280
     1
102
RTVSPost2010PropOp29
 70
     1
102
RTVSPost2010Prop30
280
     1
102
RTVSPost2010PropOp30
 70
     1
102
RTVSPost2010Prop31
280
     0
102
RTVSPost2010PropOp31
 70
     1
102
RTVSPost2010Prop32
280
     0
102
RTVSPost2010PropOp32
 70
     1
102
RTVSPost2010Prop33
280
     0
102
RTVSPost2010PropOp33
 70
     1
102
RTVSPost2010Prop34
280
     0
102
RTVSPost2010PropOp34
 70
     1
102
RTVSPost2010Prop35
280
     0
102
RTVSPost2010PropOp35
 70
     1
102
RTVSPost2010Prop36
280
     0
102
RTVSPost2010PropOp36
 70
     1
102
RTVSPost2010Prop37
 90
       50
102
RTVSPost2010PropOp37
 70
     1
102
RTVSPost2010Prop38
140
0.0
102
RTVSPost2010PropOp38
 70
     1
102
RTVSPost2010Prop39
140
1.0
102
RTVSPost2010PropOp39
 70
     1
102
RTVSPost2010Prop40
 90
        0
102
RTVSPost2010PropOp40
 70
     1
102
RTVSPost2010Prop41ColorIndex
 90
       18
102
RTVSPost2010Prop41ColorRGB
 90
        0
102
RTVSPost2010PropOp41
 70
     1
102
RTVSPost2010Prop42
 90
       50
102
RTVSPost2010PropOp42
 70
     1
102
RTVSPost2010Prop43
 90
        3
102
RTVSPost2010PropOp43
 70
     1
102
RTVSPost2010Prop44ColorIndex
 90
        5
102
RTVSPost2010Prop44ColorRGB
 90
      255
102
RTVSPost2010PropOp44
 70
     1
102
RTVSPost2010Prop45
280
     0
102
RTVSPost2010PropOp45
 70
     1
102
RTVSPost2010Prop46
 90
       50
102
RTVSPost2010PropOp46
 70
     1
102
RTVSPost2010Prop47
 90
       50
102
RTVSPost2010PropOp47
 70
     1
102
RTVSPost2010Prop48
 90
       50
102
RTVSPost2010PropOp48
 70
     1
102
RTVSPost2010Prop49
280
     0
102
RTVSPost2010PropOp49
 70
     1
102
RTVSPost2010Prop50
 90
       50
102
RTVSPost2010PropOp50
 70
     1
102
RTVSPost2010Prop51ColorIndex
 90
      256
102
RTVSPost2010Prop51ColorRGB
 90
-16777216
102
RTVSPost2010PropOp51
 70
     0
102
RTVSPost2010Prop52
140
1.0
102
RTVSPost2010PropOp52
 70
     0
102
RTVSPost2010Prop53
 90
        2
102
RTVSPost2010PropOp53
 70
     1
102
RTVSPost2010Prop54
  1
strokes_ogs.tif
102
RTVSPost2010PropOp54
 70
     1
102
RTVSPost2010Prop55
280
     0
102
RTVSPost2010PropOp55
 70
     1
102
RTVSPost2010Prop56
140
1.0
102
RTVSPost2010PropOp56
 70
     1
102
RTVSPost2010Prop57
140
1.0
102
RTVSPost2010PropOp57
 70
     1
  0
XRECORD
  5
3F7
102
{ACAD_REACTORS
330
3F6
102
}
330
3F6
100
AcDbXrecord
280
     1
102
RTVSPropertyOp0
 70
     1
102
RTVSPropertyOp1
 70
     1
102
RTVSPropertyOp2
 70
     1
102
RTVSPropertyOp3
 70
     1
102
RTVSPropertyOp4
 70
     1
102
RTVSPropertyOp5
 70
     1
102
RTVSPropertyOp6
 70
     1
102
RTVSPropertyOp7
 70
     1
102
RTVSPropertyOp8
 70
     1
102
RTVSPropertyOp9
 70
     1
102
RTVSPropertyOp10
 70
     1
102
RTVSPropertyOp11
 70
     1
102
RTVSPropertyOp12
 70
     1
102
RTVSPropertyOp13
 70
     1
102
RTVSPropertyOp14
 70
     1
102
RTVSPropertyOp15
 70
     1
102
RTVSPropertyOp16
 70
     1
102
RTVSPropertyOp17
 70
     1
102
RTVSPropertyOp18
 70
     1
102
RTVSPropertyOp19
 70
     1
102
RTVSPropertyOp20
 70
     1
102
RTVSPropertyOp21
 70
     1
102
RTVSPropertyOp22
 70
     1
102
RTVSPropertyOp23
 70
     1
102
RTVSPropertyOp24
 70
     1
102
RTVSPropertyOp25
 70
     1
102
RTVSPropertyOp26
 70
     1
102
RTVSPropertyOp27
 70
     1
102
RTVSPropertyOp28
 70
     1
102
RTVSPropertyOp29
 70
     1
102
RTVSPropertyOp30
 70
     1
102
RTVSPropertyOp31
 70
     1
102
RTVSPropertyOp32
 70
     1
102
RTVSPropertyOp33
 70
     1
102
RTVSPropertyOp34
 70
     1
102
RTVSPropertyOp35
 70
     1
102
RTVSPropertyOp36
 70
     1
102
RTVSPropertyOp37
 70
     1
102
RTVSPropertyOp38
 70
     1
102
RTVSPropertyOp39
 70
     1
102
RTVSPropertyOp40
 70
     1
102
RTVSPropertyOp41
 70
     1
102
RTVSPropertyOp42
 70
     1
102
RTVSPropertyOp43
 70
     1
102
RTVSPropertyOp44
 70
     1
102
RTVSPropertyOp45
 70
     1
102
RTVSPropertyOp46
 70
     1
102
RTVSPropertyOp47
 70
     1
102
RTVSPropertyOp48
 70
     1
102
RTVSPropertyOp49
 70
     1
102
RTVSPropertyOp50
 70
     1
102
RTVSPropertyOp51
 70
     0
102
RTVSPropertyOp52
 70
     0
102
RTVSPropertyOp53
 70
     1
102
RTVSPropertyOp54
 70
     1
102
RTVSPropertyOp55
 70
     1
102
RTVSPropertyOp56
 70
     1
102
RTVSPropertyOp57
 70
     1
102
RTVSPost2010Prop28
280
     0
102
RTVSPost2010PropOp28
 70
     1
102
RTVSPost2010Prop29
280
     1
102
RTVSPost2010PropOp29
 70
     1
102
RTVSPost2010Prop30
280
     1
102
RTVSPost2010PropOp30
 70
     1
102
RTVSPost2010Prop31
280
     0
102
RTVSPost2010PropOp31
 70
     1
102
RTVSPost2010Prop32
280
     0
102
RTVSPost2010PropOp32
 70
     1
102
RTVSPost2010Prop33
280
     0
102
RTVSPost2010PropOp33
 70
     1
102
RTVSPost2010Prop34
280
     0
102
RTVSPost2010PropOp34
 70
     1
102
RTVSPost2010Prop35
280
     0
102
RTVSPost2010PropOp35
 70
     1
102
RTVSPost2010Prop36
280
     0
102
RTVSPost2010PropOp36
 70
     1
102
RTVSPost2010Prop37
 90
       50
102
RTVSPost2010PropOp37
 70
     1
102
RTVSPost2010Prop38
140
0.0
102
RTVSPost2010PropOp38
 70
     1
102
RTVSPost2010Prop39
140
1.0
102
RTVSPost2010PropOp39
 70
     1
102
RTVSPost2010Prop40
 90
        0
102
RTVSPost2010PropOp40
 70
     1
102
RTVSPost2010Prop41ColorIndex
 90
       18
102
RTVSPost2010Prop41ColorRGB
 90
        0
102
RTVSPost2010PropOp41
 70
     1
102
RTVSPost2010Prop42
 90
       50
102
RTVSPost2010PropOp42
 70
     1
102
RTVSPost2010Prop43
 90
        3
102
RTVSPost2010PropOp43
 70
     1
102
RTVSPost2010Prop44ColorIndex
 90
        5
102
RTVSPost2010Prop44ColorRGB
 90
      255
102
RTVSPost2010PropOp44
 70
     1
102
RTVSPost2010Prop45
280
     0
102
RTVSPost2010PropOp45
 70
     1
102
RTVSPost2010Prop46
 90
       50
102
RTVSPost2010PropOp46
 70
     1
102
RTVSPost2010Prop47
 90
       50
102
RTVSPost2010PropOp47
 70
     1
102
RTVSPost2010Prop48
 90
       50
102
RTVSPost2010PropOp48
 70
     1
102
RTVSPost2010Prop49
280
     0
102
RTVSPost2010PropOp49
 70
     1
102
RTVSPost2010Prop50
 90
       50
102
RTVSPost2010PropOp50
 70
     1
102
RTVSPost2010Prop51ColorIndex
 90
      256
102
RTVSPost2010Prop51ColorRGB
 90
-16777216
102
RTVSPost2010PropOp51
 70
     0
102
RTVSPost2010Prop52
140
1.0
102
RTVSPost2010PropOp52
 70
     0
102
RTVSPost2010Prop53
 90
        2
102
RTVSPost2010PropOp53
 70
     1
102
RTVSPost2010Prop54
  1
strokes_ogs.tif
102
RTVSPost2010PropOp54
 70
     1
102
RTVSPost2010Prop55
280
     0
102
RTVSPost2010PropOp55
 70
     1
102
RTVSPost2010Prop56
140
1.0
102
RTVSPost2010PropOp56
 70
     1
102
RTVSPost2010Prop57
140
1.0
102
RTVSPost2010PropOp57
 70
     1
  0
XRECORD
  5
3F9
102
{ACAD_REACTORS
330
3F8
102
}
330
3F8
100
AcDbXrecord
280
     1
102
RTVSPropertyOp0
 70
     1
102
RTVSPropertyOp1
 70
     1
102
RTVSPropertyOp2
 70
     1
102
RTVSPropertyOp3
 70
     1
102
RTVSPropertyOp4
 70
     1
102
RTVSPropertyOp5
 70
     1
102
RTVSPropertyOp6
 70
     1
102
RTVSPropertyOp7
 70
     1
102
RTVSPropertyOp8
 70
     1
102
RTVSPropertyOp9
 70
     1
102
RTVSPropertyOp10
 70
     1
102
RTVSPropertyOp11
 70
     1
102
RTVSPropertyOp12
 70
     1
102
RTVSPropertyOp13
 70
     1
102
RTVSPropertyOp14
 70
     1
102
RTVSPropertyOp15
 70
     1
102
RTVSPropertyOp16
 70
     1
102
RTVSPropertyOp17
 70
     1
102
RTVSPropertyOp18
 70
     1
102
RTVSPropertyOp19
 70
     1
102
RTVSPropertyOp20
 70
     1
102
RTVSPropertyOp21
 70
     1
102
RTVSPropertyOp22
 70
     1
102
RTVSPropertyOp23
 70
     1
102
RTVSPropertyOp24
 70
     1
102
RTVSPropertyOp25
 70
     1
102
RTVSPropertyOp26
 70
     1
102
RTVSPropertyOp27
 70
     1
102
RTVSPropertyOp28
 70
     1
102
RTVSPropertyOp29
 70
     1
102
RTVSPropertyOp30
 70
     1
102
RTVSPropertyOp31
 70
     1
102
RTVSPropertyOp32
 70
     1
102
RTVSPropertyOp33
 70
     1
102
RTVSPropertyOp34
 70
     1
102
RTVSPropertyOp35
 70
     1
102
RTVSPropertyOp36
 70
     1
102
RTVSPropertyOp37
 70
     1
102
RTVSPropertyOp38
 70
     1
102
RTVSPropertyOp39
 70
     1
102
RTVSPropertyOp40
 70
     1
102
RTVSPropertyOp41
 70
     1
102
RTVSPropertyOp42
 70
     1
102
RTVSPropertyOp43
 70
     1
102
RTVSPropertyOp44
 70
     1
102
RTVSPropertyOp45
 70
     1
102
RTVSPropertyOp46
 70
     1
102
RTVSPropertyOp47
 70
     1
102
RTVSPropertyOp48
 70
     1
102
RTVSPropertyOp49
 70
     1
102
RTVSPropertyOp50
 70
     1
102
RTVSPropertyOp51
 70
     0
102
RTVSPropertyOp52
 70
     0
102
RTVSPropertyOp53
 70
     1
102
RTVSPropertyOp54
 70
     1
102
RTVSPropertyOp55
 70
     1
102
RTVSPropertyOp56
 70
     1
102
RTVSPropertyOp57
 70
     1
102
RTVSPost2010Prop28
280
     0
102
RTVSPost2010PropOp28
 70
     1
102
RTVSPost2010Prop29
280
     1
102
RTVSPost2010PropOp29
 70
     1
102
RTVSPost2010Prop30
280
     1
102
RTVSPost2010PropOp30
 70
     1
102
RTVSPost2010Prop31
280
     0
102
RTVSPost2010PropOp31
 70
     1
102
RTVSPost2010Prop32
280
     0
102
RTVSPost2010PropOp32
 70
     1
102
RTVSPost2010Prop33
280
     0
102
RTVSPost2010PropOp33
 70
     1
102
RTVSPost2010Prop34
280
     0
102
RTVSPost2010PropOp34
 70
     1
102
RTVSPost2010Prop35
280
     0
102
RTVSPost2010PropOp35
 70
     1
102
RTVSPost2010Prop36
280
     0
102
RTVSPost2010PropOp36
 70
     1
102
RTVSPost2010Prop37
 90
       50
102
RTVSPost2010PropOp37
 70
     1
102
RTVSPost2010Prop38
140
0.0
102
RTVSPost2010PropOp38
 70
     1
102
RTVSPost2010Prop39
140
1.0
102
RTVSPost2010PropOp39
 70
     1
102
RTVSPost2010Prop40
 90
        0
102
RTVSPost2010PropOp40
 70
     1
102
RTVSPost2010Prop41ColorIndex
 90
       18
102
RTVSPost2010Prop41ColorRGB
 90
        0
102
RTVSPost2010PropOp41
 70
     1
102
RTVSPost2010Prop42
 90
       50
102
RTVSPost2010PropOp42
 70
     1
102
RTVSPost2010Prop43
 90
        3
102
RTVSPost2010PropOp43
 70
     1
102
RTVSPost2010Prop44ColorIndex
 90
        5
102
RTVSPost2010Prop44ColorRGB
 90
      255
102
RTVSPost2010PropOp44
 70
     1
102
RTVSPost2010Prop45
280
     0
102
RTVSPost2010PropOp45
 70
     1
102
RTVSPost2010Prop46
 90
       50
102
RTVSPost2010PropOp46
 70
     1
102
RTVSPost2010Prop47
 90
       50
102
RTVSPost2010PropOp47
 70
     1
102
RTVSPost2010Prop48
 90
       50
102
RTVSPost2010PropOp48
 70
     1
102
RTVSPost2010Prop49
280
     0
102
RTVSPost2010PropOp49
 70
     1
102
RTVSPost2010Prop50
 90
       50
102
RTVSPost2010PropOp50
 70
     1
102
RTVSPost2010Prop51ColorIndex
 90
      256
102
RTVSPost2010Prop51ColorRGB
 90
-16777216
102
RTVSPost2010PropOp51
 70
     0
102
RTVSPost2010Prop52
140
1.0
102
RTVSPost2010PropOp52
 70
     0
102
RTVSPost2010Prop53
 90
        2
102
RTVSPost2010PropOp53
 70
     1
102
RTVSPost2010Prop54
  1
strokes_ogs.tif
102
RTVSPost2010PropOp54
 70
     1
102
RTVSPost2010Prop55
280
     0
102
RTVSPost2010PropOp55
 70
     1
102
RTVSPost2010Prop56
140
1.0
102
RTVSPost2010PropOp56
 70
     1
102
RTVSPost2010Prop57
140
1.0
102
RTVSPost2010PropOp57
 70
     1
  0
XRECORD
  5
3FF
102
{ACAD_REACTORS
330
3FE
102
}
330
3FE
100
AcDbXrecord
280
     1
102
RTVSPropertyOp0
 70
     1
102
RTVSPropertyOp1
 70
     1
102
RTVSPropertyOp2
 70
     1
102
RTVSPropertyOp3
 70
     1
102
RTVSPropertyOp4
 70
     1
102
RTVSPropertyOp5
 70
     1
102
RTVSPropertyOp6
 70
     1
102
RTVSPropertyOp7
 70
     1
102
RTVSPropertyOp8
 70
     1
102
RTVSPropertyOp9
 70
     1
102
RTVSPropertyOp10
 70
     1
102
RTVSPropertyOp11
 70
     1
102
RTVSPropertyOp12
 70
     1
102
RTVSPropertyOp13
 70
     1
102
RTVSPropertyOp14
 70
     1
102
RTVSPropertyOp15
 70
     1
102
RTVSPropertyOp16
 70
     1
102
RTVSPropertyOp17
 70
     1
102
RTVSPropertyOp18
 70
     1
102
RTVSPropertyOp19
 70
     1
102
RTVSPropertyOp20
 70
     1
102
RTVSPropertyOp21
 70
     1
102
RTVSPropertyOp22
 70
     1
102
RTVSPropertyOp23
 70
     1
102
RTVSPropertyOp24
 70
     1
102
RTVSPropertyOp25
 70
     1
102
RTVSPropertyOp26
 70
     1
102
RTVSPropertyOp27
 70
     1
102
RTVSPropertyOp28
 70
     1
102
RTVSPropertyOp29
 70
     1
102
RTVSPropertyOp30
 70
     1
102
RTVSPropertyOp31
 70
     1
102
RTVSPropertyOp32
 70
     1
102
RTVSPropertyOp33
 70
     1
102
RTVSPropertyOp34
 70
     1
102
RTVSPropertyOp35
 70
     1
102
RTVSPropertyOp36
 70
     1
102
RTVSPropertyOp37
 70
     1
102
RTVSPropertyOp38
 70
     1
102
RTVSPropertyOp39
 70
     1
102
RTVSPropertyOp40
 70
     1
102
RTVSPropertyOp41
 70
     1
102
RTVSPropertyOp42
 70
     1
102
RTVSPropertyOp43
 70
     1
102
RTVSPropertyOp44
 70
     1
102
RTVSPropertyOp45
 70
     1
102
RTVSPropertyOp46
 70
     1
102
RTVSPropertyOp47
 70
     1
102
RTVSPropertyOp48
 70
     1
102
RTVSPropertyOp49
 70
     1
102
RTVSPropertyOp50
 70
     1
102
RTVSPropertyOp51
 70
     0
102
RTVSPropertyOp52
 70
     0
102
RTVSPropertyOp53
 70
     1
102
RTVSPropertyOp54
 70
     1
102
RTVSPropertyOp55
 70
     1
102
RTVSPropertyOp56
 70
     1
102
RTVSPropertyOp57
 70
     1
102
RTVSPost2010Prop28
280
     0
102
RTVSPost2010PropOp28
 70
     1
102
RTVSPost2010Prop29
280
     1
102
RTVSPost2010PropOp29
 70
     1
102
RTVSPost2010Prop30
280
     1
102
RTVSPost2010PropOp30
 70
     1
102
RTVSPost2010Prop31
280
     0
102
RTVSPost2010PropOp31
 70
     1
102
RTVSPost2010Prop32
280
     0
102
RTVSPost2010PropOp32
 70
     1
102
RTVSPost2010Prop33
280
     0
102
RTVSPost2010PropOp33
 70
     1
102
RTVSPost2010Prop34
280
     0
102
RTVSPost2010PropOp34
 70
     1
102
RTVSPost2010Prop35
280
     0
102
RTVSPost2010PropOp35
 70
     1
102
RTVSPost2010Prop36
280
     0
102
RTVSPost2010PropOp36
 70
     1
102
RTVSPost2010Prop37
 90
       50
102
RTVSPost2010PropOp37
 70
     1
102
RTVSPost2010Prop38
140
0.0
102
RTVSPost2010PropOp38
 70
     1
102
RTVSPost2010Prop39
140
1.0
102
RTVSPost2010PropOp39
 70
     1
102
RTVSPost2010Prop40
 90
        0
102
RTVSPost2010PropOp40
 70
     1
102
RTVSPost2010Prop41ColorIndex
 90
       18
102
RTVSPost2010Prop41ColorRGB
 90
        0
102
RTVSPost2010PropOp41
 70
     1
102
RTVSPost2010Prop42
 90
       50
102
RTVSPost2010PropOp42
 70
     1
102
RTVSPost2010Prop43
 90
        3
102
RTVSPost2010PropOp43
 70
     1
102
RTVSPost2010Prop44ColorIndex
 90
        5
102
RTVSPost2010Prop44ColorRGB
 90
      255
102
RTVSPost2010PropOp44
 70
     1
102
RTVSPost2010Prop45
280
     0
102
RTVSPost2010PropOp45
 70
     1
102
RTVSPost2010Prop46
 90
       50
102
RTVSPost2010PropOp46
 70
     1
102
RTVSPost2010Prop47
 90
       50
102
RTVSPost2010PropOp47
 70
     1
102
RTVSPost2010Prop48
 90
       50
102
RTVSPost2010PropOp48
 70
     1
102
RTVSPost2010Prop49
280
     0
102
RTVSPost2010PropOp49
 70
     1
102
RTVSPost2010Prop50
 90
       50
102
RTVSPost2010PropOp50
 70
     1
102
RTVSPost2010Prop51ColorIndex
 90
      256
102
RTVSPost2010Prop51ColorRGB
 90
-16777216
102
RTVSPost2010PropOp51
 70
     0
102
RTVSPost2010Prop52
140
1.0
102
RTVSPost2010PropOp52
 70
     0
102
RTVSPost2010Prop53
 90
        2
102
RTVSPost2010PropOp53
 70
     1
102
RTVSPost2010Prop54
  1
strokes_ogs.tif
102
RTVSPost2010PropOp54
 70
     1
102
RTVSPost2010Prop55
280
     0
102
RTVSPost2010PropOp55
 70
     1
102
RTVSPost2010Prop56
140
1.0
102
RTVSPost2010PropOp56
 70
     1
102
RTVSPost2010Prop57
140
1.0
102
RTVSPost2010PropOp57
 70
     1
  0
XRECORD
  5
413
102
{ACAD_REACTORS
330
412
102
}
330
412
100
AcDbXrecord
280
     1
102
RTVSPropertyOp0
 70
     0
102
RTVSPropertyOp1
 70
     0
102
RTVSPropertyOp2
 70
     0
102
RTVSPropertyOp3
 70
     0
102
RTVSPropertyOp4
 70
     0
102
RTVSPropertyOp5
 70
     0
102
RTVSPropertyOp6
 70
     0
102
RTVSPropertyOp7
 70
     0
102
RTVSPropertyOp8
 70
     0
102
RTVSPropertyOp9
 70
     0
102
RTVSPropertyOp10
 70
     0
102
RTVSPropertyOp11
 70
     0
102
RTVSPropertyOp12
 70
     0
102
RTVSPropertyOp13
 70
     0
102
RTVSPropertyOp14
 70
     2
102
RTVSPropertyOp15
 70
     0
102
RTVSPropertyOp16
 70
     0
102
RTVSPropertyOp17
 70
     0
102
RTVSPropertyOp18
 70
     0
102
RTVSPropertyOp19
 70
     0
102
RTVSPropertyOp20
 70
     0
102
RTVSPropertyOp21
 70
     0
102
RTVSPropertyOp22
 70
     0
102
RTVSPropertyOp23
 70
     0
102
RTVSPropertyOp24
 70
     0
102
RTVSPropertyOp25
 70
     0
102
RTVSPropertyOp26
 70
     0
102
RTVSPropertyOp27
 70
     0
102
RTVSPropertyOp28
 70
     0
102
RTVSPropertyOp29
 70
     0
102
RTVSPropertyOp30
 70
     0
102
RTVSPropertyOp31
 70
     0
102
RTVSPropertyOp32
 70
     0
102
RTVSPropertyOp33
 70
     0
102
RTVSPropertyOp34
 70
     0
102
RTVSPropertyOp35
 70
     0
102
RTVSPropertyOp36
 70
     0
102
RTVSPropertyOp37
 70
     0
102
RTVSPropertyOp38
 70
     0
102
RTVSPropertyOp39
 70
     0
102
RTVSPropertyOp40
 70
     0
102
RTVSPropertyOp41
 70
     0
102
RTVSPropertyOp42
 70
     0
102
RTVSPropertyOp43
 70
     0
102
RTVSPropertyOp44
 70
     0
102
RTVSPropertyOp45
 70
     0
102
RTVSPropertyOp46
 70
     0
102
RTVSPropertyOp47
 70
     0
102
RTVSPropertyOp48
 70
     0
102
RTVSPropertyOp49
 70
     0
102
RTVSPropertyOp50
 70
     0
102
RTVSPropertyOp51
 70
     0
102
RTVSPropertyOp52
 70
     0
102
RTVSPropertyOp53
 70
     0
102
RTVSPropertyOp54
 70
     0
102
RTVSPropertyOp55
 70
     0
102
RTVSPropertyOp56
 70
     0
102
RTVSPropertyOp57
 70
     0
102
RTVSPost2010Prop28
280
     0
102
RTVSPost2010PropOp28
 70
     0
102
RTVSPost2010Prop29
280
     1
102
RTVSPost2010PropOp29
 70
     0
102
RTVSPost2010Prop30
280
     1
102
RTVSPost2010PropOp30
 70
     0
102
RTVSPost2010Prop31
280
     0
102
RTVSPost2010PropOp31
 70
     0
102
RTVSPost2010Prop32
280
     0
102
RTVSPost2010PropOp32
 70
     0
102
RTVSPost2010Prop33
280
     0
102
RTVSPost2010PropOp33
 70
     0
102
RTVSPost2010Prop34
280
     0
102
RTVSPost2010PropOp34
 70
     0
102
RTVSPost2010Prop35
280
     0
102
RTVSPost2010PropOp35
 70
     0
102
RTVSPost2010Prop36
280
     0
102
RTVSPost2010PropOp36
 70
     0
102
RTVSPost2010Prop37
 90
       50
102
RTVSPost2010PropOp37
 70
     0
102
RTVSPost2010Prop38
140
0.0
102
RTVSPost2010PropOp38
 70
     0
102
RTVSPost2010Prop39
140
1.0
102
RTVSPost2010PropOp39
 70
     0
102
RTVSPost2010Prop40
 90
        0
102
RTVSPost2010PropOp40
 70
     0
102
RTVSPost2010Prop41ColorIndex
 90
       18
102
RTVSPost2010Prop41ColorRGB
 90
        0
102
RTVSPost2010PropOp41
 70
     0
102
RTVSPost2010Prop42
 90
       50
102
RTVSPost2010PropOp42
 70
     0
102
RTVSPost2010Prop43
 90
        3
102
RTVSPost2010PropOp43
 70
     0
102
RTVSPost2010Prop44ColorIndex
 90
        5
102
RTVSPost2010Prop44ColorRGB
 90
      255
102
RTVSPost2010PropOp44
 70
     0
102
RTVSPost2010Prop45
280
     0
102
RTVSPost2010PropOp45
 70
     0
102
RTVSPost2010Prop46
 90
       50
102
RTVSPost2010PropOp46
 70
     0
102
RTVSPost2010Prop47
 90
       50
102
RTVSPost2010PropOp47
 70
     0
102
RTVSPost2010Prop48
 90
       50
102
RTVSPost2010PropOp48
 70
     0
102
RTVSPost2010Prop49
280
     0
102
RTVSPost2010PropOp49
 70
     0
102
RTVSPost2010Prop50
 90
       50
102
RTVSPost2010PropOp50
 70
     0
102
RTVSPost2010Prop51ColorIndex
 90
      256
102
RTVSPost2010Prop51ColorRGB
 90
-16777216
102
RTVSPost2010PropOp51
 70
     0
102
RTVSPost2010Prop52
140
1.0
102
RTVSPost2010PropOp52
 70
     0
102
RTVSPost2010Prop53
 90
        2
102
RTVSPost2010PropOp53
 70
     0
102
RTVSPost2010Prop54
  1
strokes_ogs.tif
102
RTVSPost2010PropOp54
 70
     0
102
RTVSPost2010Prop55
280
     0
102
RTVSPost2010PropOp55
 70
     0
102
RTVSPost2010Prop56
140
1.0
102
RTVSPost2010PropOp56
 70
     0
102
RTVSPost2010Prop57
140
1.0
102
RTVSPost2010PropOp57
 70
     0
  0
XRECORD
  5
40D
102
{ACAD_REACTORS
330
40C
102
}
330
40C
100
AcDbXrecord
280
     1
102
RTVSPropertyOp0
 70
     1
102
RTVSPropertyOp1
 70
     1
102
RTVSPropertyOp2
 70
     1
102
RTVSPropertyOp3
 70
     1
102
RTVSPropertyOp4
 70
     1
102
RTVSPropertyOp5
 70
     1
102
RTVSPropertyOp6
 70
     1
102
RTVSPropertyOp7
 70
     1
102
RTVSPropertyOp8
 70
     1
102
RTVSPropertyOp9
 70
     1
102
RTVSPropertyOp10
 70
     1
102
RTVSPropertyOp11
 70
     1
102
RTVSPropertyOp12
 70
     1
102
RTVSPropertyOp13
 70
     1
102
RTVSPropertyOp14
 70
     1
102
RTVSPropertyOp15
 70
     1
102
RTVSPropertyOp16
 70
     1
102
RTVSPropertyOp17
 70
     1
102
RTVSPropertyOp18
 70
     1
102
RTVSPropertyOp19
 70
     1
102
RTVSPropertyOp20
 70
     1
102
RTVSPropertyOp21
 70
     1
102
RTVSPropertyOp22
 70
     1
102
RTVSPropertyOp23
 70
     1
102
RTVSPropertyOp24
 70
     1
102
RTVSPropertyOp25
 70
     1
102
RTVSPropertyOp26
 70
     1
102
RTVSPropertyOp27
 70
     1
102
RTVSPropertyOp28
 70
     1
102
RTVSPropertyOp29
 70
     1
102
RTVSPropertyOp30
 70
     1
102
RTVSPropertyOp31
 70
     1
102
RTVSPropertyOp32
 70
     1
102
RTVSPropertyOp33
 70
     1
102
RTVSPropertyOp34
 70
     1
102
RTVSPropertyOp35
 70
     1
102
RTVSPropertyOp36
 70
     1
102
RTVSPropertyOp37
 70
     1
102
RTVSPropertyOp38
 70
     1
102
RTVSPropertyOp39
 70
     1
102
RTVSPropertyOp40
 70
     1
102
RTVSPropertyOp41
 70
     1
102
RTVSPropertyOp42
 70
     1
102
RTVSPropertyOp43
 70
     1
102
RTVSPropertyOp44
 70
     1
102
RTVSPropertyOp45
 70
     1
102
RTVSPropertyOp46
 70
     1
102
RTVSPropertyOp47
 70
     1
102
RTVSPropertyOp48
 70
     1
102
RTVSPropertyOp49
 70
     1
102
RTVSPropertyOp50
 70
     1
102
RTVSPropertyOp51
 70
     0
102
RTVSPropertyOp52
 70
     0
102
RTVSPropertyOp53
 70
     1
102
RTVSPropertyOp54
 70
     1
102
RTVSPropertyOp55
 70
     1
102
RTVSPropertyOp56
 70
     1
102
RTVSPropertyOp57
 70
     1
102
RTVSPost2010Prop28
280
     0
102
RTVSPost2010PropOp28
 70
     1
102
RTVSPost2010Prop29
280
     1
102
RTVSPost2010PropOp29
 70
     1
102
RTVSPost2010Prop30
280
     1
102
RTVSPost2010PropOp30
 70
     1
102
RTVSPost2010Prop31
280
     0
102
RTVSPost2010PropOp31
 70
     1
102
RTVSPost2010Prop32
280
     0
102
RTVSPost2010PropOp32
 70
     1
102
RTVSPost2010Prop33
280
     0
102
RTVSPost2010PropOp33
 70
     1
102
RTVSPost2010Prop34
280
     0
102
RTVSPost2010PropOp34
 70
     1
102
RTVSPost2010Prop35
280
     0
102
RTVSPost2010PropOp35
 70
     1
102
RTVSPost2010Prop36
280
     0
102
RTVSPost2010PropOp36
 70
     1
102
RTVSPost2010Prop37
 90
       50
102
RTVSPost2010PropOp37
 70
     1
102
RTVSPost2010Prop38
140
0.0
102
RTVSPost2010PropOp38
 70
     1
102
RTVSPost2010Prop39
140
1.0
102
RTVSPost2010PropOp39
 70
     1
102
RTVSPost2010Prop40
 90
        0
102
RTVSPost2010PropOp40
 70
     1
102
RTVSPost2010Prop41ColorIndex
 90
       18
102
RTVSPost2010Prop41ColorRGB
 90
        0
102
RTVSPost2010PropOp41
 70
     1
102
RTVSPost2010Prop42
 90
       50
102
RTVSPost2010PropOp42
 70
     1
102
RTVSPost2010Prop43
 90
        3
102
RTVSPost2010PropOp43
 70
     1
102
RTVSPost2010Prop44ColorIndex
 90
        5
102
RTVSPost2010Prop44ColorRGB
 90
      255
102
RTVSPost2010PropOp44
 70
     1
102
RTVSPost2010Prop45
280
     0
102
RTVSPost2010PropOp45
 70
     1
102
RTVSPost2010Prop46
 90
       50
102
RTVSPost2010PropOp46
 70
     1
102
RTVSPost2010Prop47
 90
       50
102
RTVSPost2010PropOp47
 70
     1
102
RTVSPost2010Prop48
 90
       50
102
RTVSPost2010PropOp48
 70
     1
102
RTVSPost2010Prop49
280
     0
102
RTVSPost2010PropOp49
 70
     1
102
RTVSPost2010Prop50
 90
       50
102
RTVSPost2010PropOp50
 70
     1
102
RTVSPost2010Prop51ColorIndex
 90
      256
102
RTVSPost2010Prop51ColorRGB
 90
-16777216
102
RTVSPost2010PropOp51
 70
     0
102
RTVSPost2010Prop52
140
1.0
102
RTVSPost2010PropOp52
 70
     0
102
RTVSPost2010Prop53
 90
        2
102
RTVSPost2010PropOp53
 70
     1
102
RTVSPost2010Prop54
  1
strokes_ogs.tif
102
RTVSPost2010PropOp54
 70
     1
102
RTVSPost2010Prop55
280
     0
102
RTVSPost2010PropOp55
 70
     1
102
RTVSPost2010Prop56
140
1.0
102
RTVSPost2010PropOp56
 70
     1
102
RTVSPost2010Prop57
140
1.0
102
RTVSPost2010PropOp57
 70
     1
  0
XRECORD
  5
415
102
{ACAD_REACTORS
330
414
102
}
330
414
100
AcDbXrecord
280
     1
102
RTVSPropertyOp0
 70
     0
102
RTVSPropertyOp1
 70
     0
102
RTVSPropertyOp2
 70
     0
102
RTVSPropertyOp3
 70
     0
102
RTVSPropertyOp4
 70
     0
102
RTVSPropertyOp5
 70
     0
102
RTVSPropertyOp6
 70
     0
102
RTVSPropertyOp7
 70
     0
102
RTVSPropertyOp8
 70
     0
102
RTVSPropertyOp9
 70
     0
102
RTVSPropertyOp10
 70
     0
102
RTVSPropertyOp11
 70
     0
102
RTVSPropertyOp12
 70
     0
102
RTVSPropertyOp13
 70
     0
102
RTVSPropertyOp14
 70
     2
102
RTVSPropertyOp15
 70
     0
102
RTVSPropertyOp16
 70
     0
102
RTVSPropertyOp17
 70
     0
102
RTVSPropertyOp18
 70
     0
102
RTVSPropertyOp19
 70
     0
102
RTVSPropertyOp20
 70
     0
102
RTVSPropertyOp21
 70
     0
102
RTVSPropertyOp22
 70
     0
102
RTVSPropertyOp23
 70
     0
102
RTVSPropertyOp24
 70
     0
102
RTVSPropertyOp25
 70
     0
102
RTVSPropertyOp26
 70
     0
102
RTVSPropertyOp27
 70
     0
102
RTVSPropertyOp28
 70
     0
102
RTVSPropertyOp29
 70
     0
102
RTVSPropertyOp30
 70
     0
102
RTVSPropertyOp31
 70
     0
102
RTVSPropertyOp32
 70
     0
102
RTVSPropertyOp33
 70
     0
102
RTVSPropertyOp34
 70
     0
102
RTVSPropertyOp35
 70
     0
102
RTVSPropertyOp36
 70
     0
102
RTVSPropertyOp37
 70
     0
102
RTVSPropertyOp38
 70
     0
102
RTVSPropertyOp39
 70
     0
102
RTVSPropertyOp40
 70
     0
102
RTVSPropertyOp41
 70
     0
102
RTVSPropertyOp42
 70
     0
102
RTVSPropertyOp43
 70
     0
102
RTVSPropertyOp44
 70
     0
102
RTVSPropertyOp45
 70
     0
102
RTVSPropertyOp46
 70
     0
102
RTVSPropertyOp47
 70
     0
102
RTVSPropertyOp48
 70
     0
102
RTVSPropertyOp49
 70
     0
102
RTVSPropertyOp50
 70
     0
102
RTVSPropertyOp51
 70
     0
102
RTVSPropertyOp52
 70
     0
102
RTVSPropertyOp53
 70
     0
102
RTVSPropertyOp54
 70
     0
102
RTVSPropertyOp55
 70
     0
102
RTVSPropertyOp56
 70
     0
102
RTVSPropertyOp57
 70
     0
102
RTVSPost2010Prop28
280
     0
102
RTVSPost2010PropOp28
 70
     0
102
RTVSPost2010Prop29
280
     1
102
RTVSPost2010PropOp29
 70
     0
102
RTVSPost2010Prop30
280
     1
102
RTVSPost2010PropOp30
 70
     0
102
RTVSPost2010Prop31
280
     0
102
RTVSPost2010PropOp31
 70
     0
102
RTVSPost2010Prop32
280
     0
102
RTVSPost2010PropOp32
 70
     0
102
RTVSPost2010Prop33
280
     0
102
RTVSPost2010PropOp33
 70
     0
102
RTVSPost2010Prop34
280
     0
102
RTVSPost2010PropOp34
 70
     0
102
RTVSPost2010Prop35
280
     0
102
RTVSPost2010PropOp35
 70
     0
102
RTVSPost2010Prop36
280
     0
102
RTVSPost2010PropOp36
 70
     0
102
RTVSPost2010Prop37
 90
       50
102
RTVSPost2010PropOp37
 70
     0
102
RTVSPost2010Prop38
140
0.0
102
RTVSPost2010PropOp38
 70
     0
102
RTVSPost2010Prop39
140
1.0
102
RTVSPost2010PropOp39
 70
     0
102
RTVSPost2010Prop40
 90
        0
102
RTVSPost2010PropOp40
 70
     0
102
RTVSPost2010Prop41ColorIndex
 90
       18
102
RTVSPost2010Prop41ColorRGB
 90
        0
102
RTVSPost2010PropOp41
 70
     0
102
RTVSPost2010Prop42
 90
       50
102
RTVSPost2010PropOp42
 70
     0
102
RTVSPost2010Prop43
 90
        3
102
RTVSPost2010PropOp43
 70
     0
102
RTVSPost2010Prop44ColorIndex
 90
        5
102
RTVSPost2010Prop44ColorRGB
 90
      255
102
RTVSPost2010PropOp44
 70
     0
102
RTVSPost2010Prop45
280
     0
102
RTVSPost2010PropOp45
 70
     0
102
RTVSPost2010Prop46
 90
       50
102
RTVSPost2010PropOp46
 70
     0
102
RTVSPost2010Prop47
 90
       50
102
RTVSPost2010PropOp47
 70
     0
102
RTVSPost2010Prop48
 90
       50
102
RTVSPost2010PropOp48
 70
     0
102
RTVSPost2010Prop49
280
     0
102
RTVSPost2010PropOp49
 70
     0
102
RTVSPost2010Prop50
 90
       50
102
RTVSPost2010PropOp50
 70
     0
102
RTVSPost2010Prop51ColorIndex
 90
      256
102
RTVSPost2010Prop51ColorRGB
 90
-16777216
102
RTVSPost2010PropOp51
 70
     0
102
RTVSPost2010Prop52
140
1.0
102
RTVSPost2010PropOp52
 70
     0
102
RTVSPost2010Prop53
 90
        2
102
RTVSPost2010PropOp53
 70
     0
102
RTVSPost2010Prop54
  1
strokes_ogs.tif
102
RTVSPost2010PropOp54
 70
     0
102
RTVSPost2010Prop55
280
     0
102
RTVSPost2010PropOp55
 70
     0
102
RTVSPost2010Prop56
140
1.0
102
RTVSPost2010PropOp56
 70
     0
102
RTVSPost2010Prop57
140
1.0
102
RTVSPost2010PropOp57
 70
     0
  0
XRECORD
  5
403
102
{ACAD_REACTORS
330
402
102
}
330
402
100
AcDbXrecord
280
     1
102
RTVSPropertyOp0
 70
     1
102
RTVSPropertyOp1
 70
     1
102
RTVSPropertyOp2
 70
     1
102
RTVSPropertyOp3
 70
     1
102
RTVSPropertyOp4
 70
     1
102
RTVSPropertyOp5
 70
     1
102
RTVSPropertyOp6
 70
     1
102
RTVSPropertyOp7
 70
     1
102
RTVSPropertyOp8
 70
     1
102
RTVSPropertyOp9
 70
     1
102
RTVSPropertyOp10
 70
     1
102
RTVSPropertyOp11
 70
     1
102
RTVSPropertyOp12
 70
     1
102
RTVSPropertyOp13
 70
     1
102
RTVSPropertyOp14
 70
     1
102
RTVSPropertyOp15
 70
     1
102
RTVSPropertyOp16
 70
     1
102
RTVSPropertyOp17
 70
     1
102
RTVSPropertyOp18
 70
     1
102
RTVSPropertyOp19
 70
     1
102
RTVSPropertyOp20
 70
     1
102
RTVSPropertyOp21
 70
     1
102
RTVSPropertyOp22
 70
     1
102
RTVSPropertyOp23
 70
     1
102
RTVSPropertyOp24
 70
     1
102
RTVSPropertyOp25
 70
     1
102
RTVSPropertyOp26
 70
     1
102
RTVSPropertyOp27
 70
     1
102
RTVSPropertyOp28
 70
     1
102
RTVSPropertyOp29
 70
     1
102
RTVSPropertyOp30
 70
     1
102
RTVSPropertyOp31
 70
     1
102
RTVSPropertyOp32
 70
     1
102
RTVSPropertyOp33
 70
     1
102
RTVSPropertyOp34
 70
     1
102
RTVSPropertyOp35
 70
     1
102
RTVSPropertyOp36
 70
     1
102
RTVSPropertyOp37
 70
     1
102
RTVSPropertyOp38
 70
     1
102
RTVSPropertyOp39
 70
     1
102
RTVSPropertyOp40
 70
     1
102
RTVSPropertyOp41
 70
     1
102
RTVSPropertyOp42
 70
     1
102
RTVSPropertyOp43
 70
     1
102
RTVSPropertyOp44
 70
     1
102
RTVSPropertyOp45
 70
     1
102
RTVSPropertyOp46
 70
     1
102
RTVSPropertyOp47
 70
     1
102
RTVSPropertyOp48
 70
     1
102
RTVSPropertyOp49
 70
     1
102
RTVSPropertyOp50
 70
     1
102
RTVSPropertyOp51
 70
     0
102
RTVSPropertyOp52
 70
     0
102
RTVSPropertyOp53
 70
     1
102
RTVSPropertyOp54
 70
     1
102
RTVSPropertyOp55
 70
     1
102
RTVSPropertyOp56
 70
     1
102
RTVSPropertyOp57
 70
     1
102
RTVSPost2010Prop28
280
     0
102
RTVSPost2010PropOp28
 70
     1
102
RTVSPost2010Prop29
280
     1
102
RTVSPost2010PropOp29
 70
     1
102
RTVSPost2010Prop30
280
     1
102
RTVSPost2010PropOp30
 70
     1
102
RTVSPost2010Prop31
280
     0
102
RTVSPost2010PropOp31
 70
     1
102
RTVSPost2010Prop32
280
     0
102
RTVSPost2010PropOp32
 70
     1
102
RTVSPost2010Prop33
280
     0
102
RTVSPost2010PropOp33
 70
     1
102
RTVSPost2010Prop34
280
     0
102
RTVSPost2010PropOp34
 70
     1
102
RTVSPost2010Prop35
280
     0
102
RTVSPost2010PropOp35
 70
     1
102
RTVSPost2010Prop36
280
     0
102
RTVSPost2010PropOp36
 70
     1
102
RTVSPost2010Prop37
 90
       50
102
RTVSPost2010PropOp37
 70
     1
102
RTVSPost2010Prop38
140
0.0
102
RTVSPost2010PropOp38
 70
     1
102
RTVSPost2010Prop39
140
1.0
102
RTVSPost2010PropOp39
 70
     1
102
RTVSPost2010Prop40
 90
        0
102
RTVSPost2010PropOp40
 70
     1
102
RTVSPost2010Prop41ColorIndex
 90
       18
102
RTVSPost2010Prop41ColorRGB
 90
        0
102
RTVSPost2010PropOp41
 70
     1
102
RTVSPost2010Prop42
 90
       50
102
RTVSPost2010PropOp42
 70
     1
102
RTVSPost2010Prop43
 90
        3
102
RTVSPost2010PropOp43
 70
     1
102
RTVSPost2010Prop44ColorIndex
 90
        5
102
RTVSPost2010Prop44ColorRGB
 90
      255
102
RTVSPost2010PropOp44
 70
     1
102
RTVSPost2010Prop45
280
     0
102
RTVSPost2010PropOp45
 70
     1
102
RTVSPost2010Prop46
 90
       50
102
RTVSPost2010PropOp46
 70
     1
102
RTVSPost2010Prop47
 90
       50
102
RTVSPost2010PropOp47
 70
     1
102
RTVSPost2010Prop48
 90
       50
102
RTVSPost2010PropOp48
 70
     1
102
RTVSPost2010Prop49
280
     0
102
RTVSPost2010PropOp49
 70
     1
102
RTVSPost2010Prop50
 90
       50
102
RTVSPost2010PropOp50
 70
     1
102
RTVSPost2010Prop51ColorIndex
 90
      256
102
RTVSPost2010Prop51ColorRGB
 90
-16777216
102
RTVSPost2010PropOp51
 70
     0
102
RTVSPost2010Prop52
140
1.0
102
RTVSPost2010PropOp52
 70
     0
102
RTVSPost2010Prop53
 90
        2
102
RTVSPost2010PropOp53
 70
     1
102
RTVSPost2010Prop54
  1
strokes_ogs.tif
102
RTVSPost2010PropOp54
 70
     1
102
RTVSPost2010Prop55
280
     0
102
RTVSPost2010PropOp55
 70
     1
102
RTVSPost2010Prop56
140
1.0
102
RTVSPost2010PropOp56
 70
     1
102
RTVSPost2010Prop57
140
1.0
102
RTVSPost2010PropOp57
 70
     1
  0
XRECORD
  5
421
102
{ACAD_REACTORS
330
420
102
}
330
420
100
AcDbXrecord
280
     1
102
RTVSPropertyOp0
 70
     1
102
RTVSPropertyOp1
 70
     1
102
RTVSPropertyOp2
 70
     1
102
RTVSPropertyOp3
 70
     1
102
RTVSPropertyOp4
 70
     1
102
RTVSPropertyOp5
 70
     1
102
RTVSPropertyOp6
 70
     1
102
RTVSPropertyOp7
 70
     1
102
RTVSPropertyOp8
 70
     1
102
RTVSPropertyOp9
 70
     1
102
RTVSPropertyOp10
 70
     1
102
RTVSPropertyOp11
 70
     1
102
RTVSPropertyOp12
 70
     1
102
RTVSPropertyOp13
 70
     1
102
RTVSPropertyOp14
 70
     1
102
RTVSPropertyOp15
 70
     1
102
RTVSPropertyOp16
 70
     1
102
RTVSPropertyOp17
 70
     1
102
RTVSPropertyOp18
 70
     1
102
RTVSPropertyOp19
 70
     1
102
RTVSPropertyOp20
 70
     1
102
RTVSPropertyOp21
 70
     1
102
RTVSPropertyOp22
 70
     1
102
RTVSPropertyOp23
 70
     1
102
RTVSPropertyOp24
 70
     1
102
RTVSPropertyOp25
 70
     1
102
RTVSPropertyOp26
 70
     1
102
RTVSPropertyOp27
 70
     1
102
RTVSPropertyOp28
 70
     1
102
RTVSPropertyOp29
 70
     1
102
RTVSPropertyOp30
 70
     1
102
RTVSPropertyOp31
 70
     1
102
RTVSPropertyOp32
 70
     1
102
RTVSPropertyOp33
 70
     1
102
RTVSPropertyOp34
 70
     1
102
RTVSPropertyOp35
 70
     1
102
RTVSPropertyOp36
 70
     1
102
RTVSPropertyOp37
 70
     1
102
RTVSPropertyOp38
 70
     1
102
RTVSPropertyOp39
 70
     1
102
RTVSPropertyOp40
 70
     1
102
RTVSPropertyOp41
 70
     1
102
RTVSPropertyOp42
 70
     1
102
RTVSPropertyOp43
 70
     1
102
RTVSPropertyOp44
 70
     1
102
RTVSPropertyOp45
 70
     1
102
RTVSPropertyOp46
 70
     1
102
RTVSPropertyOp47
 70
     1
102
RTVSPropertyOp48
 70
     1
102
RTVSPropertyOp49
 70
     1
102
RTVSPropertyOp50
 70
     1
102
RTVSPropertyOp51
 70
     0
102
RTVSPropertyOp52
 70
     0
102
RTVSPropertyOp53
 70
     1
102
RTVSPropertyOp54
 70
     1
102
RTVSPropertyOp55
 70
     1
102
RTVSPropertyOp56
 70
     1
102
RTVSPropertyOp57
 70
     1
102
RTVSPost2010Prop28
280
     0
102
RTVSPost2010PropOp28
 70
     1
102
RTVSPost2010Prop29
280
     1
102
RTVSPost2010PropOp29
 70
     1
102
RTVSPost2010Prop30
280
     1
102
RTVSPost2010PropOp30
 70
     1
102
RTVSPost2010Prop31
280
     0
102
RTVSPost2010PropOp31
 70
     1
102
RTVSPost2010Prop32
280
     0
102
RTVSPost2010PropOp32
 70
     1
102
RTVSPost2010Prop33
280
     0
102
RTVSPost2010PropOp33
 70
     1
102
RTVSPost2010Prop34
280
     0
102
RTVSPost2010PropOp34
 70
     1
102
RTVSPost2010Prop35
280
     0
102
RTVSPost2010PropOp35
 70
     1
102
RTVSPost2010Prop36
280
     0
102
RTVSPost2010PropOp36
 70
     1
102
RTVSPost2010Prop37
 90
       50
102
RTVSPost2010PropOp37
 70
     1
102
RTVSPost2010Prop38
140
0.0
102
RTVSPost2010PropOp38
 70
     1
102
RTVSPost2010Prop39
140
1.0
102
RTVSPost2010PropOp39
 70
     1
102
RTVSPost2010Prop40
 90
        0
102
RTVSPost2010PropOp40
 70
     1
102
RTVSPost2010Prop41ColorIndex
 90
       18
102
RTVSPost2010Prop41ColorRGB
 90
        0
102
RTVSPost2010PropOp41
 70
     1
102
RTVSPost2010Prop42
 90
       50
102
RTVSPost2010PropOp42
 70
     1
102
RTVSPost2010Prop43
 90
        3
102
RTVSPost2010PropOp43
 70
     1
102
RTVSPost2010Prop44ColorIndex
 90
        5
102
RTVSPost2010Prop44ColorRGB
 90
      255
102
RTVSPost2010PropOp44
 70
     1
102
RTVSPost2010Prop45
280
     0
102
RTVSPost2010PropOp45
 70
     1
102
RTVSPost2010Prop46
 90
       50
102
RTVSPost2010PropOp46
 70
     1
102
RTVSPost2010Prop47
 90
       50
102
RTVSPost2010PropOp47
 70
     1
102
RTVSPost2010Prop48
 90
       50
102
RTVSPost2010PropOp48
 70
     1
102
RTVSPost2010Prop49
280
     0
102
RTVSPost2010PropOp49
 70
     1
102
RTVSPost2010Prop50
 90
       50
102
RTVSPost2010PropOp50
 70
     1
102
RTVSPost2010Prop51ColorIndex
 90
      256
102
RTVSPost2010Prop51ColorRGB
 90
-16777216
102
RTVSPost2010PropOp51
 70
     0
102
RTVSPost2010Prop52
140
1.0
102
RTVSPost2010PropOp52
 70
     0
102
RTVSPost2010Prop53
 90
        2
102
RTVSPost2010PropOp53
 70
     1
102
RTVSPost2010Prop54
  1
strokes_ogs.tif
102
RTVSPost2010PropOp54
 70
     1
102
RTVSPost2010Prop55
280
     0
102
RTVSPost2010PropOp55
 70
     1
102
RTVSPost2010Prop56
140
1.0
102
RTVSPost2010PropOp56
 70
     1
102
RTVSPost2010Prop57
140
1.0
102
RTVSPost2010PropOp57
 70
     1
  0
XRECORD
  5
41F
102
{ACAD_REACTORS
330
41E
102
}
330
41E
100
AcDbXrecord
280
     1
102
RTVSPropertyOp0
 70
     1
102
RTVSPropertyOp1
 70
     1
102
RTVSPropertyOp2
 70
     1
102
RTVSPropertyOp3
 70
     1
102
RTVSPropertyOp4
 70
     1
102
RTVSPropertyOp5
 70
     1
102
RTVSPropertyOp6
 70
     1
102
RTVSPropertyOp7
 70
     1
102
RTVSPropertyOp8
 70
     1
102
RTVSPropertyOp9
 70
     1
102
RTVSPropertyOp10
 70
     1
102
RTVSPropertyOp11
 70
     1
102
RTVSPropertyOp12
 70
     1
102
RTVSPropertyOp13
 70
     1
102
RTVSPropertyOp14
 70
     1
102
RTVSPropertyOp15
 70
     1
102
RTVSPropertyOp16
 70
     1
102
RTVSPropertyOp17
 70
     1
102
RTVSPropertyOp18
 70
     1
102
RTVSPropertyOp19
 70
     1
102
RTVSPropertyOp20
 70
     1
102
RTVSPropertyOp21
 70
     1
102
RTVSPropertyOp22
 70
     1
102
RTVSPropertyOp23
 70
     1
102
RTVSPropertyOp24
 70
     1
102
RTVSPropertyOp25
 70
     1
102
RTVSPropertyOp26
 70
     1
102
RTVSPropertyOp27
 70
     1
102
RTVSPropertyOp28
 70
     1
102
RTVSPropertyOp29
 70
     1
102
RTVSPropertyOp30
 70
     1
102
RTVSPropertyOp31
 70
     1
102
RTVSPropertyOp32
 70
     1
102
RTVSPropertyOp33
 70
     1
102
RTVSPropertyOp34
 70
     1
102
RTVSPropertyOp35
 70
     1
102
RTVSPropertyOp36
 70
     1
102
RTVSPropertyOp37
 70
     1
102
RTVSPropertyOp38
 70
     1
102
RTVSPropertyOp39
 70
     1
102
RTVSPropertyOp40
 70
     1
102
RTVSPropertyOp41
 70
     1
102
RTVSPropertyOp42
 70
     1
102
RTVSPropertyOp43
 70
     1
102
RTVSPropertyOp44
 70
     1
102
RTVSPropertyOp45
 70
     1
102
RTVSPropertyOp46
 70
     1
102
RTVSPropertyOp47
 70
     1
102
RTVSPropertyOp48
 70
     1
102
RTVSPropertyOp49
 70
     1
102
RTVSPropertyOp50
 70
     1
102
RTVSPropertyOp51
 70
     0
102
RTVSPropertyOp52
 70
     0
102
RTVSPropertyOp53
 70
     1
102
RTVSPropertyOp54
 70
     1
102
RTVSPropertyOp55
 70
     1
102
RTVSPropertyOp56
 70
     1
102
RTVSPropertyOp57
 70
     1
102
RTVSPost2010Prop28
280
     0
102
RTVSPost2010PropOp28
 70
     1
102
RTVSPost2010Prop29
280
     1
102
RTVSPost2010PropOp29
 70
     1
102
RTVSPost2010Prop30
280
     1
102
RTVSPost2010PropOp30
 70
     1
102
RTVSPost2010Prop31
280
     0
102
RTVSPost2010PropOp31
 70
     1
102
RTVSPost2010Prop32
280
     0
102
RTVSPost2010PropOp32
 70
     1
102
RTVSPost2010Prop33
280
     0
102
RTVSPost2010PropOp33
 70
     1
102
RTVSPost2010Prop34
280
     0
102
RTVSPost2010PropOp34
 70
     1
102
RTVSPost2010Prop35
280
     0
102
RTVSPost2010PropOp35
 70
     1
102
RTVSPost2010Prop36
280
     0
102
RTVSPost2010PropOp36
 70
     1
102
RTVSPost2010Prop37
 90
       50
102
RTVSPost2010PropOp37
 70
     1
102
RTVSPost2010Prop38
140
0.0
102
RTVSPost2010PropOp38
 70
     1
102
RTVSPost2010Prop39
140
1.0
102
RTVSPost2010PropOp39
 70
     1
102
RTVSPost2010Prop40
 90
        0
102
RTVSPost2010PropOp40
 70
     1
102
RTVSPost2010Prop41ColorIndex
 90
       18
102
RTVSPost2010Prop41ColorRGB
 90
        0
102
RTVSPost2010PropOp41
 70
     1
102
RTVSPost2010Prop42
 90
       50
102
RTVSPost2010PropOp42
 70
     1
102
RTVSPost2010Prop43
 90
        3
102
RTVSPost2010PropOp43
 70
     1
102
RTVSPost2010Prop44ColorIndex
 90
        5
102
RTVSPost2010Prop44ColorRGB
 90
      255
102
RTVSPost2010PropOp44
 70
     1
102
RTVSPost2010Prop45
280
     0
102
RTVSPost2010PropOp45
 70
     1
102
RTVSPost2010Prop46
 90
       50
102
RTVSPost2010PropOp46
 70
     1
102
RTVSPost2010Prop47
 90
       50
102
RTVSPost2010PropOp47
 70
     1
102
RTVSPost2010Prop48
 90
       50
102
RTVSPost2010PropOp48
 70
     1
102
RTVSPost2010Prop49
280
     0
102
RTVSPost2010PropOp49
 70
     1
102
RTVSPost2010Prop50
 90
       50
102
RTVSPost2010PropOp50
 70
     1
102
RTVSPost2010Prop51ColorIndex
 90
      256
102
RTVSPost2010Prop51ColorRGB
 90
-16777216
102
RTVSPost2010PropOp51
 70
     0
102
RTVSPost2010Prop52
140
1.0
102
RTVSPost2010PropOp52
 70
     0
102
RTVSPost2010Prop53
 90
        2
102
RTVSPost2010PropOp53
 70
     1
102
RTVSPost2010Prop54
  1
strokes_ogs.tif
102
RTVSPost2010PropOp54
 70
     1
102
RTVSPost2010Prop55
280
     0
102
RTVSPost2010PropOp55
 70
     1
102
RTVSPost2010Prop56
140
1.0
102
RTVSPost2010PropOp56
 70
     1
102
RTVSPost2010Prop57
140
1.0
102
RTVSPost2010PropOp57
 70
     1
  0
XRECORD
  5
419
102
{ACAD_REACTORS
330
418
102
}
330
418
100
AcDbXrecord
280
     1
102
RTVSPropertyOp0
 70
     1
102
RTVSPropertyOp1
 70
     1
102
RTVSPropertyOp2
 70
     1
102
RTVSPropertyOp3
 70
     1
102
RTVSPropertyOp4
 70
     1
102
RTVSPropertyOp5
 70
     1
102
RTVSPropertyOp6
 70
     1
102
RTVSPropertyOp7
 70
     1
102
RTVSPropertyOp8
 70
     1
102
RTVSPropertyOp9
 70
     1
102
RTVSPropertyOp10
 70
     1
102
RTVSPropertyOp11
 70
     1
102
RTVSPropertyOp12
 70
     1
102
RTVSPropertyOp13
 70
     1
102
RTVSPropertyOp14
 70
     1
102
RTVSPropertyOp15
 70
     1
102
RTVSPropertyOp16
 70
     1
102
RTVSPropertyOp17
 70
     1
102
RTVSPropertyOp18
 70
     1
102
RTVSPropertyOp19
 70
     1
102
RTVSPropertyOp20
 70
     1
102
RTVSPropertyOp21
 70
     1
102
RTVSPropertyOp22
 70
     1
102
RTVSPropertyOp23
 70
     1
102
RTVSPropertyOp24
 70
     1
102
RTVSPropertyOp25
 70
     1
102
RTVSPropertyOp26
 70
     1
102
RTVSPropertyOp27
 70
     1
102
RTVSPropertyOp28
 70
     1
102
RTVSPropertyOp29
 70
     1
102
RTVSPropertyOp30
 70
     1
102
RTVSPropertyOp31
 70
     1
102
RTVSPropertyOp32
 70
     1
102
RTVSPropertyOp33
 70
     1
102
RTVSPropertyOp34
 70
     1
102
RTVSPropertyOp35
 70
     1
102
RTVSPropertyOp36
 70
     1
102
RTVSPropertyOp37
 70
     1
102
RTVSPropertyOp38
 70
     1
102
RTVSPropertyOp39
 70
     1
102
RTVSPropertyOp40
 70
     1
102
RTVSPropertyOp41
 70
     1
102
RTVSPropertyOp42
 70
     1
102
RTVSPropertyOp43
 70
     1
102
RTVSPropertyOp44
 70
     1
102
RTVSPropertyOp45
 70
     1
102
RTVSPropertyOp46
 70
     1
102
RTVSPropertyOp47
 70
     1
102
RTVSPropertyOp48
 70
     1
102
RTVSPropertyOp49
 70
     1
102
RTVSPropertyOp50
 70
     1
102
RTVSPropertyOp51
 70
     0
102
RTVSPropertyOp52
 70
     0
102
RTVSPropertyOp53
 70
     1
102
RTVSPropertyOp54
 70
     1
102
RTVSPropertyOp55
 70
     1
102
RTVSPropertyOp56
 70
     1
102
RTVSPropertyOp57
 70
     1
102
RTVSPost2010Prop28
280
     0
102
RTVSPost2010PropOp28
 70
     1
102
RTVSPost2010Prop29
280
     1
102
RTVSPost2010PropOp29
 70
     1
102
RTVSPost2010Prop30
280
     1
102
RTVSPost2010PropOp30
 70
     1
102
RTVSPost2010Prop31
280
     0
102
RTVSPost2010PropOp31
 70
     1
102
RTVSPost2010Prop32
280
     0
102
RTVSPost2010PropOp32
 70
     1
102
RTVSPost2010Prop33
280
     0
102
RTVSPost2010PropOp33
 70
     1
102
RTVSPost2010Prop34
280
     0
102
RTVSPost2010PropOp34
 70
     1
102
RTVSPost2010Prop35
280
     0
102
RTVSPost2010PropOp35
 70
     1
102
RTVSPost2010Prop36
280
     0
102
RTVSPost2010PropOp36
 70
     1
102
RTVSPost2010Prop37
 90
       50
102
RTVSPost2010PropOp37
 70
     1
102
RTVSPost2010Prop38
140
0.0
102
RTVSPost2010PropOp38
 70
     1
102
RTVSPost2010Prop39
140
1.0
102
RTVSPost2010PropOp39
 70
     1
102
RTVSPost2010Prop40
 90
        0
102
RTVSPost2010PropOp40
 70
     1
102
RTVSPost2010Prop41ColorIndex
 90
       18
102
RTVSPost2010Prop41ColorRGB
 90
        0
102
RTVSPost2010PropOp41
 70
     1
102
RTVSPost2010Prop42
 90
       50
102
RTVSPost2010PropOp42
 70
     1
102
RTVSPost2010Prop43
 90
        3
102
RTVSPost2010PropOp43
 70
     1
102
RTVSPost2010Prop44ColorIndex
 90
        5
102
RTVSPost2010Prop44ColorRGB
 90
      255
102
RTVSPost2010PropOp44
 70
     1
102
RTVSPost2010Prop45
280
     0
102
RTVSPost2010PropOp45
 70
     1
102
RTVSPost2010Prop46
 90
       50
102
RTVSPost2010PropOp46
 70
     1
102
RTVSPost2010Prop47
 90
       50
102
RTVSPost2010PropOp47
 70
     1
102
RTVSPost2010Prop48
 90
       50
102
RTVSPost2010PropOp48
 70
     1
102
RTVSPost2010Prop49
280
     0
102
RTVSPost2010PropOp49
 70
     1
102
RTVSPost2010Prop50
 90
       50
102
RTVSPost2010PropOp50
 70
     1
102
RTVSPost2010Prop51ColorIndex
 90
      256
102
RTVSPost2010Prop51ColorRGB
 90
-16777216
102
RTVSPost2010PropOp51
 70
     0
102
RTVSPost2010Prop52
140
1.0
102
RTVSPost2010PropOp52
 70
     0
102
RTVSPost2010Prop53
 90
        2
102
RTVSPost2010PropOp53
 70
     1
102
RTVSPost2010Prop54
  1
strokes_ogs.tif
102
RTVSPost2010PropOp54
 70
     1
102
RTVSPost2010Prop55
280
     0
102
RTVSPost2010PropOp55
 70
     1
102
RTVSPost2010Prop56
140
1.0
102
RTVSPost2010PropOp56
 70
     1
102
RTVSPost2010Prop57
140
1.0
102
RTVSPost2010PropOp57
 70
     1
  0
XRECORD
  5
41B
102
{ACAD_REACTORS
330
41A
102
}
330
41A
100
AcDbXrecord
280
     1
102
RTVSPropertyOp0
 70
     1
102
RTVSPropertyOp1
 70
     1
102
RTVSPropertyOp2
 70
     1
102
RTVSPropertyOp3
 70
     1
102
RTVSPropertyOp4
 70
     1
102
RTVSPropertyOp5
 70
     1
102
RTVSPropertyOp6
 70
     1
102
RTVSPropertyOp7
 70
     1
102
RTVSPropertyOp8
 70
     1
102
RTVSPropertyOp9
 70
     1
102
RTVSPropertyOp10
 70
     1
102
RTVSPropertyOp11
 70
     1
102
RTVSPropertyOp12
 70
     1
102
RTVSPropertyOp13
 70
     1
102
RTVSPropertyOp14
 70
     1
102
RTVSPropertyOp15
 70
     1
102
RTVSPropertyOp16
 70
     1
102
RTVSPropertyOp17
 70
     1
102
RTVSPropertyOp18
 70
     1
102
RTVSPropertyOp19
 70
     1
102
RTVSPropertyOp20
 70
     1
102
RTVSPropertyOp21
 70
     1
102
RTVSPropertyOp22
 70
     1
102
RTVSPropertyOp23
 70
     1
102
RTVSPropertyOp24
 70
     1
102
RTVSPropertyOp25
 70
     1
102
RTVSPropertyOp26
 70
     1
102
RTVSPropertyOp27
 70
     1
102
RTVSPropertyOp28
 70
     1
102
RTVSPropertyOp29
 70
     1
102
RTVSPropertyOp30
 70
     1
102
RTVSPropertyOp31
 70
     1
102
RTVSPropertyOp32
 70
     1
102
RTVSPropertyOp33
 70
     1
102
RTVSPropertyOp34
 70
     1
102
RTVSPropertyOp35
 70
     1
102
RTVSPropertyOp36
 70
     1
102
RTVSPropertyOp37
 70
     1
102
RTVSPropertyOp38
 70
     1
102
RTVSPropertyOp39
 70
     1
102
RTVSPropertyOp40
 70
     1
102
RTVSPropertyOp41
 70
     1
102
RTVSPropertyOp42
 70
     1
102
RTVSPropertyOp43
 70
     1
102
RTVSPropertyOp44
 70
     1
102
RTVSPropertyOp45
 70
     1
102
RTVSPropertyOp46
 70
     1
102
RTVSPropertyOp47
 70
     1
102
RTVSPropertyOp48
 70
     1
102
RTVSPropertyOp49
 70
     1
102
RTVSPropertyOp50
 70
     1
102
RTVSPropertyOp51
 70
     0
102
RTVSPropertyOp52
 70
     0
102
RTVSPropertyOp53
 70
     1
102
RTVSPropertyOp54
 70
     1
102
RTVSPropertyOp55
 70
     1
102
RTVSPropertyOp56
 70
     1
102
RTVSPropertyOp57
 70
     1
102
RTVSPost2010Prop28
280
     0
102
RTVSPost2010PropOp28
 70
     1
102
RTVSPost2010Prop29
280
     1
102
RTVSPost2010PropOp29
 70
     1
102
RTVSPost2010Prop30
280
     1
102
RTVSPost2010PropOp30
 70
     1
102
RTVSPost2010Prop31
280
     0
102
RTVSPost2010PropOp31
 70
     1
102
RTVSPost2010Prop32
280
     0
102
RTVSPost2010PropOp32
 70
     1
102
RTVSPost2010Prop33
280
     0
102
RTVSPost2010PropOp33
 70
     1
102
RTVSPost2010Prop34
280
     0
102
RTVSPost2010PropOp34
 70
     1
102
RTVSPost2010Prop35
280
     0
102
RTVSPost2010PropOp35
 70
     1
102
RTVSPost2010Prop36
280
     0
102
RTVSPost2010PropOp36
 70
     1
102
RTVSPost2010Prop37
 90
       50
102
RTVSPost2010PropOp37
 70
     1
102
RTVSPost2010Prop38
140
0.0
102
RTVSPost2010PropOp38
 70
     1
102
RTVSPost2010Prop39
140
1.0
102
RTVSPost2010PropOp39
 70
     1
102
RTVSPost2010Prop40
 90
        0
102
RTVSPost2010PropOp40
 70
     1
102
RTVSPost2010Prop41ColorIndex
 90
       18
102
RTVSPost2010Prop41ColorRGB
 90
        0
102
RTVSPost2010PropOp41
 70
     1
102
RTVSPost2010Prop42
 90
       50
102
RTVSPost2010PropOp42
 70
     1
102
RTVSPost2010Prop43
 90
        3
102
RTVSPost2010PropOp43
 70
     1
102
RTVSPost2010Prop44ColorIndex
 90
        5
102
RTVSPost2010Prop44ColorRGB
 90
      255
102
RTVSPost2010PropOp44
 70
     1
102
RTVSPost2010Prop45
280
     0
102
RTVSPost2010PropOp45
 70
     1
102
RTVSPost2010Prop46
 90
       50
102
RTVSPost2010PropOp46
 70
     1
102
RTVSPost2010Prop47
 90
       50
102
RTVSPost2010PropOp47
 70
     1
102
RTVSPost2010Prop48
 90
       50
102
RTVSPost2010PropOp48
 70
     1
102
RTVSPost2010Prop49
280
     0
102
RTVSPost2010PropOp49
 70
     1
102
RTVSPost2010Prop50
 90
       50
102
RTVSPost2010PropOp50
 70
     1
102
RTVSPost2010Prop51ColorIndex
 90
      256
102
RTVSPost2010Prop51ColorRGB
 90
-16777216
102
RTVSPost2010PropOp51
 70
     0
102
RTVSPost2010Prop52
140
1.0
102
RTVSPost2010PropOp52
 70
     0
102
RTVSPost2010Prop53
 90
        2
102
RTVSPost2010PropOp53
 70
     1
102
RTVSPost2010Prop54
  1
strokes_ogs.tif
102
RTVSPost2010PropOp54
 70
     1
102
RTVSPost2010Prop55
280
     0
102
RTVSPost2010PropOp55
 70
     1
102
RTVSPost2010Prop56
140
1.0
102
RTVSPost2010PropOp56
 70
     1
102
RTVSPost2010Prop57
140
1.0
102
RTVSPost2010PropOp57
 70
     1
  0
XRECORD
  5
40B
102
{ACAD_REACTORS
330
40A
102
}
330
40A
100
AcDbXrecord
280
     1
102
RTVSPropertyOp0
 70
     1
102
RTVSPropertyOp1
 70
     1
102
RTVSPropertyOp2
 70
     1
102
RTVSPropertyOp3
 70
     1
102
RTVSPropertyOp4
 70
     1
102
RTVSPropertyOp5
 70
     1
102
RTVSPropertyOp6
 70
     1
102
RTVSPropertyOp7
 70
     1
102
RTVSPropertyOp8
 70
     1
102
RTVSPropertyOp9
 70
     1
102
RTVSPropertyOp10
 70
     1
102
RTVSPropertyOp11
 70
     1
102
RTVSPropertyOp12
 70
     1
102
RTVSPropertyOp13
 70
     1
102
RTVSPropertyOp14
 70
     1
102
RTVSPropertyOp15
 70
     1
102
RTVSPropertyOp16
 70
     1
102
RTVSPropertyOp17
 70
     1
102
RTVSPropertyOp18
 70
     1
102
RTVSPropertyOp19
 70
     1
102
RTVSPropertyOp20
 70
     1
102
RTVSPropertyOp21
 70
     1
102
RTVSPropertyOp22
 70
     1
102
RTVSPropertyOp23
 70
     1
102
RTVSPropertyOp24
 70
     1
102
RTVSPropertyOp25
 70
     1
102
RTVSPropertyOp26
 70
     1
102
RTVSPropertyOp27
 70
     1
102
RTVSPropertyOp28
 70
     1
102
RTVSPropertyOp29
 70
     1
102
RTVSPropertyOp30
 70
     1
102
RTVSPropertyOp31
 70
     1
102
RTVSPropertyOp32
 70
     1
102
RTVSPropertyOp33
 70
     1
102
RTVSPropertyOp34
 70
     1
102
RTVSPropertyOp35
 70
     1
102
RTVSPropertyOp36
 70
     1
102
RTVSPropertyOp37
 70
     1
102
RTVSPropertyOp38
 70
     1
102
RTVSPropertyOp39
 70
     1
102
RTVSPropertyOp40
 70
     1
102
RTVSPropertyOp41
 70
     1
102
RTVSPropertyOp42
 70
     1
102
RTVSPropertyOp43
 70
     1
102
RTVSPropertyOp44
 70
     1
102
RTVSPropertyOp45
 70
     1
102
RTVSPropertyOp46
 70
     1
102
RTVSPropertyOp47
 70
     1
102
RTVSPropertyOp48
 70
     1
102
RTVSPropertyOp49
 70
     1
102
RTVSPropertyOp50
 70
     1
102
RTVSPropertyOp51
 70
     0
102
RTVSPropertyOp52
 70
     0
102
RTVSPropertyOp53
 70
     1
102
RTVSPropertyOp54
 70
     1
102
RTVSPropertyOp55
 70
     1
102
RTVSPropertyOp56
 70
     1
102
RTVSPropertyOp57
 70
     1
102
RTVSPost2010Prop28
280
     0
102
RTVSPost2010PropOp28
 70
     1
102
RTVSPost2010Prop29
280
     1
102
RTVSPost2010PropOp29
 70
     1
102
RTVSPost2010Prop30
280
     1
102
RTVSPost2010PropOp30
 70
     1
102
RTVSPost2010Prop31
280
     0
102
RTVSPost2010PropOp31
 70
     1
102
RTVSPost2010Prop32
280
     0
102
RTVSPost2010PropOp32
 70
     1
102
RTVSPost2010Prop33
280
     0
102
RTVSPost2010PropOp33
 70
     1
102
RTVSPost2010Prop34
280
     0
102
RTVSPost2010PropOp34
 70
     1
102
RTVSPost2010Prop35
280
     0
102
RTVSPost2010PropOp35
 70
     1
102
RTVSPost2010Prop36
280
     0
102
RTVSPost2010PropOp36
 70
     1
102
RTVSPost2010Prop37
 90
       50
102
RTVSPost2010PropOp37
 70
     1
102
RTVSPost2010Prop38
140
0.0
102
RTVSPost2010PropOp38
 70
     1
102
RTVSPost2010Prop39
140
1.0
102
RTVSPost2010PropOp39
 70
     1
102
RTVSPost2010Prop40
 90
        0
102
RTVSPost2010PropOp40
 70
     1
102
RTVSPost2010Prop41ColorIndex
 90
       18
102
RTVSPost2010Prop41ColorRGB
 90
        0
102
RTVSPost2010PropOp41
 70
     1
102
RTVSPost2010Prop42
 90
       50
102
RTVSPost2010PropOp42
 70
     1
102
RTVSPost2010Prop43
 90
        3
102
RTVSPost2010PropOp43
 70
     1
102
RTVSPost2010Prop44ColorIndex
 90
        5
102
RTVSPost2010Prop44ColorRGB
 90
      255
102
RTVSPost2010PropOp44
 70
     1
102
RTVSPost2010Prop45
280
     0
102
RTVSPost2010PropOp45
 70
     1
102
RTVSPost2010Prop46
 90
       50
102
RTVSPost2010PropOp46
 70
     1
102
RTVSPost2010Prop47
 90
       50
102
RTVSPost2010PropOp47
 70
     1
102
RTVSPost2010Prop48
 90
       50
102
RTVSPost2010PropOp48
 70
     1
102
RTVSPost2010Prop49
280
     0
102
RTVSPost2010PropOp49
 70
     1
102
RTVSPost2010Prop50
 90
       50
102
RTVSPost2010PropOp50
 70
     1
102
RTVSPost2010Prop51ColorIndex
 90
      256
102
RTVSPost2010Prop51ColorRGB
 90
-16777216
102
RTVSPost2010PropOp51
 70
     0
102
RTVSPost2010Prop52
140
1.0
102
RTVSPost2010PropOp52
 70
     0
102
RTVSPost2010Prop53
 90
        2
102
RTVSPost2010PropOp53
 70
     1
102
RTVSPost2010Prop54
  1
strokes_ogs.tif
102
RTVSPost2010PropOp54
 70
     1
102
RTVSPost2010Prop55
280
     0
102
RTVSPost2010PropOp55
 70
     1
102
RTVSPost2010Prop56
140
1.0
102
RTVSPost2010PropOp56
 70
     1
102
RTVSPost2010Prop57
140
1.0
102
RTVSPost2010PropOp57
 70
     1
  0
XRECORD
  5
3FD
102
{ACAD_REACTORS
330
3FC
102
}
330
3FC
100
AcDbXrecord
280
     1
102
RTVSPropertyOp0
 70
     1
102
RTVSPropertyOp1
 70
     1
102
RTVSPropertyOp2
 70
     1
102
RTVSPropertyOp3
 70
     1
102
RTVSPropertyOp4
 70
     1
102
RTVSPropertyOp5
 70
     1
102
RTVSPropertyOp6
 70
     1
102
RTVSPropertyOp7
 70
     1
102
RTVSPropertyOp8
 70
     1
102
RTVSPropertyOp9
 70
     1
102
RTVSPropertyOp10
 70
     1
102
RTVSPropertyOp11
 70
     1
102
RTVSPropertyOp12
 70
     1
102
RTVSPropertyOp13
 70
     1
102
RTVSPropertyOp14
 70
     1
102
RTVSPropertyOp15
 70
     1
102
RTVSPropertyOp16
 70
     1
102
RTVSPropertyOp17
 70
     1
102
RTVSPropertyOp18
 70
     1
102
RTVSPropertyOp19
 70
     1
102
RTVSPropertyOp20
 70
     1
102
RTVSPropertyOp21
 70
     1
102
RTVSPropertyOp22
 70
     1
102
RTVSPropertyOp23
 70
     1
102
RTVSPropertyOp24
 70
     1
102
RTVSPropertyOp25
 70
     1
102
RTVSPropertyOp26
 70
     1
102
RTVSPropertyOp27
 70
     1
102
RTVSPropertyOp28
 70
     1
102
RTVSPropertyOp29
 70
     1
102
RTVSPropertyOp30
 70
     1
102
RTVSPropertyOp31
 70
     1
102
RTVSPropertyOp32
 70
     1
102
RTVSPropertyOp33
 70
     1
102
RTVSPropertyOp34
 70
     1
102
RTVSPropertyOp35
 70
     1
102
RTVSPropertyOp36
 70
     1
102
RTVSPropertyOp37
 70
     1
102
RTVSPropertyOp38
 70
     1
102
RTVSPropertyOp39
 70
     1
102
RTVSPropertyOp40
 70
     1
102
RTVSPropertyOp41
 70
     1
102
RTVSPropertyOp42
 70
     1
102
RTVSPropertyOp43
 70
     1
102
RTVSPropertyOp44
 70
     1
102
RTVSPropertyOp45
 70
     1
102
RTVSPropertyOp46
 70
     1
102
RTVSPropertyOp47
 70
     1
102
RTVSPropertyOp48
 70
     1
102
RTVSPropertyOp49
 70
     1
102
RTVSPropertyOp50
 70
     1
102
RTVSPropertyOp51
 70
     0
102
RTVSPropertyOp52
 70
     0
102
RTVSPropertyOp53
 70
     1
102
RTVSPropertyOp54
 70
     1
102
RTVSPropertyOp55
 70
     1
102
RTVSPropertyOp56
 70
     1
102
RTVSPropertyOp57
 70
     1
102
RTVSPost2010Prop28
280
     0
102
RTVSPost2010PropOp28
 70
     1
102
RTVSPost2010Prop29
280
     1
102
RTVSPost2010PropOp29
 70
     1
102
RTVSPost2010Prop30
280
     1
102
RTVSPost2010PropOp30
 70
     1
102
RTVSPost2010Prop31
280
     0
102
RTVSPost2010PropOp31
 70
     1
102
RTVSPost2010Prop32
280
     0
102
RTVSPost2010PropOp32
 70
     1
102
RTVSPost2010Prop33
280
     0
102
RTVSPost2010PropOp33
 70
     1
102
RTVSPost2010Prop34
280
     0
102
RTVSPost2010PropOp34
 70
     1
102
RTVSPost2010Prop35
280
     0
102
RTVSPost2010PropOp35
 70
     1
102
RTVSPost2010Prop36
280
     0
102
RTVSPost2010PropOp36
 70
     1
102
RTVSPost2010Prop37
 90
       50
102
RTVSPost2010PropOp37
 70
     1
102
RTVSPost2010Prop38
140
0.0
102
RTVSPost2010PropOp38
 70
     1
102
RTVSPost2010Prop39
140
1.0
102
RTVSPost2010PropOp39
 70
     1
102
RTVSPost2010Prop40
 90
        0
102
RTVSPost2010PropOp40
 70
     1
102
RTVSPost2010Prop41ColorIndex
 90
       18
102
RTVSPost2010Prop41ColorRGB
 90
        0
102
RTVSPost2010PropOp41
 70
     1
102
RTVSPost2010Prop42
 90
       50
102
RTVSPost2010PropOp42
 70
     1
102
RTVSPost2010Prop43
 90
        3
102
RTVSPost2010PropOp43
 70
     1
102
RTVSPost2010Prop44ColorIndex
 90
        5
102
RTVSPost2010Prop44ColorRGB
 90
      255
102
RTVSPost2010PropOp44
 70
     1
102
RTVSPost2010Prop45
280
     0
102
RTVSPost2010PropOp45
 70
     1
102
RTVSPost2010Prop46
 90
       50
102
RTVSPost2010PropOp46
 70
     1
102
RTVSPost2010Prop47
 90
       50
102
RTVSPost2010PropOp47
 70
     1
102
RTVSPost2010Prop48
 90
       50
102
RTVSPost2010PropOp48
 70
     1
102
RTVSPost2010Prop49
280
     0
102
RTVSPost2010PropOp49
 70
     1
102
RTVSPost2010Prop50
 90
       50
102
RTVSPost2010PropOp50
 70
     1
102
RTVSPost2010Prop51ColorIndex
 90
      256
102
RTVSPost2010Prop51ColorRGB
 90
-16777216
102
RTVSPost2010PropOp51
 70
     0
102
RTVSPost2010Prop52
140
1.0
102
RTVSPost2010PropOp52
 70
     0
102
RTVSPost2010Prop53
 90
        2
102
RTVSPost2010PropOp53
 70
     1
102
RTVSPost2010Prop54
  1
strokes_ogs.tif
102
RTVSPost2010PropOp54
 70
     1
102
RTVSPost2010Prop55
280
     0
102
RTVSPost2010PropOp55
 70
     1
102
RTVSPost2010Prop56
140
1.0
102
RTVSPost2010PropOp56
 70
     1
102
RTVSPost2010Prop57
140
1.0
102
RTVSPost2010PropOp57
 70
     1
  0
XRECORD
  5
41D
102
{ACAD_REACTORS
330
41C
102
}
330
41C
100
AcDbXrecord
280
     1
102
RTVSPropertyOp0
 70
     1
102
RTVSPropertyOp1
 70
     1
102
RTVSPropertyOp2
 70
     1
102
RTVSPropertyOp3
 70
     1
102
RTVSPropertyOp4
 70
     1
102
RTVSPropertyOp5
 70
     1
102
RTVSPropertyOp6
 70
     1
102
RTVSPropertyOp7
 70
     1
102
RTVSPropertyOp8
 70
     1
102
RTVSPropertyOp9
 70
     1
102
RTVSPropertyOp10
 70
     1
102
RTVSPropertyOp11
 70
     1
102
RTVSPropertyOp12
 70
     1
102
RTVSPropertyOp13
 70
     1
102
RTVSPropertyOp14
 70
     1
102
RTVSPropertyOp15
 70
     1
102
RTVSPropertyOp16
 70
     1
102
RTVSPropertyOp17
 70
     1
102
RTVSPropertyOp18
 70
     1
102
RTVSPropertyOp19
 70
     1
102
RTVSPropertyOp20
 70
     1
102
RTVSPropertyOp21
 70
     1
102
RTVSPropertyOp22
 70
     1
102
RTVSPropertyOp23
 70
     1
102
RTVSPropertyOp24
 70
     1
102
RTVSPropertyOp25
 70
     1
102
RTVSPropertyOp26
 70
     1
102
RTVSPropertyOp27
 70
     1
102
RTVSPropertyOp28
 70
     1
102
RTVSPropertyOp29
 70
     1
102
RTVSPropertyOp30
 70
     1
102
RTVSPropertyOp31
 70
     1
102
RTVSPropertyOp32
 70
     1
102
RTVSPropertyOp33
 70
     1
102
RTVSPropertyOp34
 70
     1
102
RTVSPropertyOp35
 70
     1
102
RTVSPropertyOp36
 70
     1
102
RTVSPropertyOp37
 70
     1
102
RTVSPropertyOp38
 70
     1
102
RTVSPropertyOp39
 70
     1
102
RTVSPropertyOp40
 70
     1
102
RTVSPropertyOp41
 70
     1
102
RTVSPropertyOp42
 70
     1
102
RTVSPropertyOp43
 70
     1
102
RTVSPropertyOp44
 70
     1
102
RTVSPropertyOp45
 70
     1
102
RTVSPropertyOp46
 70
     1
102
RTVSPropertyOp47
 70
     1
102
RTVSPropertyOp48
 70
     1
102
RTVSPropertyOp49
 70
     1
102
RTVSPropertyOp50
 70
     1
102
RTVSPropertyOp51
 70
     0
102
RTVSPropertyOp52
 70
     0
102
RTVSPropertyOp53
 70
     1
102
RTVSPropertyOp54
 70
     1
102
RTVSPropertyOp55
 70
     1
102
RTVSPropertyOp56
 70
     1
102
RTVSPropertyOp57
 70
     1
102
RTVSPost2010Prop28
280
     0
102
RTVSPost2010PropOp28
 70
     1
102
RTVSPost2010Prop29
280
     1
102
RTVSPost2010PropOp29
 70
     1
102
RTVSPost2010Prop30
280
     1
102
RTVSPost2010PropOp30
 70
     1
102
RTVSPost2010Prop31
280
     0
102
RTVSPost2010PropOp31
 70
     1
102
RTVSPost2010Prop32
280
     0
102
RTVSPost2010PropOp32
 70
     1
102
RTVSPost2010Prop33
280
     0
102
RTVSPost2010PropOp33
 70
     1
102
RTVSPost2010Prop34
280
     0
102
RTVSPost2010PropOp34
 70
     1
102
RTVSPost2010Prop35
280
     0
102
RTVSPost2010PropOp35
 70
     1
102
RTVSPost2010Prop36
280
     0
102
RTVSPost2010PropOp36
 70
     1
102
RTVSPost2010Prop37
 90
       50
102
RTVSPost2010PropOp37
 70
     1
102
RTVSPost2010Prop38
140
0.0
102
RTVSPost2010PropOp38
 70
     1
102
RTVSPost2010Prop39
140
1.0
102
RTVSPost2010PropOp39
 70
     1
102
RTVSPost2010Prop40
 90
        0
102
RTVSPost2010PropOp40
 70
     1
102
RTVSPost2010Prop41ColorIndex
 90
       18
102
RTVSPost2010Prop41ColorRGB
 90
        0
102
RTVSPost2010PropOp41
 70
     1
102
RTVSPost2010Prop42
 90
       50
102
RTVSPost2010PropOp42
 70
     1
102
RTVSPost2010Prop43
 90
        3
102
RTVSPost2010PropOp43
 70
     1
102
RTVSPost2010Prop44ColorIndex
 90
        5
102
RTVSPost2010Prop44ColorRGB
 90
      255
102
RTVSPost2010PropOp44
 70
     1
102
RTVSPost2010Prop45
280
     0
102
RTVSPost2010PropOp45
 70
     1
102
RTVSPost2010Prop46
 90
       50
102
RTVSPost2010PropOp46
 70
     1
102
RTVSPost2010Prop47
 90
       50
102
RTVSPost2010PropOp47
 70
     1
102
RTVSPost2010Prop48
 90
       50
102
RTVSPost2010PropOp48
 70
     1
102
RTVSPost2010Prop49
280
     0
102
RTVSPost2010PropOp49
 70
     1
102
RTVSPost2010Prop50
 90
       50
102
RTVSPost2010PropOp50
 70
     1
102
RTVSPost2010Prop51ColorIndex
 90
      256
102
RTVSPost2010Prop51ColorRGB
 90
-16777216
102
RTVSPost2010PropOp51
 70
     0
102
RTVSPost2010Prop52
140
1.0
102
RTVSPost2010PropOp52
 70
     0
102
RTVSPost2010Prop53
 90
        2
102
RTVSPost2010PropOp53
 70
     1
102
RTVSPost2010Prop54
  1
strokes_ogs.tif
102
RTVSPost2010PropOp54
 70
     1
102
RTVSPost2010Prop55
280
     0
102
RTVSPost2010PropOp55
 70
     1
102
RTVSPost2010Prop56
140
1.0
102
RTVSPost2010PropOp56
 70
     1
102
RTVSPost2010Prop57
140
1.0
102
RTVSPost2010PropOp57
 70
     1
  0
ENDSEC
  0
EOF
